0
SECTION
2
HEADER
9
$ACADVER
1
AC1012
9
$EXTMIN
10
-0.010000
20
-0.010000
30
0.0
9
$EXTMAX
10
13.390000
20
14.180000
30
0.0
9
$LIMMIN
10
-0.254000
20
-0.254000
9
$LIMMAX
10
340.106000
20
360.172000
9
$DIMSCALE
40
1.000000
9
$PDMODE
70
2
9
$PDSIZE
40
0.0
  9
$HANDSEED
  5
414
0
ENDSEC
0
SECTION
2
CLASSES
0
ENDSEC
0
SECTION
2
TABLES
0
TABLE
2
LTYPE
5
1e
100
AcDbSymbolTable
70
12
0
LTYPE
5
1f
100
AcDbSymbolTableRecord
100
AcDbLinetypeTableRecord
2
BYBLOCK
70
0
3

72
65
73
0
40
0.0
0
LTYPE
5
20
100
AcDbSymbolTableRecord
100
AcDbLinetypeTableRecord
2
BYLAYER
70
0
3

72
65
73
0
40
0.0
0
LTYPE
5
21
100
AcDbSymbolTableRecord
100
AcDbLinetypeTableRecord
2
CONTINUOUS
70
64
3
Solid line
72
65
73
0
40
0.0
0
LTYPE
5
22
100
AcDbSymbolTableRecord
100
AcDbLinetypeTableRecord
2
DASHED
70
64
3
__ __ __ __ __ __ __ __ __ __ __ __ __ __ __
72
65
73
2
40
0.75
49
0.5
74
0
49
-0.25
74
0
0
LTYPE
5
23
100
AcDbSymbolTableRecord
100
AcDbLinetypeTableRecord
2
DOT
70
64
3
...............................................
72
65
73
2
40
0.25
49
0.0
74
0
49
-0.25
74
0
0
LTYPE
5
24
100
AcDbSymbolTableRecord
100
AcDbLinetypeTableRecord
2
DASHDOT
70
64
3
__ . __ . __ . __ . __ . __ . __ . __ . __ . --
72
65
73
4
40
1.0
49
0.5
74
0
49
-0.25
74
0
49
0.0
74
0
49
-0.25
74
0
0
LTYPE
5
25
100
AcDbSymbolTableRecord
100
AcDbLinetypeTableRecord
2
CENTER
70
64
3
____ _ ____ _ ____ _ ____ _ ____ _ ____ _ ____
72
65
73
4
40
2.0
49
1.25
74
0
49
-0.25
74
0
49
0.25
74
0
49
-0.25
74
0
0
LTYPE
5
26
100
AcDbSymbolTableRecord
100
AcDbLinetypeTableRecord
2
PHANTOM
70
64
3
_____ _ _ _____ _ _ _____ _ _ _____ _ _ ____
72
65
73
6
40
2.5
49
1.25
74
0
49
-0.25
74
0
49
0.25
74
0
49
-0.25
74
0
49
0.25
74
0
49
-0.25
74
0
0
LTYPE
5
27
100
AcDbSymbolTableRecord
100
AcDbLinetypeTableRecord
2
HIDDEN
70
64
3
_ _ _ _ _ _ _ _ _ _ _ _ _ _ _ _ _ _ _ _ _ _ _
72
65
73
2
40
0.375
49
0.25
74
0
49
-0.125
74
0
0
LTYPE
5
28
100
AcDbSymbolTableRecord
100
AcDbLinetypeTableRecord
2
BORDER
70
64
3
__ __ . __ __ . __ __ . __ __ . __ __ . __ __
72
65
73
6
40
1.75
49
0.5
74
0
49
-0.25
74
0
49
0.5
74
0
49
-0.25
74
0
49
0.0
74
0
49
-0.25
74
0
0
LTYPE
5
29
100
AcDbSymbolTableRecord
100
AcDbLinetypeTableRecord
2
DIVIDE
70
64
3
__ . . __ . . __ . . __ . . __ . . __ . . __
72
65
73
6
40
1.25
49
0.5
74
0
49
-0.25
74
0
49
0.0
74
0
49
-0.25
74
0
49
0.0
74
0
49
-0.25
74
0
0
LTYPE
5
2a
100
AcDbSymbolTableRecord
100
AcDbLinetypeTableRecord
2
DOT2
70
64
3
...............................................
72
65
73
2
40
0.125
49
0.0
74
0
49
-0.125
74
0
0
ENDTAB
0
TABLE
2
STYLE
5
2b
100
AcDbSymbolTable
70
1
0
STYLE
5
2c
100
AcDbSymbolTableRecord
100
AcDbTextStyleTableRecord
2
STANDARD
70
64
40
0.0
41
1.0
50
0.0
71
0
42
5.0
3
txt
4
bigfont
0
ENDTAB
0
TABLE
2
LAYER
5
2d
100
AcDbSymbolTable
70
3
0
LAYER
5
2e
100
AcDbSymbolTableRecord
100
AcDbLayerTableRecord
2
0
70
0
62
7
6
CONTINUOUS
0
LAYER
5
2f
100
AcDbSymbolTableRecord
100
AcDbLayerTableRecord
2
1
70
0
62
7
6
CONTINUOUS
0
LAYER
5
30
100
AcDbSymbolTableRecord
100
AcDbLayerTableRecord
2
0
70
0
62
7
6
CONTINUOUS
0
ENDTAB
0
TABLE
2
APPID
5
31
100
AcDbSymbolTable
70
1
0
APPID
5
32
100
AcDbSymbolTableRecord
100
AcDbRegAppTableRecord
2
ACAD
70
64
0
ENDTAB
0
TABLE
2
DIMSTYLE
5
33
100
AcDbSymbolTable
70
0
0
ENDTAB
0
TABLE
2
UCS
5
34
100
AcDbSymbolTable
70
0
0
ENDTAB
0
TABLE
2
VIEW
5
35
100
AcDbSymbolTable
70
0
0
ENDTAB
0
TABLE
2
VPORT
5
36
100
AcDbSymbolTable
70
0
0
ENDTAB
0
TABLE
2
BLOCK_RECORD
5
37
100
AcDbSymbolTable
70
0
0
BLOCK_RECORD
5
38
100
AcDbSymbolTableRecord
100
AcDbBlockTableRecord
2
*MODEL_SPACE
0
BLOCK_RECORD
5
39
100
AcDbSymbolTableRecord
100
AcDbBlockTableRecord
2
*PAPER_SPACE
0
BLOCK_RECORD
5
3a
100
AcDbSymbolTableRecord
100
AcDbBlockTableRecord
2
OPEN
0
BLOCK_RECORD
5
3b
100
AcDbSymbolTableRecord
100
AcDbBlockTableRecord
2
HALF
0
BLOCK_RECORD
5
3c
100
AcDbSymbolTableRecord
100
AcDbBlockTableRecord
2
CLOSEDBLANK
0
BLOCK_RECORD
5
3d
100
AcDbSymbolTableRecord
100
AcDbBlockTableRecord
2
HALFCLOSE_R
0
BLOCK_RECORD
5
3e
100
AcDbSymbolTableRecord
100
AcDbBlockTableRecord
2
DOT
0
BLOCK_RECORD
5
3f
100
AcDbSymbolTableRecord
100
AcDbBlockTableRecord
2
HALFOPEN_R
0
BLOCK_RECORD
5
40
100
AcDbSymbolTableRecord
100
AcDbBlockTableRecord
2
CLOSEDF
0
BLOCK_RECORD
5
41
100
AcDbSymbolTableRecord
100
AcDbBlockTableRecord
2
HALF_R
0
ENDTAB
0
ENDSEC
0
SECTION
2
BLOCKS
0
BLOCK
5
42
100
AcDbEntity
8
0
100
AcDbBlockBegin
2
*MODEL_SPACE
70
0
10
0.0
20
0.0
30
0.0
3
*MODEL_SPACE
1

0
ENDBLK
5
43
100
AcDbEntity
8
0
100
AcDbBlockEnd
0
BLOCK
5
44
100
AcDbEntity
67
1
8
0
100
AcDbBlockBegin
2
*PAPER_SPACE
70
0
10
0.0
20
0.0
30
0.0
3
*PAPER_SPACE
1

0
ENDBLK
5
45
100
AcDbEntity
67
1
8
0
100
AcDbBlockEnd
0
BLOCK
5
46
100
AcDbEntity
8
0
100
AcDbBlockBegin
2
OPEN
70
0
10
0.0
20
0.0
30
0.0
3
OPEN
1

0
LINE
5
47
100
AcDbEntity
8
0
6
BYBLOCK
62
0
100
AcDbLine
10
0.000000
20
0.000000
11
-1.000000
21
0.000000
0
LINE
5
48
100
AcDbEntity
8
0
6
BYBLOCK
62
0
100
AcDbLine
10
-1.000000
20
-0.166667
11
0.000000
21
0.000000
0
LINE
5
49
100
AcDbEntity
8
0
6
BYBLOCK
62
0
100
AcDbLine
10
-1.000000
20
0.166667
11
0.000000
21
0.000000
0
ENDBLK
5
4a
100
AcDbEntity
8
0
100
AcDbBlockEnd
0
BLOCK
5
4b
100
AcDbEntity
8
0
100
AcDbBlockBegin
2
HALF
70
0
10
0.0
20
0.0
30
0.0
3
HALF
1

0
SOLID
5
4c
100
AcDbEntity
8
0
6
BYBLOCK
62
0
100
AcDbTrace
10
-1.000000
20
0.166667
11
-1.000000
21
-0.166667
12
0.000000
22
0.000000
13
0.000000
23
0.000000
0
ENDBLK
5
4d
100
AcDbEntity
8
0
100
AcDbBlockEnd
0
BLOCK
5
4e
100
AcDbEntity
8
0
100
AcDbBlockBegin
2
CLOSEDBLANK
70
0
10
0.0
20
0.0
30
0.0
3
CLOSEDBLANK
1

0
LINE
5
4f
100
AcDbEntity
8
0
6
BYBLOCK
62
0
100
AcDbLine
10
-1.000000
20
0.166667
11
-1.000000
21
-0.166667
0
LINE
5
50
100
AcDbEntity
8
0
6
BYBLOCK
62
0
100
AcDbLine
10
0.000000
20
0.000000
11
-1.000000
21
-0.166667
0
LINE
5
51
100
AcDbEntity
8
0
6
BYBLOCK
62
0
100
AcDbLine
10
-1.000000
20
0.166667
11
0.000000
21
0.000000
0
ENDBLK
5
52
100
AcDbEntity
8
0
100
AcDbBlockEnd
0
BLOCK
5
53
100
AcDbEntity
8
0
100
AcDbBlockBegin
2
HALFCLOSE_R
70
0
10
0.0
20
0.0
30
0.0
3
HALFCLOSE_R
1

0
LINE
5
54
100
AcDbEntity
8
0
6
BYBLOCK
62
0
100
AcDbLine
10
-1.000000
20
-0.166667
11
-1.000000
21
0.000000
0
LINE
5
55
100
AcDbEntity
8
0
6
BYBLOCK
62
0
100
AcDbLine
10
-1.000000
20
-0.166667
11
0.000000
21
0.000000
0
LINE
5
56
100
AcDbEntity
8
0
6
BYBLOCK
62
0
100
AcDbLine
10
0.000000
20
0.000000
11
-1.000000
21
0.000000
0
ENDBLK
5
57
100
AcDbEntity
8
0
100
AcDbBlockEnd
0
BLOCK
5
58
100
AcDbEntity
8
0
100
AcDbBlockBegin
2
DOT
70
0
10
0.0
20
0.0
30
0.0
3
DOT
1

0
LINE
5
59
100
AcDbEntity
8
0
6
BYBLOCK
62
0
100
AcDbLine
10
0.000000
20
0.000000
11
-1.000000
21
0.000000
0
POLYLINE
5
5a
100
AcDbEntity
8
0
6
BYBLOCK
62
0
100
AcDb2dPolyline
66
1
10
0.0
20
0.0
30
0.0
70
1
40
0.166667
41
0.166667
0
VERTEX
5
5b
100
AcDbEntity
8
0
100
AcDbVertex
100
AcDb2dVertex
62
10
10
-0.083333
20
0.000000
42
1.000000
0
VERTEX
5
5c
100
AcDbEntity
8
0
100
AcDbVertex
100
AcDb2dVertex
62
10
10
0.083333
20
0.000000
42
1.000000
0
SEQEND
5
5d
100
AcDbEntity
8
0
0
ENDBLK
5
5e
100
AcDbEntity
8
0
100
AcDbBlockEnd
0
BLOCK
5
5f
100
AcDbEntity
8
0
100
AcDbBlockBegin
2
HALFOPEN_R
70
0
10
0.0
20
0.0
30
0.0
3
HALFOPEN_R
1

0
LINE
5
60
100
AcDbEntity
8
0
6
BYBLOCK
62
0
100
AcDbLine
10
-1.000000
20
-0.166667
11
0.000000
21
0.000000
0
LINE
5
61
100
AcDbEntity
8
0
6
BYBLOCK
62
0
100
AcDbLine
10
0.000000
20
0.000000
11
-1.000000
21
0.000000
0
ENDBLK
5
62
100
AcDbEntity
8
0
100
AcDbBlockEnd
0
BLOCK
5
63
100
AcDbEntity
8
0
100
AcDbBlockBegin
2
CLOSEDF
70
0
10
0.0
20
0.0
30
0.0
3
CLOSEDF
1

0
SOLID
5
64
100
AcDbEntity
8
0
6
BYBLOCK
62
0
100
AcDbTrace
10
-1.000000
20
0.166667
11
-1.000000
21
-0.166667
12
0.000000
22
0.000000
13
0.000000
23
0.000000
0
ENDBLK
5
65
100
AcDbEntity
8
0
100
AcDbBlockEnd
0
BLOCK
5
66
100
AcDbEntity
8
0
100
AcDbBlockBegin
2
HALF_R
70
0
10
0.0
20
0.0
30
0.0
3
HALF_R
1

0
SOLID
5
67
100
AcDbEntity
8
0
6
BYBLOCK
62
0
100
AcDbTrace
10
-1.000000
20
-0.166667
11
-1.000000
21
0.000000
12
0.000000
22
0.000000
13
0.000000
23
0.000000
0
ENDBLK
5
68
100
AcDbEntity
8
0
100
AcDbBlockEnd
0
ENDSEC
0
SECTION
2
ENTITIES
0
POLYLINE
5
69
100
AcDbEntity
8
1
6
CONTINUOUS
62
5
100
AcDb2dPolyline
66
1
10
0.0
20
0.0
30
0.0
70
0
0
VERTEX
5
6a
100
AcDbEntity
8
1
100
AcDbVertex
100
AcDb2dVertex
62
5
10
214.250000
20
334.937500
0
VERTEX
5
6b
100
AcDbEntity
8
1
100
AcDbVertex
100
AcDb2dVertex
62
5
10
214.500000
20
334.937500
0
VERTEX
5
6c
100
AcDbEntity
8
1
100
AcDbVertex
100
AcDb2dVertex
62
5
10
216.250000
20
333.687500
0
SEQEND
5
6d
100
AcDbEntity
8
1
0
LINE
5
6e
100
AcDbEntity
8
1
100
AcDbLine
6
CONTINUOUS
62
5
10
214.250000
20
337.750000
11
214.250000
21
330.250000
0
POLYLINE
5
6f
100
AcDbEntity
8
1
6
CONTINUOUS
62
5
100
AcDb2dPolyline
66
1
10
0.0
20
0.0
30
0.0
70
0
0
VERTEX
5
70
100
AcDbEntity
8
1
100
AcDbVertex
100
AcDb2dVertex
62
5
10
196.000000
20
334.312500
0
VERTEX
5
71
100
AcDbEntity
8
1
100
AcDbVertex
100
AcDb2dVertex
62
5
10
201.250000
20
334.937500
0
VERTEX
5
72
100
AcDbEntity
8
1
100
AcDbVertex
100
AcDb2dVertex
62
5
10
201.250000
20
334.625000
0
VERTEX
5
73
100
AcDbEntity
8
1
100
AcDbVertex
100
AcDb2dVertex
62
5
10
200.000000
20
333.062500
0
SEQEND
5
74
100
AcDbEntity
8
1
0
POLYLINE
5
75
100
AcDbEntity
8
1
6
CONTINUOUS
62
5
100
AcDb2dPolyline
66
1
10
0.0
20
0.0
30
0.0
70
0
0
VERTEX
5
76
100
AcDbEntity
8
1
100
AcDbVertex
100
AcDb2dVertex
62
5
10
198.000000
20
337.125000
0
VERTEX
5
77
100
AcDbEntity
8
1
100
AcDbVertex
100
AcDb2dVertex
62
5
10
198.000000
20
331.187500
0
VERTEX
5
78
100
AcDbEntity
8
1
100
AcDbVertex
100
AcDb2dVertex
62
5
10
198.500000
20
330.562500
0
VERTEX
5
79
100
AcDbEntity
8
1
100
AcDbVertex
100
AcDb2dVertex
62
5
10
201.250000
20
330.562500
0
SEQEND
5
7a
100
AcDbEntity
8
1
0
LINE
5
7b
100
AcDbEntity
8
1
100
AcDbLine
6
CONTINUOUS
62
5
10
204.750000
20
336.187500
11
205.750000
21
334.937500
0
POLYLINE
5
7c
100
AcDbEntity
8
1
6
CONTINUOUS
62
5
100
AcDb2dPolyline
66
1
10
0.0
20
0.0
30
0.0
70
0
0
VERTEX
5
7d
100
AcDbEntity
8
1
100
AcDbVertex
100
AcDb2dVertex
62
5
10
204.500000
20
331.187500
0
VERTEX
5
7e
100
AcDbEntity
8
1
100
AcDbVertex
100
AcDb2dVertex
62
5
10
206.250000
20
332.125000
0
VERTEX
5
7f
100
AcDbEntity
8
1
100
AcDbVertex
100
AcDb2dVertex
62
5
10
207.750000
20
333.375000
0
VERTEX
5
80
100
AcDbEntity
8
1
100
AcDbVertex
100
AcDb2dVertex
62
5
10
209.250000
20
334.937500
0
SEQEND
5
81
100
AcDbEntity
8
1
0
POLYLINE
5
82
100
AcDbEntity
8
1
6
CONTINUOUS
62
5
100
AcDb2dPolyline
66
1
10
0.0
20
0.0
30
0.0
70
0
0
VERTEX
5
83
100
AcDbEntity
8
1
100
AcDbVertex
100
AcDb2dVertex
62
5
10
173.500000
20
336.812500
0
VERTEX
5
84
100
AcDbEntity
8
1
100
AcDbVertex
100
AcDb2dVertex
62
5
10
173.500000
20
334.937500
0
VERTEX
5
85
100
AcDbEntity
8
1
100
AcDbVertex
100
AcDb2dVertex
62
5
10
173.250000
20
333.375000
0
VERTEX
5
86
100
AcDbEntity
8
1
100
AcDbVertex
100
AcDb2dVertex
62
5
10
172.750000
20
332.125000
0
VERTEX
5
87
100
AcDbEntity
8
1
100
AcDbVertex
100
AcDb2dVertex
62
5
10
172.000000
20
330.875000
0
VERTEX
5
88
100
AcDbEntity
8
1
100
AcDbVertex
100
AcDb2dVertex
62
5
10
171.750000
20
330.562500
0
SEQEND
5
89
100
AcDbEntity
8
1
0
POLYLINE
5
8a
100
AcDbEntity
8
1
6
CONTINUOUS
62
5
100
AcDb2dPolyline
66
1
10
0.0
20
0.0
30
0.0
70
0
0
VERTEX
5
8b
100
AcDbEntity
8
1
100
AcDbVertex
100
AcDb2dVertex
62
5
10
175.000000
20
337.125000
0
VERTEX
5
8c
100
AcDbEntity
8
1
100
AcDbVertex
100
AcDb2dVertex
62
5
10
175.000000
20
330.875000
0
VERTEX
5
8d
100
AcDbEntity
8
1
100
AcDbVertex
100
AcDb2dVertex
62
5
10
175.750000
20
331.187500
0
VERTEX
5
8e
100
AcDbEntity
8
1
100
AcDbVertex
100
AcDb2dVertex
62
5
10
176.750000
20
332.125000
0
VERTEX
5
8f
100
AcDbEntity
8
1
100
AcDbVertex
100
AcDb2dVertex
62
5
10
177.500000
20
333.062500
0
VERTEX
5
90
100
AcDbEntity
8
1
100
AcDbVertex
100
AcDb2dVertex
62
5
10
178.000000
20
334.000000
0
SEQEND
5
91
100
AcDbEntity
8
1
0
POLYLINE
5
92
100
AcDbEntity
8
1
6
CONTINUOUS
62
5
100
AcDb2dPolyline
66
1
10
0.0
20
0.0
30
0.0
70
0
0
VERTEX
5
93
100
AcDbEntity
8
1
100
AcDbVertex
100
AcDb2dVertex
62
5
10
180.750000
20
335.875000
0
VERTEX
5
94
100
AcDbEntity
8
1
100
AcDbVertex
100
AcDb2dVertex
62
5
10
184.750000
20
335.875000
0
VERTEX
5
95
100
AcDbEntity
8
1
100
AcDbVertex
100
AcDb2dVertex
62
5
10
184.750000
20
331.500000
0
VERTEX
5
96
100
AcDbEntity
8
1
100
AcDbVertex
100
AcDb2dVertex
62
5
10
180.750000
20
331.500000
0
SEQEND
5
97
100
AcDbEntity
8
1
0
LINE
5
98
100
AcDbEntity
8
1
100
AcDbLine
6
CONTINUOUS
62
5
10
188.750000
20
336.187500
11
189.750000
21
334.937500
0
POLYLINE
5
99
100
AcDbEntity
8
1
6
CONTINUOUS
62
5
100
AcDb2dPolyline
66
1
10
0.0
20
0.0
30
0.0
70
0
0
VERTEX
5
9a
100
AcDbEntity
8
1
100
AcDbVertex
100
AcDb2dVertex
62
5
10
188.500000
20
331.187500
0
VERTEX
5
9b
100
AcDbEntity
8
1
100
AcDbVertex
100
AcDb2dVertex
62
5
10
190.250000
20
332.125000
0
VERTEX
5
9c
100
AcDbEntity
8
1
100
AcDbVertex
100
AcDb2dVertex
62
5
10
191.750000
20
333.375000
0
VERTEX
5
9d
100
AcDbEntity
8
1
100
AcDbVertex
100
AcDb2dVertex
62
5
10
193.250000
20
334.937500
0
SEQEND
5
9e
100
AcDbEntity
8
1
0
POLYLINE
5
9f
100
AcDbEntity
8
0
6
DOT2
62
5
100
AcDb2dPolyline
66
1
10
0.0
20
0.0
30
0.0
70
0
0
VERTEX
5
a0
100
AcDbEntity
8
0
100
AcDbVertex
100
AcDb2dVertex
62
5
10
217.750000
20
236.375000
0
VERTEX
5
a1
100
AcDbEntity
8
0
100
AcDbVertex
100
AcDb2dVertex
62
5
10
218.062500
20
237.625000
0
VERTEX
5
a2
100
AcDbEntity
8
0
100
AcDbVertex
100
AcDb2dVertex
62
5
10
218.687500
20
238.250000
0
VERTEX
5
a3
100
AcDbEntity
8
0
100
AcDbVertex
100
AcDb2dVertex
62
5
10
219.625000
20
238.250000
0
VERTEX
5
a4
100
AcDbEntity
8
0
100
AcDbVertex
100
AcDb2dVertex
62
5
10
220.250000
20
237.937500
0
VERTEX
5
a5
100
AcDbEntity
8
0
100
AcDbVertex
100
AcDb2dVertex
62
5
10
220.562500
20
237.000000
0
VERTEX
5
a6
100
AcDbEntity
8
0
100
AcDbVertex
100
AcDb2dVertex
62
5
10
220.562500
20
235.750000
0
VERTEX
5
a7
100
AcDbEntity
8
0
100
AcDbVertex
100
AcDb2dVertex
62
5
10
220.250000
20
235.125000
0
VERTEX
5
a8
100
AcDbEntity
8
0
100
AcDbVertex
100
AcDb2dVertex
62
5
10
219.625000
20
234.500000
0
VERTEX
5
a9
100
AcDbEntity
8
0
100
AcDbVertex
100
AcDb2dVertex
62
5
10
218.687500
20
234.500000
0
SEQEND
5
aa
100
AcDbEntity
8
0
0
POLYLINE
5
ab
100
AcDbEntity
8
0
6
DOT2
62
5
100
AcDb2dPolyline
66
1
10
0.0
20
0.0
30
0.0
70
0
0
VERTEX
5
ac
100
AcDbEntity
8
0
100
AcDbVertex
100
AcDb2dVertex
62
5
10
219.625000
20
234.500000
0
VERTEX
5
ad
100
AcDbEntity
8
0
100
AcDbVertex
100
AcDb2dVertex
62
5
10
220.562500
20
233.875000
0
VERTEX
5
ae
100
AcDbEntity
8
0
100
AcDbVertex
100
AcDb2dVertex
62
5
10
220.875000
20
232.937500
0
VERTEX
5
af
100
AcDbEntity
8
0
100
AcDbVertex
100
AcDb2dVertex
62
5
10
220.875000
20
232.000000
0
VERTEX
5
b0
100
AcDbEntity
8
0
100
AcDbVertex
100
AcDb2dVertex
62
5
10
220.562500
20
231.375000
0
VERTEX
5
b1
100
AcDbEntity
8
0
100
AcDbVertex
100
AcDb2dVertex
62
5
10
219.625000
20
230.750000
0
VERTEX
5
b2
100
AcDbEntity
8
0
100
AcDbVertex
100
AcDb2dVertex
62
5
10
218.687500
20
230.750000
0
VERTEX
5
b3
100
AcDbEntity
8
0
100
AcDbVertex
100
AcDb2dVertex
62
5
10
218.062500
20
231.062500
0
VERTEX
5
b4
100
AcDbEntity
8
0
100
AcDbVertex
100
AcDb2dVertex
62
5
10
217.437500
20
232.000000
0
SEQEND
5
b5
100
AcDbEntity
8
0
0
POLYLINE
5
b6
100
AcDbEntity
8
0
6
DOT2
62
5
100
AcDb2dPolyline
66
1
10
0.0
20
0.0
30
0.0
70
0
0
VERTEX
5
b7
100
AcDbEntity
8
0
100
AcDbVertex
100
AcDb2dVertex
62
5
10
223.375000
20
237.625000
0
VERTEX
5
b8
100
AcDbEntity
8
0
100
AcDbVertex
100
AcDb2dVertex
62
5
10
224.312500
20
238.250000
0
VERTEX
5
b9
100
AcDbEntity
8
0
100
AcDbVertex
100
AcDb2dVertex
62
5
10
224.312500
20
230.750000
0
SEQEND
5
ba
100
AcDbEntity
8
0
0
LINE
5
bb
100
AcDbEntity
8
0
100
AcDbLine
6
DOT2
62
5
10
223.687500
20
230.750000
11
224.937500
21
230.750000
0
LINE
5
bc
100
AcDbEntity
8
0
100
AcDbLine
6
CONTINUOUS
62
5
10
237.000000
20
206.150000
11
237.000000
21
231.500000
0
LINE
5
bd
100
AcDbEntity
8
0
100
AcDbLine
6
CONTINUOUS
62
5
10
206.000000
20
193.700000
11
206.000000
21
231.500000
0
POLYLINE
5
be
100
AcDbEntity
8
0
6
CONTINUOUS
62
5
100
AcDb2dPolyline
66
1
10
0.0
20
0.0
30
0.0
70
0
0
VERTEX
5
bf
100
AcDbEntity
8
0
100
AcDbVertex
100
AcDb2dVertex
62
5
10
221.500000
20
229.500000
0
VERTEX
5
c0
100
AcDbEntity
8
0
100
AcDbVertex
100
AcDb2dVertex
62
5
10
206.000000
20
229.500000
0
VERTEX
5
c1
100
AcDbEntity
8
0
100
AcDbVertex
100
AcDb2dVertex
62
5
10
212.000000
20
230.500000
0
VERTEX
5
c2
100
AcDbEntity
8
0
100
AcDbVertex
100
AcDb2dVertex
62
5
10
212.000000
20
228.500000
0
VERTEX
5
c3
100
AcDbEntity
8
0
100
AcDbVertex
100
AcDb2dVertex
62
5
10
206.000000
20
229.500000
0
VERTEX
5
c4
100
AcDbEntity
8
0
100
AcDbVertex
100
AcDb2dVertex
62
5
10
212.000000
20
230.000000
0
VERTEX
5
c5
100
AcDbEntity
8
0
100
AcDbVertex
100
AcDb2dVertex
62
5
10
212.000000
20
229.000000
0
VERTEX
5
c6
100
AcDbEntity
8
0
100
AcDbVertex
100
AcDb2dVertex
62
5
10
206.000000
20
229.500000
0
SEQEND
5
c7
100
AcDbEntity
8
0
0
POLYLINE
5
c8
100
AcDbEntity
8
0
6
CONTINUOUS
62
5
100
AcDb2dPolyline
66
1
10
0.0
20
0.0
30
0.0
70
0
0
VERTEX
5
c9
100
AcDbEntity
8
0
100
AcDbVertex
100
AcDb2dVertex
62
5
10
221.500000
20
229.500000
0
VERTEX
5
ca
100
AcDbEntity
8
0
100
AcDbVertex
100
AcDb2dVertex
62
5
10
237.000000
20
229.500000
0
VERTEX
5
cb
100
AcDbEntity
8
0
100
AcDbVertex
100
AcDb2dVertex
62
5
10
231.000000
20
228.500000
0
VERTEX
5
cc
100
AcDbEntity
8
0
100
AcDbVertex
100
AcDb2dVertex
62
5
10
231.000000
20
230.500000
0
VERTEX
5
cd
100
AcDbEntity
8
0
100
AcDbVertex
100
AcDb2dVertex
62
5
10
237.000000
20
229.500000
0
VERTEX
5
ce
100
AcDbEntity
8
0
100
AcDbVertex
100
AcDb2dVertex
62
5
10
231.000000
20
229.000000
0
VERTEX
5
cf
100
AcDbEntity
8
0
100
AcDbVertex
100
AcDb2dVertex
62
5
10
231.000000
20
230.000000
0
VERTEX
5
d0
100
AcDbEntity
8
0
100
AcDbVertex
100
AcDb2dVertex
62
5
10
237.000000
20
229.500000
0
SEQEND
5
d1
100
AcDbEntity
8
0
0
POLYLINE
5
d2
100
AcDbEntity
8
1
6
CONTINUOUS
62
5
100
AcDb2dPolyline
66
1
10
0.0
20
0.0
30
0.0
70
0
0
VERTEX
5
d3
100
AcDbEntity
8
1
100
AcDbVertex
100
AcDb2dVertex
62
5
10
128.000000
20
330.250000
0
VERTEX
5
d4
100
AcDbEntity
8
1
100
AcDbVertex
100
AcDb2dVertex
62
5
10
129.250000
20
337.750000
0
VERTEX
5
d5
100
AcDbEntity
8
1
100
AcDbVertex
100
AcDb2dVertex
62
5
10
130.500000
20
330.250000
0
SEQEND
5
d6
100
AcDbEntity
8
1
0
LINE
5
d7
100
AcDbEntity
8
1
100
AcDbLine
6
CONTINUOUS
62
5
10
128.500000
20
332.750000
11
130.000000
21
332.750000
0
LINE
5
d8
100
AcDbEntity
8
1
100
AcDbLine
6
CONTINUOUS
62
5
10
140.000000
20
338.062500
11
145.750000
21
338.062500
0
POLYLINE
5
d9
100
AcDbEntity
8
1
6
CONTINUOUS
62
5
100
AcDb2dPolyline
66
1
10
0.0
20
0.0
30
0.0
70
0
0
VERTEX
5
da
100
AcDbEntity
8
1
100
AcDbVertex
100
AcDb2dVertex
62
5
10
139.750000
20
335.250000
0
VERTEX
5
db
100
AcDbEntity
8
1
100
AcDbVertex
100
AcDb2dVertex
62
5
10
139.750000
20
337.125000
0
VERTEX
5
dc
100
AcDbEntity
8
1
100
AcDbVertex
100
AcDb2dVertex
62
5
10
146.250000
20
337.125000
0
VERTEX
5
dd
100
AcDbEntity
8
1
100
AcDbVertex
100
AcDb2dVertex
62
5
10
146.250000
20
335.250000
0
SEQEND
5
de
100
AcDbEntity
8
1
0
LINE
5
df
100
AcDbEntity
8
1
100
AcDbLine
6
CONTINUOUS
62
5
10
143.000000
20
338.062500
11
143.000000
21
334.625000
0
LINE
5
e0
100
AcDbEntity
8
1
100
AcDbLine
6
CONTINUOUS
62
5
10
140.500000
20
336.187500
11
142.250000
21
336.187500
0
LINE
5
e1
100
AcDbEntity
8
1
100
AcDbLine
6
CONTINUOUS
62
5
10
140.500000
20
335.250000
11
142.250000
21
335.250000
0
LINE
5
e2
100
AcDbEntity
8
1
100
AcDbLine
6
CONTINUOUS
62
5
10
143.750000
20
336.187500
11
145.500000
21
336.187500
0
LINE
5
e3
100
AcDbEntity
8
1
100
AcDbLine
6
CONTINUOUS
62
5
10
143.750000
20
335.250000
11
145.500000
21
335.250000
0
POLYLINE
5
e4
100
AcDbEntity
8
1
6
CONTINUOUS
62
5
100
AcDb2dPolyline
66
1
10
0.0
20
0.0
30
0.0
70
1
0
VERTEX
5
e5
100
AcDbEntity
8
1
100
AcDbVertex
100
AcDb2dVertex
62
5
10
140.000000
20
334.000000
0
VERTEX
5
e6
100
AcDbEntity
8
1
100
AcDbVertex
100
AcDb2dVertex
62
5
10
140.000000
20
332.750000
0
VERTEX
5
e7
100
AcDbEntity
8
1
100
AcDbVertex
100
AcDb2dVertex
62
5
10
142.000000
20
332.750000
0
VERTEX
5
e8
100
AcDbEntity
8
1
100
AcDbVertex
100
AcDb2dVertex
62
5
10
142.000000
20
334.000000
0
VERTEX
5
e9
100
AcDbEntity
8
1
100
AcDbVertex
100
AcDb2dVertex
62
5
10
140.000000
20
334.000000
0
SEQEND
5
ea
100
AcDbEntity
8
1
0
LINE
5
eb
100
AcDbEntity
8
1
100
AcDbLine
6
CONTINUOUS
62
5
10
141.000000
20
332.750000
11
141.000000
21
330.250000
0
LINE
5
ec
100
AcDbEntity
8
1
100
AcDbLine
6
CONTINUOUS
62
5
10
141.000000
20
331.812500
11
142.000000
21
331.812500
0
LINE
5
ed
100
AcDbEntity
8
1
100
AcDbLine
6
CONTINUOUS
62
5
10
140.000000
20
332.125000
11
140.000000
21
329.937500
0
LINE
5
ee
100
AcDbEntity
8
1
100
AcDbLine
6
CONTINUOUS
62
5
10
139.500000
20
329.625000
11
142.000000
21
330.562500
0
POLYLINE
5
ef
100
AcDbEntity
8
1
6
CONTINUOUS
62
5
100
AcDb2dPolyline
66
1
10
0.0
20
0.0
30
0.0
70
0
0
VERTEX
5
f0
100
AcDbEntity
8
1
100
AcDbVertex
100
AcDb2dVertex
62
5
10
144.000000
20
334.312500
0
VERTEX
5
f1
100
AcDbEntity
8
1
100
AcDbVertex
100
AcDb2dVertex
62
5
10
143.750000
20
333.687500
0
VERTEX
5
f2
100
AcDbEntity
8
1
100
AcDbVertex
100
AcDb2dVertex
62
5
10
143.250000
20
333.062500
0
VERTEX
5
f3
100
AcDbEntity
8
1
100
AcDbVertex
100
AcDb2dVertex
62
5
10
142.750000
20
332.750000
0
SEQEND
5
f4
100
AcDbEntity
8
1
0
POLYLINE
5
f5
100
AcDbEntity
8
1
6
CONTINUOUS
62
5
100
AcDb2dPolyline
66
1
10
0.0
20
0.0
30
0.0
70
0
0
VERTEX
5
f6
100
AcDbEntity
8
1
100
AcDbVertex
100
AcDb2dVertex
62
5
10
143.750000
20
333.687500
0
VERTEX
5
f7
100
AcDbEntity
8
1
100
AcDbVertex
100
AcDb2dVertex
62
5
10
145.750000
20
333.687500
0
VERTEX
5
f8
100
AcDbEntity
8
1
100
AcDbVertex
100
AcDb2dVertex
62
5
10
145.000000
20
332.750000
0
VERTEX
5
f9
100
AcDbEntity
8
1
100
AcDbVertex
100
AcDb2dVertex
62
5
10
144.250000
20
332.125000
0
VERTEX
5
fa
100
AcDbEntity
8
1
100
AcDbVertex
100
AcDb2dVertex
62
5
10
142.500000
20
331.500000
0
SEQEND
5
fb
100
AcDbEntity
8
1
0
POLYLINE
5
fc
100
AcDbEntity
8
1
6
CONTINUOUS
62
5
100
AcDb2dPolyline
66
1
10
0.0
20
0.0
30
0.0
70
0
0
VERTEX
5
fd
100
AcDbEntity
8
1
100
AcDbVertex
100
AcDb2dVertex
62
5
10
143.500000
20
333.375000
0
VERTEX
5
fe
100
AcDbEntity
8
1
100
AcDbVertex
100
AcDb2dVertex
62
5
10
144.000000
20
332.750000
0
VERTEX
5
ff
100
AcDbEntity
8
1
100
AcDbVertex
100
AcDb2dVertex
62
5
10
144.750000
20
332.125000
0
VERTEX
5
100
100
AcDbEntity
8
1
100
AcDbVertex
100
AcDb2dVertex
62
5
10
146.500000
20
331.500000
0
SEQEND
5
101
100
AcDbEntity
8
1
0
POLYLINE
5
102
100
AcDbEntity
8
1
6
CONTINUOUS
62
5
100
AcDb2dPolyline
66
1
10
0.0
20
0.0
30
0.0
70
1
0
VERTEX
5
103
100
AcDbEntity
8
1
100
AcDbVertex
100
AcDb2dVertex
62
5
10
143.250000
20
331.500000
0
VERTEX
5
104
100
AcDbEntity
8
1
100
AcDbVertex
100
AcDb2dVertex
62
5
10
143.250000
20
329.937500
0
VERTEX
5
105
100
AcDbEntity
8
1
100
AcDbVertex
100
AcDb2dVertex
62
5
10
145.750000
20
329.937500
0
VERTEX
5
106
100
AcDbEntity
8
1
100
AcDbVertex
100
AcDb2dVertex
62
5
10
145.750000
20
331.500000
0
VERTEX
5
107
100
AcDbEntity
8
1
100
AcDbVertex
100
AcDb2dVertex
62
5
10
143.250000
20
331.500000
0
SEQEND
5
108
100
AcDbEntity
8
1
0
POLYLINE
5
109
100
AcDbEntity
8
1
6
CONTINUOUS
62
5
100
AcDb2dPolyline
66
1
10
0.0
20
0.0
30
0.0
70
0
0
VERTEX
5
10a
100
AcDbEntity
8
1
100
AcDbVertex
100
AcDb2dVertex
62
5
10
148.500000
20
337.125000
0
VERTEX
5
10b
100
AcDbEntity
8
1
100
AcDbVertex
100
AcDb2dVertex
62
5
10
148.500000
20
334.312500
0
VERTEX
5
10c
100
AcDbEntity
8
1
100
AcDbVertex
100
AcDb2dVertex
62
5
10
153.000000
20
334.312500
0
VERTEX
5
10d
100
AcDbEntity
8
1
100
AcDbVertex
100
AcDb2dVertex
62
5
10
153.000000
20
337.125000
0
SEQEND
5
10e
100
AcDbEntity
8
1
0
LINE
5
10f
100
AcDbEntity
8
1
100
AcDbLine
6
CONTINUOUS
62
5
10
150.750000
20
338.375000
11
150.750000
21
329.625000
0
POLYLINE
5
110
100
AcDbEntity
8
1
6
CONTINUOUS
62
5
100
AcDb2dPolyline
66
1
10
0.0
20
0.0
30
0.0
70
0
0
VERTEX
5
111
100
AcDbEntity
8
1
100
AcDbVertex
100
AcDb2dVertex
62
5
10
148.000000
20
332.750000
0
VERTEX
5
112
100
AcDbEntity
8
1
100
AcDbVertex
100
AcDb2dVertex
62
5
10
148.000000
20
329.625000
0
VERTEX
5
113
100
AcDbEntity
8
1
100
AcDbVertex
100
AcDb2dVertex
62
5
10
153.500000
20
329.625000
0
VERTEX
5
114
100
AcDbEntity
8
1
100
AcDbVertex
100
AcDb2dVertex
62
5
10
153.500000
20
332.750000
0
SEQEND
5
115
100
AcDbEntity
8
1
0
LINE
5
116
100
AcDbEntity
8
1
100
AcDbLine
6
CONTINUOUS
62
5
10
158.250000
20
335.875000
11
160.750000
21
335.875000
0
POLYLINE
5
117
100
AcDbEntity
8
1
6
CONTINUOUS
62
5
100
AcDb2dPolyline
66
1
10
0.0
20
0.0
30
0.0
70
0
0
VERTEX
5
118
100
AcDbEntity
8
1
100
AcDbVertex
100
AcDb2dVertex
62
5
10
158.250000
20
335.875000
0
VERTEX
5
119
100
AcDbEntity
8
1
100
AcDbVertex
100
AcDb2dVertex
62
5
10
157.500000
20
334.625000
0
VERTEX
5
11a
100
AcDbEntity
8
1
100
AcDbVertex
100
AcDb2dVertex
62
5
10
156.750000
20
333.687500
0
SEQEND
5
11b
100
AcDbEntity
8
1
0
POLYLINE
5
11c
100
AcDbEntity
8
1
6
CONTINUOUS
62
5
100
AcDb2dPolyline
66
1
10
0.0
20
0.0
30
0.0
70
0
0
VERTEX
5
11d
100
AcDbEntity
8
1
100
AcDbVertex
100
AcDb2dVertex
62
5
10
160.750000
20
335.875000
0
VERTEX
5
11e
100
AcDbEntity
8
1
100
AcDbVertex
100
AcDb2dVertex
62
5
10
161.000000
20
335.562500
0
VERTEX
5
11f
100
AcDbEntity
8
1
100
AcDbVertex
100
AcDb2dVertex
62
5
10
160.500000
20
334.625000
0
VERTEX
5
120
100
AcDbEntity
8
1
100
AcDbVertex
100
AcDb2dVertex
62
5
10
159.750000
20
333.062500
0
VERTEX
5
121
100
AcDbEntity
8
1
100
AcDbVertex
100
AcDb2dVertex
62
5
10
158.500000
20
331.500000
0
VERTEX
5
122
100
AcDbEntity
8
1
100
AcDbVertex
100
AcDb2dVertex
62
5
10
157.000000
20
330.250000
0
SEQEND
5
123
100
AcDbEntity
8
1
0
LINE
5
124
100
AcDbEntity
8
1
100
AcDbLine
6
CONTINUOUS
62
5
10
158.250000
20
334.000000
11
159.250000
21
332.437500
0
LINE
5
125
100
AcDbEntity
8
1
100
AcDbLine
6
CONTINUOUS
62
5
10
160.750000
20
337.437500
11
161.500000
21
336.500000
0
LINE
5
126
100
AcDbEntity
8
1
100
AcDbLine
6
CONTINUOUS
62
5
10
161.500000
20
338.062500
11
162.250000
21
337.125000
0
LINE
5
127
100
AcDbEntity
8
1
100
AcDbLine
6
CONTINUOUS
62
5
10
87.250000
20
336.187500
11
89.500000
21
336.187500
0
POLYLINE
5
128
100
AcDbEntity
8
1
6
CONTINUOUS
62
5
100
AcDb2dPolyline
66
1
10
0.0
20
0.0
30
0.0
70
0
0
VERTEX
5
129
100
AcDbEntity
8
1
100
AcDbVertex
100
AcDb2dVertex
62
5
10
88.500000
20
338.062500
0
VERTEX
5
12a
100
AcDbEntity
8
1
100
AcDbVertex
100
AcDb2dVertex
62
5
10
88.500000
20
330.250000
0
VERTEX
5
12b
100
AcDbEntity
8
1
100
AcDbVertex
100
AcDb2dVertex
62
5
10
88.000000
20
329.625000
0
VERTEX
5
12c
100
AcDbEntity
8
1
100
AcDbVertex
100
AcDb2dVertex
62
5
10
87.500000
20
329.625000
0
SEQEND
5
12d
100
AcDbEntity
8
1
0
LINE
5
12e
100
AcDbEntity
8
1
100
AcDbLine
6
CONTINUOUS
62
5
10
87.500000
20
333.062500
11
89.250000
21
334.312500
0
LINE
5
12f
100
AcDbEntity
8
1
100
AcDbLine
6
CONTINUOUS
62
5
10
90.000000
20
337.125000
11
94.000000
21
337.125000
0
LINE
5
130
100
AcDbEntity
8
1
100
AcDbLine
6
CONTINUOUS
62
5
10
89.750000
20
334.937500
11
94.250000
21
334.937500
0
LINE
5
131
100
AcDbEntity
8
1
100
AcDbLine
6
CONTINUOUS
62
5
10
90.750000
20
337.125000
11
91.500000
21
334.937500
0
LINE
5
132
100
AcDbEntity
8
1
100
AcDbLine
6
CONTINUOUS
62
5
10
92.500000
20
334.937500
11
93.250000
21
337.125000
0
LINE
5
133
100
AcDbEntity
8
1
100
AcDbLine
6
CONTINUOUS
62
5
10
92.000000
20
337.125000
11
92.000000
21
338.375000
0
POLYLINE
5
134
100
AcDbEntity
8
1
6
CONTINUOUS
62
5
100
AcDb2dPolyline
66
1
10
0.0
20
0.0
30
0.0
70
0
0
VERTEX
5
135
100
AcDbEntity
8
1
100
AcDbVertex
100
AcDb2dVertex
62
5
10
92.000000
20
334.937500
0
VERTEX
5
136
100
AcDbEntity
8
1
100
AcDbVertex
100
AcDb2dVertex
62
5
10
90.750000
20
331.812500
0
VERTEX
5
137
100
AcDbEntity
8
1
100
AcDbVertex
100
AcDb2dVertex
62
5
10
92.250000
20
331.500000
0
VERTEX
5
138
100
AcDbEntity
8
1
100
AcDbVertex
100
AcDb2dVertex
62
5
10
93.500000
20
330.875000
0
VERTEX
5
139
100
AcDbEntity
8
1
100
AcDbVertex
100
AcDb2dVertex
62
5
10
94.250000
20
329.937500
0
SEQEND
5
13a
100
AcDbEntity
8
1
0
POLYLINE
5
13b
100
AcDbEntity
8
1
6
CONTINUOUS
62
5
100
AcDb2dPolyline
66
1
10
0.0
20
0.0
30
0.0
70
0
0
VERTEX
5
13c
100
AcDbEntity
8
1
100
AcDbVertex
100
AcDb2dVertex
62
5
10
93.000000
20
333.375000
0
VERTEX
5
13d
100
AcDbEntity
8
1
100
AcDbVertex
100
AcDb2dVertex
62
5
10
92.250000
20
331.500000
0
VERTEX
5
13e
100
AcDbEntity
8
1
100
AcDbVertex
100
AcDb2dVertex
62
5
10
91.500000
20
330.250000
0
VERTEX
5
13f
100
AcDbEntity
8
1
100
AcDbVertex
100
AcDb2dVertex
62
5
10
90.750000
20
329.937500
0
VERTEX
5
140
100
AcDbEntity
8
1
100
AcDbVertex
100
AcDb2dVertex
62
5
10
90.000000
20
329.937500
0
SEQEND
5
141
100
AcDbEntity
8
1
0
LINE
5
142
100
AcDbEntity
8
1
100
AcDbLine
6
CONTINUOUS
62
5
10
90.000000
20
333.375000
11
94.250000
21
333.375000
0
LINE
5
143
100
AcDbEntity
8
1
100
AcDbLine
6
CONTINUOUS
62
5
10
95.250000
20
335.250000
11
97.500000
21
335.250000
0
LINE
5
144
100
AcDbEntity
8
1
100
AcDbLine
6
CONTINUOUS
62
5
10
95.500000
20
330.250000
11
97.500000
21
331.812500
0
LINE
5
145
100
AcDbEntity
8
1
100
AcDbLine
6
CONTINUOUS
62
5
10
96.500000
20
337.750000
11
96.500000
21
330.875000
0
POLYLINE
5
146
100
AcDbEntity
8
1
6
CONTINUOUS
62
5
100
AcDb2dPolyline
66
1
10
0.0
20
0.0
30
0.0
70
0
0
VERTEX
5
147
100
AcDbEntity
8
1
100
AcDbVertex
100
AcDb2dVertex
62
5
10
97.250000
20
333.687500
0
VERTEX
5
148
100
AcDbEntity
8
1
100
AcDbVertex
100
AcDb2dVertex
62
5
10
101.750000
20
336.500000
0
VERTEX
5
149
100
AcDbEntity
8
1
100
AcDbVertex
100
AcDb2dVertex
62
5
10
101.750000
20
333.375000
0
VERTEX
5
14a
100
AcDbEntity
8
1
100
AcDbVertex
100
AcDb2dVertex
62
5
10
101.250000
20
332.750000
0
VERTEX
5
14b
100
AcDbEntity
8
1
100
AcDbVertex
100
AcDb2dVertex
62
5
10
100.750000
20
332.750000
0
SEQEND
5
14c
100
AcDbEntity
8
1
0
LINE
5
14d
100
AcDbEntity
8
1
100
AcDbLine
6
CONTINUOUS
62
5
10
99.750000
20
338.062500
11
99.750000
21
331.500000
0
POLYLINE
5
14e
100
AcDbEntity
8
1
6
CONTINUOUS
62
5
100
AcDb2dPolyline
66
1
10
0.0
20
0.0
30
0.0
70
0
0
VERTEX
5
14f
100
AcDbEntity
8
1
100
AcDbVertex
100
AcDb2dVertex
62
5
10
98.250000
20
336.812500
0
VERTEX
5
150
100
AcDbEntity
8
1
100
AcDbVertex
100
AcDb2dVertex
62
5
10
98.250000
20
330.250000
0
VERTEX
5
151
100
AcDbEntity
8
1
100
AcDbVertex
100
AcDb2dVertex
62
5
10
98.750000
20
329.625000
0
VERTEX
5
152
100
AcDbEntity
8
1
100
AcDbVertex
100
AcDb2dVertex
62
5
10
101.750000
20
329.625000
0
VERTEX
5
153
100
AcDbEntity
8
1
100
AcDbVertex
100
AcDb2dVertex
62
5
10
102.250000
20
330.250000
0
VERTEX
5
154
100
AcDbEntity
8
1
100
AcDbVertex
100
AcDb2dVertex
62
5
10
102.250000
20
331.187500
0
SEQEND
5
155
100
AcDbEntity
8
1
0
LINE
5
156
100
AcDbEntity
8
1
100
AcDbLine
6
CONTINUOUS
62
5
10
103.250000
20
335.875000
11
105.500000
21
335.875000
0
LINE
5
157
100
AcDbEntity
8
1
100
AcDbLine
6
CONTINUOUS
62
5
10
104.500000
20
338.062500
11
104.500000
21
329.312500
0
POLYLINE
5
158
100
AcDbEntity
8
1
6
CONTINUOUS
62
5
100
AcDb2dPolyline
66
1
10
0.0
20
0.0
30
0.0
70
0
0
VERTEX
5
159
100
AcDbEntity
8
1
100
AcDbVertex
100
AcDb2dVertex
62
5
10
104.500000
20
335.875000
0
VERTEX
5
15a
100
AcDbEntity
8
1
100
AcDbVertex
100
AcDb2dVertex
62
5
10
104.000000
20
334.000000
0
VERTEX
5
15b
100
AcDbEntity
8
1
100
AcDbVertex
100
AcDb2dVertex
62
5
10
103.250000
20
332.125000
0
SEQEND
5
15c
100
AcDbEntity
8
1
0
LINE
5
15d
100
AcDbEntity
8
1
100
AcDbLine
6
CONTINUOUS
62
5
10
104.500000
20
334.937500
11
105.500000
21
333.375000
0
LINE
5
15e
100
AcDbEntity
8
1
100
AcDbLine
6
CONTINUOUS
62
5
10
105.500000
20
337.750000
11
110.250000
21
337.750000
0
POLYLINE
5
15f
100
AcDbEntity
8
1
6
CONTINUOUS
62
5
100
AcDb2dPolyline
66
1
10
0.0
20
0.0
30
0.0
70
0
0
VERTEX
5
160
100
AcDbEntity
8
1
100
AcDbVertex
100
AcDb2dVertex
62
5
10
107.750000
20
337.750000
0
VERTEX
5
161
100
AcDbEntity
8
1
100
AcDbVertex
100
AcDb2dVertex
62
5
10
106.750000
20
335.562500
0
VERTEX
5
162
100
AcDbEntity
8
1
100
AcDbVertex
100
AcDb2dVertex
62
5
10
108.250000
20
335.875000
0
VERTEX
5
163
100
AcDbEntity
8
1
100
AcDbVertex
100
AcDb2dVertex
62
5
10
108.250000
20
332.750000
0
VERTEX
5
164
100
AcDbEntity
8
1
100
AcDbVertex
100
AcDb2dVertex
62
5
10
107.750000
20
330.562500
0
VERTEX
5
165
100
AcDbEntity
8
1
100
AcDbVertex
100
AcDb2dVertex
62
5
10
107.250000
20
330.875000
0
SEQEND
5
166
100
AcDbEntity
8
1
0
POLYLINE
5
167
100
AcDbEntity
8
1
6
CONTINUOUS
62
5
100
AcDb2dPolyline
66
1
10
0.0
20
0.0
30
0.0
70
1
0
VERTEX
5
168
100
AcDbEntity
8
1
100
AcDbVertex
100
AcDb2dVertex
62
5
10
106.000000
20
334.000000
0
VERTEX
5
169
100
AcDbEntity
8
1
100
AcDbVertex
100
AcDb2dVertex
62
5
10
107.250000
20
334.000000
0
VERTEX
5
16a
100
AcDbEntity
8
1
100
AcDbVertex
100
AcDb2dVertex
62
5
10
107.250000
20
331.812500
0
VERTEX
5
16b
100
AcDbEntity
8
1
100
AcDbVertex
100
AcDb2dVertex
62
5
10
106.000000
20
331.812500
0
VERTEX
5
16c
100
AcDbEntity
8
1
100
AcDbVertex
100
AcDb2dVertex
62
5
10
106.000000
20
334.000000
0
SEQEND
5
16d
100
AcDbEntity
8
1
0
POLYLINE
5
16e
100
AcDbEntity
8
1
6
CONTINUOUS
62
5
100
AcDb2dPolyline
66
1
10
0.0
20
0.0
30
0.0
70
0
0
VERTEX
5
16f
100
AcDbEntity
8
1
100
AcDbVertex
100
AcDb2dVertex
62
5
10
108.750000
20
335.562500
0
VERTEX
5
170
100
AcDbEntity
8
1
100
AcDbVertex
100
AcDb2dVertex
62
5
10
110.250000
20
335.562500
0
VERTEX
5
171
100
AcDbEntity
8
1
100
AcDbVertex
100
AcDb2dVertex
62
5
10
110.000000
20
334.312500
0
VERTEX
5
172
100
AcDbEntity
8
1
100
AcDbVertex
100
AcDb2dVertex
62
5
10
109.500000
20
332.750000
0
VERTEX
5
173
100
AcDbEntity
8
1
100
AcDbVertex
100
AcDb2dVertex
62
5
10
108.750000
20
331.187500
0
SEQEND
5
174
100
AcDbEntity
8
1
0
POLYLINE
5
175
100
AcDbEntity
8
1
6
CONTINUOUS
62
5
100
AcDb2dPolyline
66
1
10
0.0
20
0.0
30
0.0
70
0
0
VERTEX
5
176
100
AcDbEntity
8
1
100
AcDbVertex
100
AcDb2dVertex
62
5
10
108.750000
20
334.625000
0
VERTEX
5
177
100
AcDbEntity
8
1
100
AcDbVertex
100
AcDb2dVertex
62
5
10
109.000000
20
333.375000
0
VERTEX
5
178
100
AcDbEntity
8
1
100
AcDbVertex
100
AcDb2dVertex
62
5
10
110.500000
20
331.187500
0
SEQEND
5
179
100
AcDbEntity
8
1
0
LINE
5
17a
100
AcDbEntity
8
1
100
AcDbLine
6
CONTINUOUS
62
5
10
105.250000
20
329.625000
11
110.500000
21
329.625000
0
POLYLINE
5
17b
100
AcDbEntity
8
1
6
CONTINUOUS
62
5
100
AcDb2dPolyline
66
1
10
0.0
20
0.0
30
0.0
70
0
0
VERTEX
5
17c
100
AcDbEntity
8
1
100
AcDbVertex
100
AcDb2dVertex
62
5
10
113.500000
20
338.062500
0
VERTEX
5
17d
100
AcDbEntity
8
1
100
AcDbVertex
100
AcDb2dVertex
62
5
10
112.500000
20
335.250000
0
VERTEX
5
17e
100
AcDbEntity
8
1
100
AcDbVertex
100
AcDb2dVertex
62
5
10
111.250000
20
333.062500
0
SEQEND
5
17f
100
AcDbEntity
8
1
0
LINE
5
180
100
AcDbEntity
8
1
100
AcDbLine
6
CONTINUOUS
62
5
10
112.500000
20
335.250000
11
112.500000
21
329.312500
0
LINE
5
181
100
AcDbEntity
8
1
100
AcDbLine
6
CONTINUOUS
62
5
10
113.250000
20
335.250000
11
118.500000
21
335.250000
0
POLYLINE
5
182
100
AcDbEntity
8
1
6
CONTINUOUS
62
5
100
AcDb2dPolyline
66
1
10
0.0
20
0.0
30
0.0
70
0
0
VERTEX
5
183
100
AcDbEntity
8
1
100
AcDbVertex
100
AcDb2dVertex
62
5
10
116.750000
20
338.062500
0
VERTEX
5
184
100
AcDbEntity
8
1
100
AcDbVertex
100
AcDb2dVertex
62
5
10
116.750000
20
329.625000
0
VERTEX
5
185
100
AcDbEntity
8
1
100
AcDbVertex
100
AcDb2dVertex
62
5
10
115.250000
20
329.937500
0
SEQEND
5
186
100
AcDbEntity
8
1
0
LINE
5
187
100
AcDbEntity
8
1
100
AcDbLine
6
CONTINUOUS
62
5
10
114.250000
20
334.000000
11
115.250000
21
332.125000
0
POLYLINE
5
188
100
AcDbEntity
8
1
6
CONTINUOUS
62
5
100
AcDb2dPolyline
66
1
10
0.0
20
0.0
30
0.0
70
0
0
VERTEX
5
189
100
AcDbEntity
8
1
100
AcDbVertex
100
AcDb2dVertex
62
5
10
120.500000
20
337.125000
0
VERTEX
5
18a
100
AcDbEntity
8
1
100
AcDbVertex
100
AcDb2dVertex
62
5
10
121.250000
20
337.750000
0
VERTEX
5
18b
100
AcDbEntity
8
1
100
AcDbVertex
100
AcDb2dVertex
62
5
10
121.250000
20
330.250000
0
SEQEND
5
18c
100
AcDbEntity
8
1
0
LINE
5
18d
100
AcDbEntity
8
1
100
AcDbLine
6
CONTINUOUS
62
5
10
120.750000
20
330.250000
11
121.750000
21
330.250000
0
LINE
5
18e
100
AcDbEntity
8
1
100
AcDbLine
6
CONTINUOUS
62
5
10
124.000000
20
337.750000
11
126.250000
21
337.750000
0
POLYLINE
5
18f
100
AcDbEntity
8
1
6
CONTINUOUS
62
5
100
AcDb2dPolyline
66
1
10
0.0
20
0.0
30
0.0
70
0
0
VERTEX
5
190
100
AcDbEntity
8
1
100
AcDbVertex
100
AcDb2dVertex
62
5
10
124.000000
20
337.750000
0
VERTEX
5
191
100
AcDbEntity
8
1
100
AcDbVertex
100
AcDb2dVertex
62
5
10
124.000000
20
334.000000
0
VERTEX
5
192
100
AcDbEntity
8
1
100
AcDbVertex
100
AcDb2dVertex
62
5
10
124.500000
20
334.625000
0
VERTEX
5
193
100
AcDbEntity
8
1
100
AcDbVertex
100
AcDb2dVertex
62
5
10
125.000000
20
334.937500
0
VERTEX
5
194
100
AcDbEntity
8
1
100
AcDbVertex
100
AcDb2dVertex
62
5
10
125.750000
20
334.937500
0
VERTEX
5
195
100
AcDbEntity
8
1
100
AcDbVertex
100
AcDb2dVertex
62
5
10
126.250000
20
334.625000
0
VERTEX
5
196
100
AcDbEntity
8
1
100
AcDbVertex
100
AcDb2dVertex
62
5
10
126.500000
20
333.687500
0
VERTEX
5
197
100
AcDbEntity
8
1
100
AcDbVertex
100
AcDb2dVertex
62
5
10
126.500000
20
331.812500
0
VERTEX
5
198
100
AcDbEntity
8
1
100
AcDbVertex
100
AcDb2dVertex
62
5
10
126.000000
20
330.875000
0
VERTEX
5
199
100
AcDbEntity
8
1
100
AcDbVertex
100
AcDb2dVertex
62
5
10
125.250000
20
330.250000
0
VERTEX
5
19a
100
AcDbEntity
8
1
100
AcDbVertex
100
AcDb2dVertex
62
5
10
124.000000
20
330.250000
0
SEQEND
5
19b
100
AcDbEntity
8
1
0
POLYLINE
5
19c
100
AcDbEntity
8
1
6
CONTINUOUS
62
5
100
AcDb2dPolyline
66
1
10
0.0
20
0.0
30
0.0
70
0
0
VERTEX
5
19d
100
AcDbEntity
8
1
100
AcDbVertex
100
AcDb2dVertex
62
5
10
90.312500
20
298.937500
0
VERTEX
5
19e
100
AcDbEntity
8
1
100
AcDbVertex
100
AcDb2dVertex
62
5
10
90.000000
20
299.875000
0
VERTEX
5
19f
100
AcDbEntity
8
1
100
AcDbVertex
100
AcDb2dVertex
62
5
10
89.375000
20
300.500000
0
VERTEX
5
1a0
100
AcDbEntity
8
1
100
AcDbVertex
100
AcDb2dVertex
62
5
10
88.437500
20
300.500000
0
VERTEX
5
1a1
100
AcDbEntity
8
1
100
AcDbVertex
100
AcDb2dVertex
62
5
10
87.812500
20
299.875000
0
VERTEX
5
1a2
100
AcDbEntity
8
1
100
AcDbVertex
100
AcDb2dVertex
62
5
10
87.500000
20
299.250000
0
VERTEX
5
1a3
100
AcDbEntity
8
1
100
AcDbVertex
100
AcDb2dVertex
62
5
10
87.187500
20
297.687500
0
VERTEX
5
1a4
100
AcDbEntity
8
1
100
AcDbVertex
100
AcDb2dVertex
62
5
10
87.187500
20
295.812500
0
VERTEX
5
1a5
100
AcDbEntity
8
1
100
AcDbVertex
100
AcDb2dVertex
62
5
10
87.500000
20
294.250000
0
VERTEX
5
1a6
100
AcDbEntity
8
1
100
AcDbVertex
100
AcDb2dVertex
62
5
10
87.812500
20
293.625000
0
VERTEX
5
1a7
100
AcDbEntity
8
1
100
AcDbVertex
100
AcDb2dVertex
62
5
10
88.437500
20
293.000000
0
VERTEX
5
1a8
100
AcDbEntity
8
1
100
AcDbVertex
100
AcDb2dVertex
62
5
10
89.375000
20
293.000000
0
VERTEX
5
1a9
100
AcDbEntity
8
1
100
AcDbVertex
100
AcDb2dVertex
62
5
10
90.000000
20
293.625000
0
VERTEX
5
1aa
100
AcDbEntity
8
1
100
AcDbVertex
100
AcDb2dVertex
62
5
10
90.312500
20
294.250000
0
SEQEND
5
1ab
100
AcDbEntity
8
1
0
LINE
5
1ac
100
AcDbEntity
8
1
100
AcDbLine
6
CONTINUOUS
62
5
10
89.687500
20
296.437500
11
90.937500
21
296.437500
0
LINE
5
1ad
100
AcDbEntity
8
1
100
AcDbLine
6
CONTINUOUS
62
5
10
90.312500
20
296.437500
11
90.312500
21
293.000000
0
POLYLINE
5
1ae
100
AcDbEntity
8
1
6
CONTINUOUS
62
5
100
AcDb2dPolyline
66
1
10
0.0
20
0.0
30
0.0
70
0
0
VERTEX
5
1af
100
AcDbEntity
8
1
100
AcDbVertex
100
AcDb2dVertex
62
5
10
76.000000
20
335.562500
0
VERTEX
5
1b0
100
AcDbEntity
8
1
100
AcDbVertex
100
AcDb2dVertex
62
5
10
76.250000
20
337.125000
0
VERTEX
5
1b1
100
AcDbEntity
8
1
100
AcDbVertex
100
AcDb2dVertex
62
5
10
77.000000
20
337.750000
0
VERTEX
5
1b2
100
AcDbEntity
8
1
100
AcDbVertex
100
AcDb2dVertex
62
5
10
77.750000
20
337.750000
0
VERTEX
5
1b3
100
AcDbEntity
8
1
100
AcDbVertex
100
AcDb2dVertex
62
5
10
78.250000
20
337.437500
0
VERTEX
5
1b4
100
AcDbEntity
8
1
100
AcDbVertex
100
AcDb2dVertex
62
5
10
78.500000
20
336.500000
0
VERTEX
5
1b5
100
AcDbEntity
8
1
100
AcDbVertex
100
AcDb2dVertex
62
5
10
78.500000
20
335.562500
0
VERTEX
5
1b6
100
AcDbEntity
8
1
100
AcDbVertex
100
AcDb2dVertex
62
5
10
78.250000
20
334.625000
0
VERTEX
5
1b7
100
AcDbEntity
8
1
100
AcDbVertex
100
AcDb2dVertex
62
5
10
76.000000
20
330.250000
0
VERTEX
5
1b8
100
AcDbEntity
8
1
100
AcDbVertex
100
AcDb2dVertex
62
5
10
78.500000
20
330.250000
0
VERTEX
5
1b9
100
AcDbEntity
8
1
100
AcDbVertex
100
AcDb2dVertex
62
5
10
78.500000
20
331.187500
0
SEQEND
5
1ba
100
AcDbEntity
8
1
0
LINE
5
1bb
100
AcDbEntity
8
1
100
AcDbLine
6
CONTINUOUS
62
5
10
50.000000
20
350.000000
11
50.000000
21
318.000000
0
LINE
5
1bc
100
AcDbEntity
8
1
100
AcDbLine
6
CONTINUOUS
62
5
10
50.000000
20
350.000000
11
50.000000
21
318.000000
0
LINE
5
1bd
100
AcDbEntity
8
1
100
AcDbLine
6
CONTINUOUS
62
5
10
72.500000
20
296.750000
11
75.625000
21
296.750000
0
POLYLINE
5
1be
100
AcDbEntity
8
1
6
CONTINUOUS
62
5
100
AcDb2dPolyline
66
1
10
0.0
20
0.0
30
0.0
70
0
0
VERTEX
5
1bf
100
AcDbEntity
8
1
100
AcDbVertex
100
AcDb2dVertex
62
5
10
65.312500
20
300.500000
0
VERTEX
5
1c0
100
AcDbEntity
8
1
100
AcDbVertex
100
AcDb2dVertex
62
5
10
65.312500
20
294.875000
0
VERTEX
5
1c1
100
AcDbEntity
8
1
100
AcDbVertex
100
AcDb2dVertex
62
5
10
65.000000
20
293.625000
0
VERTEX
5
1c2
100
AcDbEntity
8
1
100
AcDbVertex
100
AcDb2dVertex
62
5
10
64.375000
20
293.000000
0
VERTEX
5
1c3
100
AcDbEntity
8
1
100
AcDbVertex
100
AcDb2dVertex
62
5
10
63.437500
20
293.000000
0
VERTEX
5
1c4
100
AcDbEntity
8
1
100
AcDbVertex
100
AcDb2dVertex
62
5
10
62.812500
20
293.625000
0
VERTEX
5
1c5
100
AcDbEntity
8
1
100
AcDbVertex
100
AcDb2dVertex
62
5
10
62.500000
20
294.875000
0
SEQEND
5
1c6
100
AcDbEntity
8
1
0
POLYLINE
5
1c7
100
AcDbEntity
8
1
6
CONTINUOUS
62
5
100
AcDb2dPolyline
66
1
10
0.0
20
0.0
30
0.0
70
0
0
VERTEX
5
1c8
100
AcDbEntity
8
1
100
AcDbVertex
100
AcDb2dVertex
62
5
10
70.625000
20
300.500000
0
VERTEX
5
1c9
100
AcDbEntity
8
1
100
AcDbVertex
100
AcDb2dVertex
62
5
10
67.500000
20
300.500000
0
VERTEX
5
1ca
100
AcDbEntity
8
1
100
AcDbVertex
100
AcDb2dVertex
62
5
10
67.500000
20
293.000000
0
VERTEX
5
1cb
100
AcDbEntity
8
1
100
AcDbVertex
100
AcDb2dVertex
62
5
10
70.937500
20
293.000000
0
SEQEND
5
1cc
100
AcDbEntity
8
1
0
LINE
5
1cd
100
AcDbEntity
8
1
100
AcDbLine
6
CONTINUOUS
62
5
10
67.500000
20
296.750000
11
70.312500
21
296.750000
0
LINE
5
1ce
100
AcDbEntity
8
1
100
AcDbLine
6
CONTINUOUS
62
5
10
77.500000
20
300.500000
11
80.312500
21
300.500000
0
POLYLINE
5
1cf
100
AcDbEntity
8
1
6
CONTINUOUS
62
5
100
AcDb2dPolyline
66
1
10
0.0
20
0.0
30
0.0
70
0
0
VERTEX
5
1d0
100
AcDbEntity
8
1
100
AcDbVertex
100
AcDb2dVertex
62
5
10
77.500000
20
300.500000
0
VERTEX
5
1d1
100
AcDbEntity
8
1
100
AcDbVertex
100
AcDb2dVertex
62
5
10
77.500000
20
296.750000
0
VERTEX
5
1d2
100
AcDbEntity
8
1
100
AcDbVertex
100
AcDb2dVertex
62
5
10
78.125000
20
297.375000
0
VERTEX
5
1d3
100
AcDbEntity
8
1
100
AcDbVertex
100
AcDb2dVertex
62
5
10
78.750000
20
297.687500
0
VERTEX
5
1d4
100
AcDbEntity
8
1
100
AcDbVertex
100
AcDb2dVertex
62
5
10
79.687500
20
297.687500
0
VERTEX
5
1d5
100
AcDbEntity
8
1
100
AcDbVertex
100
AcDb2dVertex
62
5
10
80.312500
20
297.375000
0
VERTEX
5
1d6
100
AcDbEntity
8
1
100
AcDbVertex
100
AcDb2dVertex
62
5
10
80.625000
20
296.437500
0
VERTEX
5
1d7
100
AcDbEntity
8
1
100
AcDbVertex
100
AcDb2dVertex
62
5
10
80.625000
20
294.562500
0
VERTEX
5
1d8
100
AcDbEntity
8
1
100
AcDbVertex
100
AcDb2dVertex
62
5
10
80.000000
20
293.625000
0
VERTEX
5
1d9
100
AcDbEntity
8
1
100
AcDbVertex
100
AcDb2dVertex
62
5
10
79.062500
20
293.000000
0
VERTEX
5
1da
100
AcDbEntity
8
1
100
AcDbVertex
100
AcDb2dVertex
62
5
10
77.500000
20
293.000000
0
SEQEND
5
1db
100
AcDbEntity
8
1
0
LINE
5
1dc
100
AcDbEntity
8
1
100
AcDbLine
6
CONTINUOUS
62
5
10
79.250000
20
335.875000
11
81.500000
21
335.875000
0
LINE
5
1dd
100
AcDbEntity
8
1
100
AcDbLine
6
CONTINUOUS
62
5
10
80.500000
20
338.062500
11
80.500000
21
329.312500
0
POLYLINE
5
1de
100
AcDbEntity
8
1
6
CONTINUOUS
62
5
100
AcDb2dPolyline
66
1
10
0.0
20
0.0
30
0.0
70
0
0
VERTEX
5
1df
100
AcDbEntity
8
1
100
AcDbVertex
100
AcDb2dVertex
62
5
10
80.500000
20
335.875000
0
VERTEX
5
1e0
100
AcDbEntity
8
1
100
AcDbVertex
100
AcDb2dVertex
62
5
10
80.000000
20
334.000000
0
VERTEX
5
1e1
100
AcDbEntity
8
1
100
AcDbVertex
100
AcDb2dVertex
62
5
10
79.250000
20
332.125000
0
SEQEND
5
1e2
100
AcDbEntity
8
1
0
LINE
5
1e3
100
AcDbEntity
8
1
100
AcDbLine
6
CONTINUOUS
62
5
10
80.500000
20
334.937500
11
81.500000
21
333.375000
0
LINE
5
1e4
100
AcDbEntity
8
1
100
AcDbLine
6
CONTINUOUS
62
5
10
81.500000
20
337.750000
11
86.250000
21
337.750000
0
POLYLINE
5
1e5
100
AcDbEntity
8
1
6
CONTINUOUS
62
5
100
AcDb2dPolyline
66
1
10
0.0
20
0.0
30
0.0
70
0
0
VERTEX
5
1e6
100
AcDbEntity
8
1
100
AcDbVertex
100
AcDb2dVertex
62
5
10
83.750000
20
337.750000
0
VERTEX
5
1e7
100
AcDbEntity
8
1
100
AcDbVertex
100
AcDb2dVertex
62
5
10
82.750000
20
335.562500
0
VERTEX
5
1e8
100
AcDbEntity
8
1
100
AcDbVertex
100
AcDb2dVertex
62
5
10
84.250000
20
335.875000
0
VERTEX
5
1e9
100
AcDbEntity
8
1
100
AcDbVertex
100
AcDb2dVertex
62
5
10
84.250000
20
332.750000
0
VERTEX
5
1ea
100
AcDbEntity
8
1
100
AcDbVertex
100
AcDb2dVertex
62
5
10
83.750000
20
330.562500
0
VERTEX
5
1eb
100
AcDbEntity
8
1
100
AcDbVertex
100
AcDb2dVertex
62
5
10
83.250000
20
330.875000
0
SEQEND
5
1ec
100
AcDbEntity
8
1
0
POLYLINE
5
1ed
100
AcDbEntity
8
1
6
CONTINUOUS
62
5
100
AcDb2dPolyline
66
1
10
0.0
20
0.0
30
0.0
70
1
0
VERTEX
5
1ee
100
AcDbEntity
8
1
100
AcDbVertex
100
AcDb2dVertex
62
5
10
82.000000
20
334.000000
0
VERTEX
5
1ef
100
AcDbEntity
8
1
100
AcDbVertex
100
AcDb2dVertex
62
5
10
83.250000
20
334.000000
0
VERTEX
5
1f0
100
AcDbEntity
8
1
100
AcDbVertex
100
AcDb2dVertex
62
5
10
83.250000
20
331.812500
0
VERTEX
5
1f1
100
AcDbEntity
8
1
100
AcDbVertex
100
AcDb2dVertex
62
5
10
82.000000
20
331.812500
0
VERTEX
5
1f2
100
AcDbEntity
8
1
100
AcDbVertex
100
AcDb2dVertex
62
5
10
82.000000
20
334.000000
0
SEQEND
5
1f3
100
AcDbEntity
8
1
0
POLYLINE
5
1f4
100
AcDbEntity
8
1
6
CONTINUOUS
62
5
100
AcDb2dPolyline
66
1
10
0.0
20
0.0
30
0.0
70
0
0
VERTEX
5
1f5
100
AcDbEntity
8
1
100
AcDbVertex
100
AcDb2dVertex
62
5
10
84.750000
20
335.562500
0
VERTEX
5
1f6
100
AcDbEntity
8
1
100
AcDbVertex
100
AcDb2dVertex
62
5
10
86.250000
20
335.562500
0
VERTEX
5
1f7
100
AcDbEntity
8
1
100
AcDbVertex
100
AcDb2dVertex
62
5
10
86.000000
20
334.312500
0
VERTEX
5
1f8
100
AcDbEntity
8
1
100
AcDbVertex
100
AcDb2dVertex
62
5
10
85.500000
20
332.750000
0
VERTEX
5
1f9
100
AcDbEntity
8
1
100
AcDbVertex
100
AcDb2dVertex
62
5
10
84.750000
20
331.187500
0
SEQEND
5
1fa
100
AcDbEntity
8
1
0
POLYLINE
5
1fb
100
AcDbEntity
8
1
6
CONTINUOUS
62
5
100
AcDb2dPolyline
66
1
10
0.0
20
0.0
30
0.0
70
0
0
VERTEX
5
1fc
100
AcDbEntity
8
1
100
AcDbVertex
100
AcDb2dVertex
62
5
10
84.750000
20
334.625000
0
VERTEX
5
1fd
100
AcDbEntity
8
1
100
AcDbVertex
100
AcDb2dVertex
62
5
10
85.000000
20
333.375000
0
VERTEX
5
1fe
100
AcDbEntity
8
1
100
AcDbVertex
100
AcDb2dVertex
62
5
10
86.500000
20
331.187500
0
SEQEND
5
1ff
100
AcDbEntity
8
1
0
LINE
5
200
100
AcDbEntity
8
1
100
AcDbLine
6
CONTINUOUS
62
5
10
81.250000
20
329.625000
11
86.500000
21
329.625000
0
LINE
5
201
100
AcDbEntity
8
1
100
AcDbLine
6
CONTINUOUS
62
5
10
82.500000
20
300.500000
11
85.312500
21
300.500000
0
POLYLINE
5
202
100
AcDbEntity
8
1
6
CONTINUOUS
62
5
100
AcDb2dPolyline
66
1
10
0.0
20
0.0
30
0.0
70
0
0
VERTEX
5
203
100
AcDbEntity
8
1
100
AcDbVertex
100
AcDb2dVertex
62
5
10
82.500000
20
300.500000
0
VERTEX
5
204
100
AcDbEntity
8
1
100
AcDbVertex
100
AcDb2dVertex
62
5
10
82.500000
20
296.750000
0
VERTEX
5
205
100
AcDbEntity
8
1
100
AcDbVertex
100
AcDb2dVertex
62
5
10
83.125000
20
297.375000
0
VERTEX
5
206
100
AcDbEntity
8
1
100
AcDbVertex
100
AcDb2dVertex
62
5
10
83.750000
20
297.687500
0
VERTEX
5
207
100
AcDbEntity
8
1
100
AcDbVertex
100
AcDb2dVertex
62
5
10
84.687500
20
297.687500
0
VERTEX
5
208
100
AcDbEntity
8
1
100
AcDbVertex
100
AcDb2dVertex
62
5
10
85.312500
20
297.375000
0
VERTEX
5
209
100
AcDbEntity
8
1
100
AcDbVertex
100
AcDb2dVertex
62
5
10
85.625000
20
296.437500
0
VERTEX
5
20a
100
AcDbEntity
8
1
100
AcDbVertex
100
AcDb2dVertex
62
5
10
85.625000
20
294.562500
0
VERTEX
5
20b
100
AcDbEntity
8
1
100
AcDbVertex
100
AcDb2dVertex
62
5
10
85.000000
20
293.625000
0
VERTEX
5
20c
100
AcDbEntity
8
1
100
AcDbVertex
100
AcDb2dVertex
62
5
10
84.062500
20
293.000000
0
VERTEX
5
20d
100
AcDbEntity
8
1
100
AcDbVertex
100
AcDb2dVertex
62
5
10
82.500000
20
293.000000
0
SEQEND
5
20e
100
AcDbEntity
8
1
0
POLYLINE
5
20f
100
AcDbEntity
8
0
6
DOT2
62
5
100
AcDb2dPolyline
66
1
10
0.0
20
0.0
30
0.0
70
1
0
VERTEX
5
210
100
AcDbEntity
8
0
100
AcDbVertex
100
AcDb2dVertex
62
5
10
129.500000
20
238.250000
0
VERTEX
5
211
100
AcDbEntity
8
0
100
AcDbVertex
100
AcDb2dVertex
62
5
10
130.125000
20
238.250000
0
VERTEX
5
212
100
AcDbEntity
8
0
100
AcDbVertex
100
AcDb2dVertex
62
5
10
130.750000
20
237.937500
0
VERTEX
5
213
100
AcDbEntity
8
0
100
AcDbVertex
100
AcDb2dVertex
62
5
10
131.062500
20
237.312500
0
VERTEX
5
214
100
AcDbEntity
8
0
100
AcDbVertex
100
AcDb2dVertex
62
5
10
131.062500
20
236.062500
0
VERTEX
5
215
100
AcDbEntity
8
0
100
AcDbVertex
100
AcDb2dVertex
62
5
10
130.750000
20
235.437500
0
VERTEX
5
216
100
AcDbEntity
8
0
100
AcDbVertex
100
AcDb2dVertex
62
5
10
128.875000
20
234.187500
0
VERTEX
5
217
100
AcDbEntity
8
0
100
AcDbVertex
100
AcDb2dVertex
62
5
10
128.250000
20
233.250000
0
VERTEX
5
218
100
AcDbEntity
8
0
100
AcDbVertex
100
AcDb2dVertex
62
5
10
128.250000
20
232.000000
0
VERTEX
5
219
100
AcDbEntity
8
0
100
AcDbVertex
100
AcDb2dVertex
62
5
10
128.562500
20
231.375000
0
VERTEX
5
21a
100
AcDbEntity
8
0
100
AcDbVertex
100
AcDb2dVertex
62
5
10
128.875000
20
231.062500
0
VERTEX
5
21b
100
AcDbEntity
8
0
100
AcDbVertex
100
AcDb2dVertex
62
5
10
129.500000
20
230.750000
0
VERTEX
5
21c
100
AcDbEntity
8
0
100
AcDbVertex
100
AcDb2dVertex
62
5
10
130.125000
20
230.750000
0
VERTEX
5
21d
100
AcDbEntity
8
0
100
AcDbVertex
100
AcDb2dVertex
62
5
10
130.750000
20
231.062500
0
VERTEX
5
21e
100
AcDbEntity
8
0
100
AcDbVertex
100
AcDb2dVertex
62
5
10
131.062500
20
231.375000
0
VERTEX
5
21f
100
AcDbEntity
8
0
100
AcDbVertex
100
AcDb2dVertex
62
5
10
131.375000
20
232.000000
0
VERTEX
5
220
100
AcDbEntity
8
0
100
AcDbVertex
100
AcDb2dVertex
62
5
10
131.375000
20
233.250000
0
VERTEX
5
221
100
AcDbEntity
8
0
100
AcDbVertex
100
AcDb2dVertex
62
5
10
130.750000
20
234.187500
0
VERTEX
5
222
100
AcDbEntity
8
0
100
AcDbVertex
100
AcDb2dVertex
62
5
10
128.875000
20
235.437500
0
VERTEX
5
223
100
AcDbEntity
8
0
100
AcDbVertex
100
AcDb2dVertex
62
5
10
128.562500
20
236.062500
0
VERTEX
5
224
100
AcDbEntity
8
0
100
AcDbVertex
100
AcDb2dVertex
62
5
10
128.562500
20
237.312500
0
VERTEX
5
225
100
AcDbEntity
8
0
100
AcDbVertex
100
AcDb2dVertex
62
5
10
128.875000
20
237.937500
0
VERTEX
5
226
100
AcDbEntity
8
0
100
AcDbVertex
100
AcDb2dVertex
62
5
10
129.500000
20
238.250000
0
SEQEND
5
227
100
AcDbEntity
8
0
0
POLYLINE
5
228
100
AcDbEntity
8
0
6
DOT2
62
5
100
AcDb2dPolyline
66
1
10
0.0
20
0.0
30
0.0
70
0
0
VERTEX
5
229
100
AcDbEntity
8
0
100
AcDbVertex
100
AcDb2dVertex
62
5
10
125.750000
20
238.250000
0
VERTEX
5
22a
100
AcDbEntity
8
0
100
AcDbVertex
100
AcDb2dVertex
62
5
10
122.937500
20
232.625000
0
VERTEX
5
22b
100
AcDbEntity
8
0
100
AcDbVertex
100
AcDb2dVertex
62
5
10
126.687500
20
232.625000
0
SEQEND
5
22c
100
AcDbEntity
8
0
0
LINE
5
22d
100
AcDbEntity
8
0
100
AcDbLine
6
DOT2
62
5
10
125.750000
20
238.250000
11
125.750000
21
230.750000
0
LINE
5
22e
100
AcDbEntity
8
0
100
AcDbLine
6
DOT2
62
5
10
125.125000
20
230.750000
11
126.375000
21
230.750000
0
LINE
5
22f
100
AcDbEntity
8
1
100
AcDbLine
6
CONTINUOUS
62
5
10
119.550000
20
183.750000
11
121.750000
21
183.750000
0
LINE
5
230
100
AcDbEntity
8
0
100
AcDbLine
6
CONTINUOUS
62
5
10
103.000000
20
201.000000
11
103.000000
21
231.500000
0
LINE
5
231
100
AcDbEntity
8
0
100
AcDbLine
6
CONTINUOUS
62
5
10
151.000000
20
201.000000
11
151.000000
21
231.500000
0
POLYLINE
5
232
100
AcDbEntity
8
0
6
CONTINUOUS
62
5
100
AcDb2dPolyline
66
1
10
0.0
20
0.0
30
0.0
70
0
0
VERTEX
5
233
100
AcDbEntity
8
0
100
AcDbVertex
100
AcDb2dVertex
62
5
10
127.000000
20
229.500000
0
VERTEX
5
234
100
AcDbEntity
8
0
100
AcDbVertex
100
AcDb2dVertex
62
5
10
103.000000
20
229.500000
0
VERTEX
5
235
100
AcDbEntity
8
0
100
AcDbVertex
100
AcDb2dVertex
62
5
10
109.000000
20
230.500000
0
VERTEX
5
236
100
AcDbEntity
8
0
100
AcDbVertex
100
AcDb2dVertex
62
5
10
109.000000
20
228.500000
0
VERTEX
5
237
100
AcDbEntity
8
0
100
AcDbVertex
100
AcDb2dVertex
62
5
10
103.000000
20
229.500000
0
VERTEX
5
238
100
AcDbEntity
8
0
100
AcDbVertex
100
AcDb2dVertex
62
5
10
109.000000
20
230.000000
0
VERTEX
5
239
100
AcDbEntity
8
0
100
AcDbVertex
100
AcDb2dVertex
62
5
10
109.000000
20
229.000000
0
VERTEX
5
23a
100
AcDbEntity
8
0
100
AcDbVertex
100
AcDb2dVertex
62
5
10
103.000000
20
229.500000
0
SEQEND
5
23b
100
AcDbEntity
8
0
0
POLYLINE
5
23c
100
AcDbEntity
8
0
6
CONTINUOUS
62
5
100
AcDb2dPolyline
66
1
10
0.0
20
0.0
30
0.0
70
0
0
VERTEX
5
23d
100
AcDbEntity
8
0
100
AcDbVertex
100
AcDb2dVertex
62
5
10
127.000000
20
229.500000
0
VERTEX
5
23e
100
AcDbEntity
8
0
100
AcDbVertex
100
AcDb2dVertex
62
5
10
151.000000
20
229.500000
0
VERTEX
5
23f
100
AcDbEntity
8
0
100
AcDbVertex
100
AcDb2dVertex
62
5
10
145.000000
20
228.500000
0
VERTEX
5
240
100
AcDbEntity
8
0
100
AcDbVertex
100
AcDb2dVertex
62
5
10
145.000000
20
230.500000
0
VERTEX
5
241
100
AcDbEntity
8
0
100
AcDbVertex
100
AcDb2dVertex
62
5
10
151.000000
20
229.500000
0
VERTEX
5
242
100
AcDbEntity
8
0
100
AcDbVertex
100
AcDb2dVertex
62
5
10
145.000000
20
229.000000
0
VERTEX
5
243
100
AcDbEntity
8
0
100
AcDbVertex
100
AcDb2dVertex
62
5
10
145.000000
20
230.000000
0
VERTEX
5
244
100
AcDbEntity
8
0
100
AcDbVertex
100
AcDb2dVertex
62
5
10
151.000000
20
229.500000
0
SEQEND
5
245
100
AcDbEntity
8
0
0
POLYLINE
5
246
100
AcDbEntity
8
1
6
CONTINUOUS
62
5
100
AcDb2dPolyline
66
1
10
0.0
20
0.0
30
0.0
70
0
0
VERTEX
5
247
100
AcDbEntity
8
1
100
AcDbVertex
100
AcDb2dVertex
62
5
10
164.250000
20
335.875000
0
VERTEX
5
248
100
AcDbEntity
8
1
100
AcDbVertex
100
AcDb2dVertex
62
5
10
168.000000
20
335.875000
0
VERTEX
5
249
100
AcDbEntity
8
1
100
AcDbVertex
100
AcDb2dVertex
62
5
10
168.000000
20
334.937500
0
VERTEX
5
24a
100
AcDbEntity
8
1
100
AcDbVertex
100
AcDb2dVertex
62
5
10
167.750000
20
333.687500
0
VERTEX
5
24b
100
AcDbEntity
8
1
100
AcDbVertex
100
AcDb2dVertex
62
5
10
167.250000
20
332.750000
0
VERTEX
5
24c
100
AcDbEntity
8
1
100
AcDbVertex
100
AcDb2dVertex
62
5
10
166.750000
20
331.812500
0
VERTEX
5
24d
100
AcDbEntity
8
1
100
AcDbVertex
100
AcDb2dVertex
62
5
10
165.250000
20
330.562500
0
SEQEND
5
24e
100
AcDbEntity
8
1
0
LINE
5
24f
100
AcDbEntity
8
1
100
AcDbLine
6
CONTINUOUS
62
5
10
168.500000
20
337.125000
11
169.250000
21
336.187500
0
LINE
5
250
100
AcDbEntity
8
1
100
AcDbLine
6
CONTINUOUS
62
5
10
169.500000
20
337.750000
11
170.000000
21
336.812500
0
LINE
5
251
100
AcDbEntity
8
1
100
AcDbLine
6
CONTINUOUS
62
5
10
10.000000
20
318.000000
11
330.000000
21
318.000000
0
LINE
5
252
100
AcDbEntity
8
1
100
AcDbLine
6
CONTINUOUS
62
5
10
10.000000
20
318.000000
11
330.000000
21
318.000000
0
LINE
5
253
100
AcDbEntity
8
1
100
AcDbLine
6
CONTINUOUS
62
5
10
128.350000
20
170.438269
11
128.350000
21
165.400000
0
LINE
5
254
100
AcDbEntity
8
1
100
AcDbLine
6
CONTINUOUS
62
5
10
133.350000
20
144.500000
11
133.350000
21
137.500000
0
POLYLINE
5
255
100
AcDbEntity
8
1
6
CONTINUOUS
62
5
100
AcDb2dPolyline
66
1
10
0.0
20
0.0
30
0.0
70
1
0
VERTEX
5
256
100
AcDbEntity
8
1
100
AcDbVertex
100
AcDb2dVertex
62
5
10
132.250000
20
137.500000
0
VERTEX
5
257
100
AcDbEntity
8
1
100
AcDbVertex
100
AcDb2dVertex
62
5
10
132.250000
20
144.500000
0
VERTEX
5
258
100
AcDbEntity
8
1
100
AcDbVertex
100
AcDb2dVertex
62
5
10
134.450000
20
144.500000
0
VERTEX
5
259
100
AcDbEntity
8
1
100
AcDbVertex
100
AcDb2dVertex
62
5
10
134.450000
20
137.500000
0
SEQEND
5
25a
100
AcDbEntity
8
1
0
ARC
5
25b
100
AcDbEntity
8
1
100
AcDbCircle
6
CONTINUOUS
62
5
10
132.250000
20
144.500000
40
1.500000
100
AcDbArc
50
89.999999
51
179.999998
0
LINE
5
25c
100
AcDbEntity
8
1
100
AcDbLine
6
CONTINUOUS
62
5
10
132.250000
20
146.000000
11
134.450000
21
146.000000
0
ARC
5
25d
100
AcDbEntity
8
1
100
AcDbCircle
6
CONTINUOUS
62
5
10
134.450000
20
144.500000
40
1.500000
100
AcDbArc
50
0.000000
51
89.999999
0
LINE
5
25e
100
AcDbEntity
8
1
100
AcDbLine
6
CONTINUOUS
62
5
10
135.950000
20
144.500000
11
135.950000
21
137.500000
0
ARC
5
25f
100
AcDbEntity
8
1
100
AcDbCircle
6
CONTINUOUS
62
5
10
134.450000
20
137.500000
40
1.500000
100
AcDbArc
50
-89.999999
51
0.000000
0
LINE
5
260
100
AcDbEntity
8
1
100
AcDbLine
6
CONTINUOUS
62
5
10
134.450000
20
136.000000
11
132.250000
21
136.000000
0
ARC
5
261
100
AcDbEntity
8
1
100
AcDbCircle
6
CONTINUOUS
62
5
10
132.250000
20
137.500000
40
1.500000
100
AcDbArc
50
179.999998
51
-89.999999
0
LINE
5
262
100
AcDbEntity
8
1
100
AcDbLine
6
CONTINUOUS
62
5
10
130.750000
20
137.500000
11
130.750000
21
144.500000
0
ARC
5
263
100
AcDbEntity
8
1
100
AcDbCircle
6
CONTINUOUS
62
5
10
127.000000
20
157.500000
40
1.341285
100
AcDbArc
50
-16.637192
51
16.637192
0
LINE
5
264
100
AcDbEntity
8
1
100
AcDbLine
6
CONTINUOUS
62
5
10
119.550000
20
176.250000
11
121.750000
21
176.250000
0
LINE
5
265
100
AcDbEntity
8
1
100
AcDbLine
6
CONTINUOUS
62
5
10
125.650000
20
170.438269
11
125.650000
21
165.400000
0
LINE
5
266
100
AcDbEntity
8
1
100
AcDbLine
6
CONTINUOUS
62
5
10
120.650000
20
144.750000
11
120.650000
21
137.250000
0
LINE
5
267
100
AcDbEntity
8
1
100
AcDbLine
6
CONTINUOUS
62
5
10
119.550000
20
144.750000
11
121.750000
21
144.750000
0
LINE
5
268
100
AcDbEntity
8
1
100
AcDbLine
6
CONTINUOUS
62
5
10
119.550000
20
137.250000
11
121.750000
21
137.250000
0
POLYLINE
5
269
100
AcDbEntity
8
1
6
CONTINUOUS
62
5
100
AcDb2dPolyline
66
1
10
0.0
20
0.0
30
0.0
70
1
0
VERTEX
5
26a
100
AcDbEntity
8
1
100
AcDbVertex
100
AcDb2dVertex
62
5
10
119.550000
20
145.350000
0
VERTEX
5
26b
100
AcDbEntity
8
1
100
AcDbVertex
100
AcDb2dVertex
62
5
10
119.550000
20
136.650000
0
VERTEX
5
26c
100
AcDbEntity
8
1
100
AcDbVertex
100
AcDb2dVertex
62
5
10
121.750000
20
136.650000
0
VERTEX
5
26d
100
AcDbEntity
8
1
100
AcDbVertex
100
AcDb2dVertex
62
5
10
121.750000
20
145.350000
0
SEQEND
5
26e
100
AcDbEntity
8
1
0
ARC
5
26f
100
AcDbEntity
8
1
100
AcDbCircle
6
CONTINUOUS
62
5
10
121.750000
20
145.350000
40
1.500000
100
AcDbArc
50
0.000000
51
89.999999
0
LINE
5
270
100
AcDbEntity
8
1
100
AcDbLine
6
CONTINUOUS
62
5
10
121.750000
20
146.850000
11
119.550000
21
146.850000
0
ARC
5
271
100
AcDbEntity
8
1
100
AcDbCircle
6
CONTINUOUS
62
5
10
119.550000
20
145.350000
40
1.500000
100
AcDbArc
50
89.999999
51
179.999998
0
LINE
5
272
100
AcDbEntity
8
1
100
AcDbLine
6
CONTINUOUS
62
5
10
118.050000
20
145.350000
11
118.050000
21
136.650000
0
ARC
5
273
100
AcDbEntity
8
1
100
AcDbCircle
6
CONTINUOUS
62
5
10
119.550000
20
136.650000
40
1.500000
100
AcDbArc
50
179.999998
51
-89.999999
0
LINE
5
274
100
AcDbEntity
8
1
100
AcDbLine
6
CONTINUOUS
62
5
10
119.550000
20
135.150000
11
121.750000
21
135.150000
0
ARC
5
275
100
AcDbEntity
8
1
100
AcDbCircle
6
CONTINUOUS
62
5
10
121.750000
20
136.650000
40
1.500000
100
AcDbArc
50
-89.999999
51
0.000000
0
LINE
5
276
100
AcDbEntity
8
1
100
AcDbLine
6
CONTINUOUS
62
5
10
123.250000
20
136.650000
11
123.250000
21
145.350000
0
ARC
5
277
100
AcDbEntity
8
1
100
AcDbCircle
6
CONTINUOUS
62
5
10
127.000000
20
157.500000
40
1.341285
100
AcDbArc
50
163.362806
51
-163.362806
0
ARC
5
278
100
AcDbEntity
8
1
100
AcDbCircle
6
CONTINUOUS
62
5
10
127.000000
20
157.500000
40
2.049999
100
AcDbArc
50
169.565877
51
-169.565877
0
POLYLINE
5
279
100
AcDbEntity
8
1
6
CONTINUOUS
62
5
100
AcDb2dPolyline
66
1
10
0.0
20
0.0
30
0.0
70
0
0
VERTEX
5
27a
100
AcDbEntity
8
1
100
AcDbVertex
100
AcDb2dVertex
62
5
10
124.983900
20
157.871265
0
VERTEX
5
27b
100
AcDbEntity
8
1
100
AcDbVertex
100
AcDb2dVertex
62
5
10
125.916661
20
157.887546
0
VERTEX
5
27c
100
AcDbEntity
8
1
100
AcDbVertex
100
AcDb2dVertex
62
5
10
126.391181
20
158.108819
0
VERTEX
5
27d
100
AcDbEntity
8
1
100
AcDbVertex
100
AcDb2dVertex
62
5
10
126.500000
20
158.342181
0
VERTEX
5
27e
100
AcDbEntity
8
1
100
AcDbVertex
100
AcDb2dVertex
62
5
10
126.500000
20
160.964102
0
SEQEND
5
27f
100
AcDbEntity
8
1
0
POLYLINE
5
280
100
AcDbEntity
8
1
6
CONTINUOUS
62
5
100
AcDb2dPolyline
66
1
10
0.0
20
0.0
30
0.0
70
0
0
VERTEX
5
281
100
AcDbEntity
8
1
100
AcDbVertex
100
AcDb2dVertex
62
5
10
126.500000
20
154.035898
0
VERTEX
5
282
100
AcDbEntity
8
1
100
AcDbVertex
100
AcDb2dVertex
62
5
10
126.500000
20
156.657819
0
VERTEX
5
283
100
AcDbEntity
8
1
100
AcDbVertex
100
AcDb2dVertex
62
5
10
126.391181
20
156.891181
0
VERTEX
5
284
100
AcDbEntity
8
1
100
AcDbVertex
100
AcDb2dVertex
62
5
10
125.916661
20
157.112454
0
VERTEX
5
285
100
AcDbEntity
8
1
100
AcDbVertex
100
AcDb2dVertex
62
5
10
124.983900
20
157.128735
0
SEQEND
5
286
100
AcDbEntity
8
1
0
ARC
5
287
100
AcDbEntity
8
1
100
AcDbCircle
6
CONTINUOUS
62
5
10
127.000000
20
168.100000
40
2.700000
100
AcDbArc
50
0.000000
51
179.999998
0
POLYLINE
5
288
100
AcDbEntity
8
1
6
CONTINUOUS
62
5
100
AcDb2dPolyline
66
1
10
0.0
20
0.0
30
0.0
70
0
0
VERTEX
5
289
100
AcDbEntity
8
1
100
AcDbVertex
100
AcDb2dVertex
62
5
10
129.700000
20
168.100000
0
VERTEX
5
28a
100
AcDbEntity
8
1
100
AcDbVertex
100
AcDb2dVertex
62
5
10
129.700000
20
165.400000
0
VERTEX
5
28b
100
AcDbEntity
8
1
100
AcDbVertex
100
AcDb2dVertex
62
5
10
124.300000
20
165.400000
0
VERTEX
5
28c
100
AcDbEntity
8
1
100
AcDbVertex
100
AcDb2dVertex
62
5
10
124.300000
20
168.100000
0
SEQEND
5
28d
100
AcDbEntity
8
1
0
ARC
5
28e
100
AcDbEntity
8
1
100
AcDbCircle
6
CONTINUOUS
62
5
10
127.000000
20
157.500000
40
1.341285
100
AcDbArc
50
68.113025
51
111.886973
0
ARC
5
28f
100
AcDbEntity
8
1
100
AcDbCircle
6
CONTINUOUS
62
5
10
127.000000
20
157.500000
40
2.049999
100
AcDbArc
50
-10.434122
51
10.434122
0
POLYLINE
5
290
100
AcDbEntity
8
1
6
CONTINUOUS
62
5
100
AcDb2dPolyline
66
1
10
0.0
20
0.0
30
0.0
70
0
0
VERTEX
5
291
100
AcDbEntity
8
1
100
AcDbVertex
100
AcDb2dVertex
62
5
10
129.016100
20
157.128735
0
VERTEX
5
292
100
AcDbEntity
8
1
100
AcDbVertex
100
AcDb2dVertex
62
5
10
128.083339
20
157.112454
0
VERTEX
5
293
100
AcDbEntity
8
1
100
AcDbVertex
100
AcDb2dVertex
62
5
10
127.608819
20
156.891181
0
VERTEX
5
294
100
AcDbEntity
8
1
100
AcDbVertex
100
AcDb2dVertex
62
5
10
127.500000
20
156.657819
0
VERTEX
5
295
100
AcDbEntity
8
1
100
AcDbVertex
100
AcDb2dVertex
62
5
10
127.500000
20
154.035898
0
SEQEND
5
296
100
AcDbEntity
8
1
0
POLYLINE
5
297
100
AcDbEntity
8
1
6
CONTINUOUS
62
5
100
AcDb2dPolyline
66
1
10
0.0
20
0.0
30
0.0
70
0
0
VERTEX
5
298
100
AcDbEntity
8
1
100
AcDbVertex
100
AcDb2dVertex
62
5
10
127.500000
20
160.964102
0
VERTEX
5
299
100
AcDbEntity
8
1
100
AcDbVertex
100
AcDb2dVertex
62
5
10
127.500000
20
158.342181
0
VERTEX
5
29a
100
AcDbEntity
8
1
100
AcDbVertex
100
AcDb2dVertex
62
5
10
127.608819
20
158.108819
0
VERTEX
5
29b
100
AcDbEntity
8
1
100
AcDbVertex
100
AcDb2dVertex
62
5
10
128.083339
20
157.887546
0
VERTEX
5
29c
100
AcDbEntity
8
1
100
AcDbVertex
100
AcDb2dVertex
62
5
10
129.016100
20
157.871265
0
SEQEND
5
29d
100
AcDbEntity
8
1
0
ARC
5
29e
100
AcDbEntity
8
1
100
AcDbCircle
6
CONTINUOUS
62
5
10
127.000000
20
157.500000
40
1.341285
100
AcDbArc
50
-111.886973
51
-68.113025
0
CIRCLE
5
29f
100
AcDbEntity
8
1
100
AcDbCircle
6
CONTINUOUS
62
5
10
127.000000
20
157.500000
40
3.500000
0
ARC
5
2a0
100
AcDbEntity
8
1
100
AcDbCircle
6
CONTINUOUS
62
5
10
129.700000
20
165.400000
40
1.500000
100
AcDbArc
50
-89.999999
51
0.000000
0
LINE
5
2a1
100
AcDbEntity
8
1
100
AcDbLine
6
CONTINUOUS
62
5
10
129.700000
20
163.900000
11
124.300000
21
163.900000
0
ARC
5
2a2
100
AcDbEntity
8
1
100
AcDbCircle
6
CONTINUOUS
62
5
10
124.300000
20
165.400000
40
1.500000
100
AcDbArc
50
179.999998
51
-89.999999
0
LINE
5
2a3
100
AcDbEntity
8
1
100
AcDbLine
6
CONTINUOUS
62
5
10
122.800000
20
165.400000
11
122.800000
21
168.100000
0
ARC
5
2a4
100
AcDbEntity
8
1
100
AcDbCircle
6
CONTINUOUS
62
5
10
127.000000
20
168.100000
40
4.200000
100
AcDbArc
50
0.000000
51
179.999998
0
LINE
5
2a5
100
AcDbEntity
8
1
100
AcDbLine
6
CONTINUOUS
62
5
10
131.200000
20
168.100000
11
131.200000
21
165.400000
0
CIRCLE
5
2a6
100
AcDbEntity
8
1
100
AcDbCircle
6
CONTINUOUS
62
5
10
127.000000
20
157.500000
40
3.750000
0
LINE
5
2a7
100
AcDbEntity
8
1
100
AcDbLine
6
CONTINUOUS
62
5
10
128.350000
20
131.438269
11
128.350000
21
126.400000
0
LINE
5
2a8
100
AcDbEntity
8
1
100
AcDbLine
6
CONTINUOUS
62
5
10
125.650000
20
131.438269
11
125.650000
21
126.400000
0
ARC
5
2a9
100
AcDbEntity
8
1
100
AcDbCircle
6
CONTINUOUS
62
5
10
127.000000
20
129.100000
40
2.700000
100
AcDbArc
50
0.000000
51
179.999998
0
POLYLINE
5
2aa
100
AcDbEntity
8
1
6
CONTINUOUS
62
5
100
AcDb2dPolyline
66
1
10
0.0
20
0.0
30
0.0
70
0
0
VERTEX
5
2ab
100
AcDbEntity
8
1
100
AcDbVertex
100
AcDb2dVertex
62
5
10
129.700000
20
129.100000
0
VERTEX
5
2ac
100
AcDbEntity
8
1
100
AcDbVertex
100
AcDb2dVertex
62
5
10
129.700000
20
126.400000
0
VERTEX
5
2ad
100
AcDbEntity
8
1
100
AcDbVertex
100
AcDb2dVertex
62
5
10
124.300000
20
126.400000
0
VERTEX
5
2ae
100
AcDbEntity
8
1
100
AcDbVertex
100
AcDb2dVertex
62
5
10
124.300000
20
129.100000
0
SEQEND
5
2af
100
AcDbEntity
8
1
0
ARC
5
2b0
100
AcDbEntity
8
1
100
AcDbCircle
6
CONTINUOUS
62
5
10
129.700000
20
126.400000
40
1.500000
100
AcDbArc
50
-89.999999
51
0.000000
0
LINE
5
2b1
100
AcDbEntity
8
1
100
AcDbLine
6
CONTINUOUS
62
5
10
129.700000
20
124.900000
11
124.300000
21
124.900000
0
ARC
5
2b2
100
AcDbEntity
8
1
100
AcDbCircle
6
CONTINUOUS
62
5
10
124.300000
20
126.400000
40
1.500000
100
AcDbArc
50
179.999998
51
-89.999999
0
LINE
5
2b3
100
AcDbEntity
8
1
100
AcDbLine
6
CONTINUOUS
62
5
10
122.800000
20
126.400000
11
122.800000
21
129.100000
0
ARC
5
2b4
100
AcDbEntity
8
1
100
AcDbCircle
6
CONTINUOUS
62
5
10
127.000000
20
129.100000
40
4.200000
100
AcDbArc
50
0.000000
51
179.999998
0
LINE
5
2b5
100
AcDbEntity
8
1
100
AcDbLine
6
CONTINUOUS
62
5
10
131.200000
20
129.100000
11
131.200000
21
126.400000
0
POLYLINE
5
2b6
100
AcDbEntity
8
0
6
DOT2
62
5
100
AcDb2dPolyline
66
1
10
0.0
20
0.0
30
0.0
70
0
0
VERTEX
5
2b7
100
AcDbEntity
8
0
100
AcDbVertex
100
AcDb2dVertex
62
5
10
73.312500
20
164.375000
0
VERTEX
5
2b8
100
AcDbEntity
8
0
100
AcDbVertex
100
AcDb2dVertex
62
5
10
73.312500
20
164.375000
0
VERTEX
5
2b9
100
AcDbEntity
8
0
100
AcDbVertex
100
AcDb2dVertex
62
5
10
73.625000
20
163.125000
0
VERTEX
5
2ba
100
AcDbEntity
8
0
100
AcDbVertex
100
AcDb2dVertex
62
5
10
73.625000
20
162.187500
0
VERTEX
5
2bb
100
AcDbEntity
8
0
100
AcDbVertex
100
AcDb2dVertex
62
5
10
73.312500
20
161.562500
0
VERTEX
5
2bc
100
AcDbEntity
8
0
100
AcDbVertex
100
AcDb2dVertex
62
5
10
72.375000
20
161.250000
0
VERTEX
5
2bd
100
AcDbEntity
8
0
100
AcDbVertex
100
AcDb2dVertex
62
5
10
70.812500
20
161.250000
0
VERTEX
5
2be
100
AcDbEntity
8
0
100
AcDbVertex
100
AcDb2dVertex
62
5
10
69.875000
20
161.562500
0
VERTEX
5
2bf
100
AcDbEntity
8
0
100
AcDbVertex
100
AcDb2dVertex
62
5
10
69.562500
20
161.875000
0
VERTEX
5
2c0
100
AcDbEntity
8
0
100
AcDbVertex
100
AcDb2dVertex
62
5
10
69.250000
20
162.500000
0
VERTEX
5
2c1
100
AcDbEntity
8
0
100
AcDbVertex
100
AcDb2dVertex
62
5
10
69.250000
20
163.125000
0
VERTEX
5
2c2
100
AcDbEntity
8
0
100
AcDbVertex
100
AcDb2dVertex
62
5
10
69.562500
20
163.750000
0
VERTEX
5
2c3
100
AcDbEntity
8
0
100
AcDbVertex
100
AcDb2dVertex
62
5
10
69.875000
20
164.062500
0
VERTEX
5
2c4
100
AcDbEntity
8
0
100
AcDbVertex
100
AcDb2dVertex
62
5
10
70.812500
20
164.375000
0
VERTEX
5
2c5
100
AcDbEntity
8
0
100
AcDbVertex
100
AcDb2dVertex
62
5
10
74.250000
20
164.375000
0
VERTEX
5
2c6
100
AcDbEntity
8
0
100
AcDbVertex
100
AcDb2dVertex
62
5
10
75.812500
20
164.062500
0
VERTEX
5
2c7
100
AcDbEntity
8
0
100
AcDbVertex
100
AcDb2dVertex
62
5
10
76.437500
20
163.437500
0
VERTEX
5
2c8
100
AcDbEntity
8
0
100
AcDbVertex
100
AcDb2dVertex
62
5
10
76.750000
20
162.500000
0
VERTEX
5
2c9
100
AcDbEntity
8
0
100
AcDbVertex
100
AcDb2dVertex
62
5
10
76.750000
20
161.875000
0
SEQEND
5
2ca
100
AcDbEntity
8
0
0
POLYLINE
5
2cb
100
AcDbEntity
8
0
6
DOT2
62
5
100
AcDb2dPolyline
66
1
10
0.0
20
0.0
30
0.0
70
1
0
VERTEX
5
2cc
100
AcDbEntity
8
0
100
AcDbVertex
100
AcDb2dVertex
62
5
10
69.250000
20
157.500000
0
VERTEX
5
2cd
100
AcDbEntity
8
0
100
AcDbVertex
100
AcDb2dVertex
62
5
10
69.250000
20
158.125000
0
VERTEX
5
2ce
100
AcDbEntity
8
0
100
AcDbVertex
100
AcDb2dVertex
62
5
10
69.562500
20
158.750000
0
VERTEX
5
2cf
100
AcDbEntity
8
0
100
AcDbVertex
100
AcDb2dVertex
62
5
10
70.187500
20
159.062500
0
VERTEX
5
2d0
100
AcDbEntity
8
0
100
AcDbVertex
100
AcDb2dVertex
62
5
10
71.437500
20
159.062500
0
VERTEX
5
2d1
100
AcDbEntity
8
0
100
AcDbVertex
100
AcDb2dVertex
62
5
10
72.062500
20
158.750000
0
VERTEX
5
2d2
100
AcDbEntity
8
0
100
AcDbVertex
100
AcDb2dVertex
62
5
10
73.312500
20
156.875000
0
VERTEX
5
2d3
100
AcDbEntity
8
0
100
AcDbVertex
100
AcDb2dVertex
62
5
10
74.250000
20
156.250000
0
VERTEX
5
2d4
100
AcDbEntity
8
0
100
AcDbVertex
100
AcDb2dVertex
62
5
10
75.500000
20
156.250000
0
VERTEX
5
2d5
100
AcDbEntity
8
0
100
AcDbVertex
100
AcDb2dVertex
62
5
10
76.125000
20
156.562500
0
VERTEX
5
2d6
100
AcDbEntity
8
0
100
AcDbVertex
100
AcDb2dVertex
62
5
10
76.437500
20
156.875000
0
VERTEX
5
2d7
100
AcDbEntity
8
0
100
AcDbVertex
100
AcDb2dVertex
62
5
10
76.750000
20
157.500000
0
VERTEX
5
2d8
100
AcDbEntity
8
0
100
AcDbVertex
100
AcDb2dVertex
62
5
10
76.750000
20
158.125000
0
VERTEX
5
2d9
100
AcDbEntity
8
0
100
AcDbVertex
100
AcDb2dVertex
62
5
10
76.437500
20
158.750000
0
VERTEX
5
2da
100
AcDbEntity
8
0
100
AcDbVertex
100
AcDb2dVertex
62
5
10
76.125000
20
159.062500
0
VERTEX
5
2db
100
AcDbEntity
8
0
100
AcDbVertex
100
AcDb2dVertex
62
5
10
75.500000
20
159.375000
0
VERTEX
5
2dc
100
AcDbEntity
8
0
100
AcDbVertex
100
AcDb2dVertex
62
5
10
74.250000
20
159.375000
0
VERTEX
5
2dd
100
AcDbEntity
8
0
100
AcDbVertex
100
AcDb2dVertex
62
5
10
73.312500
20
158.750000
0
VERTEX
5
2de
100
AcDbEntity
8
0
100
AcDbVertex
100
AcDb2dVertex
62
5
10
72.062500
20
156.875000
0
VERTEX
5
2df
100
AcDbEntity
8
0
100
AcDbVertex
100
AcDb2dVertex
62
5
10
71.437500
20
156.562500
0
VERTEX
5
2e0
100
AcDbEntity
8
0
100
AcDbVertex
100
AcDb2dVertex
62
5
10
70.187500
20
156.562500
0
VERTEX
5
2e1
100
AcDbEntity
8
0
100
AcDbVertex
100
AcDb2dVertex
62
5
10
69.562500
20
156.875000
0
VERTEX
5
2e2
100
AcDbEntity
8
0
100
AcDbVertex
100
AcDb2dVertex
62
5
10
69.250000
20
157.500000
0
SEQEND
5
2e3
100
AcDbEntity
8
0
0
LINE
5
2e4
100
AcDbEntity
8
1
100
AcDbLine
6
CONTINUOUS
62
5
10
127.500000
20
42.000000
11
130.625000
21
42.000000
0
POLYLINE
5
2e5
100
AcDbEntity
8
1
6
CONTINUOUS
62
5
100
AcDb2dPolyline
66
1
10
0.0
20
0.0
30
0.0
70
0
0
VERTEX
5
2e6
100
AcDbEntity
8
1
100
AcDbVertex
100
AcDb2dVertex
62
5
10
113.125000
20
45.125000
0
VERTEX
5
2e7
100
AcDbEntity
8
1
100
AcDbVertex
100
AcDb2dVertex
62
5
10
114.062500
20
45.750000
0
VERTEX
5
2e8
100
AcDbEntity
8
1
100
AcDbVertex
100
AcDb2dVertex
62
5
10
114.062500
20
38.250000
0
SEQEND
5
2e9
100
AcDbEntity
8
1
0
LINE
5
2ea
100
AcDbEntity
8
1
100
AcDbLine
6
CONTINUOUS
62
5
10
113.437500
20
38.250000
11
114.687500
21
38.250000
0
LINE
5
2eb
100
AcDbEntity
8
1
100
AcDbLine
6
CONTINUOUS
62
5
10
117.500000
20
45.750000
11
120.312500
21
45.750000
0
POLYLINE
5
2ec
100
AcDbEntity
8
1
6
CONTINUOUS
62
5
100
AcDb2dPolyline
66
1
10
0.0
20
0.0
30
0.0
70
0
0
VERTEX
5
2ed
100
AcDbEntity
8
1
100
AcDbVertex
100
AcDb2dVertex
62
5
10
117.500000
20
45.750000
0
VERTEX
5
2ee
100
AcDbEntity
8
1
100
AcDbVertex
100
AcDb2dVertex
62
5
10
117.500000
20
42.000000
0
VERTEX
5
2ef
100
AcDbEntity
8
1
100
AcDbVertex
100
AcDb2dVertex
62
5
10
118.125000
20
42.625000
0
VERTEX
5
2f0
100
AcDbEntity
8
1
100
AcDbVertex
100
AcDb2dVertex
62
5
10
118.750000
20
42.937500
0
VERTEX
5
2f1
100
AcDbEntity
8
1
100
AcDbVertex
100
AcDb2dVertex
62
5
10
119.687500
20
42.937500
0
VERTEX
5
2f2
100
AcDbEntity
8
1
100
AcDbVertex
100
AcDb2dVertex
62
5
10
120.312500
20
42.625000
0
VERTEX
5
2f3
100
AcDbEntity
8
1
100
AcDbVertex
100
AcDb2dVertex
62
5
10
120.625000
20
41.687500
0
VERTEX
5
2f4
100
AcDbEntity
8
1
100
AcDbVertex
100
AcDb2dVertex
62
5
10
120.625000
20
39.812500
0
VERTEX
5
2f5
100
AcDbEntity
8
1
100
AcDbVertex
100
AcDb2dVertex
62
5
10
120.000000
20
38.875000
0
VERTEX
5
2f6
100
AcDbEntity
8
1
100
AcDbVertex
100
AcDb2dVertex
62
5
10
119.062500
20
38.250000
0
VERTEX
5
2f7
100
AcDbEntity
8
1
100
AcDbVertex
100
AcDb2dVertex
62
5
10
117.500000
20
38.250000
0
SEQEND
5
2f8
100
AcDbEntity
8
1
0
POLYLINE
5
2f9
100
AcDbEntity
8
1
6
CONTINUOUS
62
5
100
AcDb2dPolyline
66
1
10
0.0
20
0.0
30
0.0
70
0
0
VERTEX
5
2fa
100
AcDbEntity
8
1
100
AcDbVertex
100
AcDb2dVertex
62
5
10
122.500000
20
38.250000
0
VERTEX
5
2fb
100
AcDbEntity
8
1
100
AcDbVertex
100
AcDb2dVertex
62
5
10
124.062500
20
45.750000
0
VERTEX
5
2fc
100
AcDbEntity
8
1
100
AcDbVertex
100
AcDb2dVertex
62
5
10
125.625000
20
38.250000
0
SEQEND
5
2fd
100
AcDbEntity
8
1
0
LINE
5
2fe
100
AcDbEntity
8
1
100
AcDbLine
6
CONTINUOUS
62
5
10
123.125000
20
40.750000
11
125.000000
21
40.750000
0
POLYLINE
5
2ff
100
AcDbEntity
8
1
6
CONTINUOUS
62
5
100
AcDb2dPolyline
66
1
10
0.0
20
0.0
30
0.0
70
0
0
VERTEX
5
300
100
AcDbEntity
8
1
100
AcDbVertex
100
AcDb2dVertex
62
5
10
133.125000
20
45.125000
0
VERTEX
5
301
100
AcDbEntity
8
1
100
AcDbVertex
100
AcDb2dVertex
62
5
10
134.062500
20
45.750000
0
VERTEX
5
302
100
AcDbEntity
8
1
100
AcDbVertex
100
AcDb2dVertex
62
5
10
134.062500
20
38.250000
0
SEQEND
5
303
100
AcDbEntity
8
1
0
LINE
5
304
100
AcDbEntity
8
1
100
AcDbLine
6
CONTINUOUS
62
5
10
133.437500
20
38.250000
11
134.687500
21
38.250000
0
POLYLINE
5
305
100
AcDbEntity
8
1
6
CONTINUOUS
62
5
100
AcDb2dPolyline
66
1
10
0.0
20
0.0
30
0.0
70
0
0
VERTEX
5
306
100
AcDbEntity
8
1
100
AcDbVertex
100
AcDb2dVertex
62
5
10
137.500000
20
43.562500
0
VERTEX
5
307
100
AcDbEntity
8
1
100
AcDbVertex
100
AcDb2dVertex
62
5
10
137.812500
20
45.125000
0
VERTEX
5
308
100
AcDbEntity
8
1
100
AcDbVertex
100
AcDb2dVertex
62
5
10
138.750000
20
45.750000
0
VERTEX
5
309
100
AcDbEntity
8
1
100
AcDbVertex
100
AcDb2dVertex
62
5
10
139.687500
20
45.750000
0
VERTEX
5
30a
100
AcDbEntity
8
1
100
AcDbVertex
100
AcDb2dVertex
62
5
10
140.312500
20
45.437500
0
VERTEX
5
30b
100
AcDbEntity
8
1
100
AcDbVertex
100
AcDb2dVertex
62
5
10
140.625000
20
44.500000
0
VERTEX
5
30c
100
AcDbEntity
8
1
100
AcDbVertex
100
AcDb2dVertex
62
5
10
140.625000
20
43.562500
0
VERTEX
5
30d
100
AcDbEntity
8
1
100
AcDbVertex
100
AcDb2dVertex
62
5
10
140.312500
20
42.625000
0
VERTEX
5
30e
100
AcDbEntity
8
1
100
AcDbVertex
100
AcDb2dVertex
62
5
10
137.500000
20
38.250000
0
VERTEX
5
30f
100
AcDbEntity
8
1
100
AcDbVertex
100
AcDb2dVertex
62
5
10
140.625000
20
38.250000
0
VERTEX
5
310
100
AcDbEntity
8
1
100
AcDbVertex
100
AcDb2dVertex
62
5
10
140.625000
20
39.187500
0
SEQEND
5
311
100
AcDbEntity
8
1
0
LINE
5
312
100
AcDbEntity
8
1
100
AcDbLine
6
CONTINUOUS
62
5
10
142.500000
20
45.750000
11
145.312500
21
45.750000
0
POLYLINE
5
313
100
AcDbEntity
8
1
6
CONTINUOUS
62
5
100
AcDb2dPolyline
66
1
10
0.0
20
0.0
30
0.0
70
0
0
VERTEX
5
314
100
AcDbEntity
8
1
100
AcDbVertex
100
AcDb2dVertex
62
5
10
142.500000
20
45.750000
0
VERTEX
5
315
100
AcDbEntity
8
1
100
AcDbVertex
100
AcDb2dVertex
62
5
10
142.500000
20
42.000000
0
VERTEX
5
316
100
AcDbEntity
8
1
100
AcDbVertex
100
AcDb2dVertex
62
5
10
143.125000
20
42.625000
0
VERTEX
5
317
100
AcDbEntity
8
1
100
AcDbVertex
100
AcDb2dVertex
62
5
10
143.750000
20
42.937500
0
VERTEX
5
318
100
AcDbEntity
8
1
100
AcDbVertex
100
AcDb2dVertex
62
5
10
144.687500
20
42.937500
0
VERTEX
5
319
100
AcDbEntity
8
1
100
AcDbVertex
100
AcDb2dVertex
62
5
10
145.312500
20
42.625000
0
VERTEX
5
31a
100
AcDbEntity
8
1
100
AcDbVertex
100
AcDb2dVertex
62
5
10
145.625000
20
41.687500
0
VERTEX
5
31b
100
AcDbEntity
8
1
100
AcDbVertex
100
AcDb2dVertex
62
5
10
145.625000
20
39.812500
0
VERTEX
5
31c
100
AcDbEntity
8
1
100
AcDbVertex
100
AcDb2dVertex
62
5
10
145.000000
20
38.875000
0
VERTEX
5
31d
100
AcDbEntity
8
1
100
AcDbVertex
100
AcDb2dVertex
62
5
10
144.062500
20
38.250000
0
VERTEX
5
31e
100
AcDbEntity
8
1
100
AcDbVertex
100
AcDb2dVertex
62
5
10
142.500000
20
38.250000
0
SEQEND
5
31f
100
AcDbEntity
8
1
0
POLYLINE
5
320
100
AcDbEntity
8
1
6
CONTINUOUS
62
5
100
AcDb2dPolyline
66
1
10
0.0
20
0.0
30
0.0
70
0
0
VERTEX
5
321
100
AcDbEntity
8
1
100
AcDbVertex
100
AcDb2dVertex
62
5
10
147.500000
20
45.750000
0
VERTEX
5
322
100
AcDbEntity
8
1
100
AcDbVertex
100
AcDb2dVertex
62
5
10
149.062500
20
38.250000
0
VERTEX
5
323
100
AcDbEntity
8
1
100
AcDbVertex
100
AcDb2dVertex
62
5
10
150.625000
20
45.750000
0
SEQEND
5
324
100
AcDbEntity
8
1
0
POLYLINE
5
325
100
AcDbEntity
8
1
6
CONTINUOUS
62
5
100
AcDb2dPolyline
66
1
10
0.0
20
0.0
30
0.0
70
0
0
VERTEX
5
326
100
AcDbEntity
8
1
100
AcDbVertex
100
AcDb2dVertex
62
5
10
157.500000
20
38.250000
0
VERTEX
5
327
100
AcDbEntity
8
1
100
AcDbVertex
100
AcDb2dVertex
62
5
10
159.062500
20
45.750000
0
VERTEX
5
328
100
AcDbEntity
8
1
100
AcDbVertex
100
AcDb2dVertex
62
5
10
160.625000
20
38.250000
0
SEQEND
5
329
100
AcDbEntity
8
1
0
LINE
5
32a
100
AcDbEntity
8
1
100
AcDbLine
6
CONTINUOUS
62
5
10
158.125000
20
40.750000
11
160.000000
21
40.750000
0
POLYLINE
5
32b
100
AcDbEntity
8
1
6
CONTINUOUS
62
5
100
AcDb2dPolyline
66
1
10
0.0
20
0.0
30
0.0
70
0
0
VERTEX
5
32c
100
AcDbEntity
8
1
100
AcDbVertex
100
AcDb2dVertex
62
5
10
165.625000
20
44.187500
0
VERTEX
5
32d
100
AcDbEntity
8
1
100
AcDbVertex
100
AcDb2dVertex
62
5
10
165.312500
20
45.125000
0
VERTEX
5
32e
100
AcDbEntity
8
1
100
AcDbVertex
100
AcDb2dVertex
62
5
10
164.687500
20
45.750000
0
VERTEX
5
32f
100
AcDbEntity
8
1
100
AcDbVertex
100
AcDb2dVertex
62
5
10
163.750000
20
45.750000
0
VERTEX
5
330
100
AcDbEntity
8
1
100
AcDbVertex
100
AcDb2dVertex
62
5
10
162.812500
20
44.812500
0
VERTEX
5
331
100
AcDbEntity
8
1
100
AcDbVertex
100
AcDb2dVertex
62
5
10
162.500000
20
43.250000
0
VERTEX
5
332
100
AcDbEntity
8
1
100
AcDbVertex
100
AcDb2dVertex
62
5
10
162.500000
20
40.750000
0
VERTEX
5
333
100
AcDbEntity
8
1
100
AcDbVertex
100
AcDb2dVertex
62
5
10
162.812500
20
39.187500
0
VERTEX
5
334
100
AcDbEntity
8
1
100
AcDbVertex
100
AcDb2dVertex
62
5
10
163.750000
20
38.250000
0
VERTEX
5
335
100
AcDbEntity
8
1
100
AcDbVertex
100
AcDb2dVertex
62
5
10
164.687500
20
38.250000
0
VERTEX
5
336
100
AcDbEntity
8
1
100
AcDbVertex
100
AcDb2dVertex
62
5
10
165.312500
20
38.875000
0
VERTEX
5
337
100
AcDbEntity
8
1
100
AcDbVertex
100
AcDb2dVertex
62
5
10
165.937500
20
40.437500
0
SEQEND
5
338
100
AcDbEntity
8
1
0
LINE
5
339
100
AcDbEntity
8
1
100
AcDbLine
6
CONTINUOUS
62
5
10
100.000000
20
54.000000
11
100.000000
21
30.000000
0
LINE
5
33a
100
AcDbEntity
8
1
100
AcDbLine
6
CONTINUOUS
62
5
10
64.687500
20
46.375000
11
64.687500
21
45.437500
0
POLYLINE
5
33b
100
AcDbEntity
8
1
6
CONTINUOUS
62
5
100
AcDb2dPolyline
66
1
10
0.0
20
0.0
30
0.0
70
0
0
VERTEX
5
33c
100
AcDbEntity
8
1
100
AcDbVertex
100
AcDb2dVertex
62
5
10
60.937500
20
43.250000
0
VERTEX
5
33d
100
AcDbEntity
8
1
100
AcDbVertex
100
AcDb2dVertex
62
5
10
60.937500
20
45.437500
0
VERTEX
5
33e
100
AcDbEntity
8
1
100
AcDbVertex
100
AcDb2dVertex
62
5
10
68.437500
20
45.437500
0
VERTEX
5
33f
100
AcDbEntity
8
1
100
AcDbVertex
100
AcDb2dVertex
62
5
10
68.437500
20
43.250000
0
SEQEND
5
340
100
AcDbEntity
8
1
0
LINE
5
341
100
AcDbEntity
8
1
100
AcDbLine
6
CONTINUOUS
62
5
10
61.875000
20
43.562500
11
67.500000
21
43.562500
0
LINE
5
342
100
AcDbEntity
8
1
100
AcDbLine
6
CONTINUOUS
62
5
10
64.687500
20
43.562500
11
64.687500
21
38.250000
0
LINE
5
343
100
AcDbEntity
8
1
100
AcDbLine
6
CONTINUOUS
62
5
10
64.687500
20
41.062500
11
67.500000
21
41.062500
0
POLYLINE
5
344
100
AcDbEntity
8
1
6
CONTINUOUS
62
5
100
AcDb2dPolyline
66
1
10
0.0
20
0.0
30
0.0
70
0
0
VERTEX
5
345
100
AcDbEntity
8
1
100
AcDbVertex
100
AcDb2dVertex
62
5
10
62.500000
20
41.687500
0
VERTEX
5
346
100
AcDbEntity
8
1
100
AcDbVertex
100
AcDb2dVertex
62
5
10
62.187500
20
39.812500
0
VERTEX
5
347
100
AcDbEntity
8
1
100
AcDbVertex
100
AcDb2dVertex
62
5
10
61.562500
20
38.562500
0
VERTEX
5
348
100
AcDbEntity
8
1
100
AcDbVertex
100
AcDb2dVertex
62
5
10
60.625000
20
37.625000
0
SEQEND
5
349
100
AcDbEntity
8
1
0
POLYLINE
5
34a
100
AcDbEntity
8
1
6
CONTINUOUS
62
5
100
AcDb2dPolyline
66
1
10
0.0
20
0.0
30
0.0
70
0
0
VERTEX
5
34b
100
AcDbEntity
8
1
100
AcDbVertex
100
AcDb2dVertex
62
5
10
62.187500
20
39.812500
0
VERTEX
5
34c
100
AcDbEntity
8
1
100
AcDbVertex
100
AcDb2dVertex
62
5
10
64.687500
20
38.250000
0
VERTEX
5
34d
100
AcDbEntity
8
1
100
AcDbVertex
100
AcDb2dVertex
62
5
10
65.937500
20
37.937500
0
VERTEX
5
34e
100
AcDbEntity
8
1
100
AcDbVertex
100
AcDb2dVertex
62
5
10
69.062500
20
37.625000
0
SEQEND
5
34f
100
AcDbEntity
8
1
0
LINE
5
350
100
AcDbEntity
8
1
100
AcDbLine
6
CONTINUOUS
62
5
10
80.625000
20
44.187500
11
83.750000
21
44.187500
0
LINE
5
351
100
AcDbEntity
8
1
100
AcDbLine
6
CONTINUOUS
62
5
10
82.500000
20
46.375000
11
82.500000
21
37.625000
0
POLYLINE
5
352
100
AcDbEntity
8
1
6
CONTINUOUS
62
5
100
AcDb2dPolyline
66
1
10
0.0
20
0.0
30
0.0
70
0
0
VERTEX
5
353
100
AcDbEntity
8
1
100
AcDbVertex
100
AcDb2dVertex
62
5
10
82.500000
20
44.187500
0
VERTEX
5
354
100
AcDbEntity
8
1
100
AcDbVertex
100
AcDb2dVertex
62
5
10
81.562500
20
42.000000
0
VERTEX
5
355
100
AcDbEntity
8
1
100
AcDbVertex
100
AcDb2dVertex
62
5
10
80.625000
20
40.750000
0
SEQEND
5
356
100
AcDbEntity
8
1
0
LINE
5
357
100
AcDbEntity
8
1
100
AcDbLine
6
CONTINUOUS
62
5
10
82.500000
20
43.250000
11
83.437500
21
42.000000
0
POLYLINE
5
358
100
AcDbEntity
8
1
6
CONTINUOUS
62
5
100
AcDb2dPolyline
66
1
10
0.0
20
0.0
30
0.0
70
0
0
VERTEX
5
359
100
AcDbEntity
8
1
100
AcDbVertex
100
AcDb2dVertex
62
5
10
85.937500
20
46.375000
0
VERTEX
5
35a
100
AcDbEntity
8
1
100
AcDbVertex
100
AcDb2dVertex
62
5
10
85.312500
20
45.125000
0
VERTEX
5
35b
100
AcDbEntity
8
1
100
AcDbVertex
100
AcDb2dVertex
62
5
10
83.750000
20
43.250000
0
SEQEND
5
35c
100
AcDbEntity
8
1
0
POLYLINE
5
35d
100
AcDbEntity
8
1
6
CONTINUOUS
62
5
100
AcDb2dPolyline
66
1
10
0.0
20
0.0
30
0.0
70
0
0
VERTEX
5
35e
100
AcDbEntity
8
1
100
AcDbVertex
100
AcDb2dVertex
62
5
10
85.312500
20
45.125000
0
VERTEX
5
35f
100
AcDbEntity
8
1
100
AcDbVertex
100
AcDb2dVertex
62
5
10
88.437500
20
45.125000
0
VERTEX
5
360
100
AcDbEntity
8
1
100
AcDbVertex
100
AcDb2dVertex
62
5
10
87.500000
20
43.562500
0
VERTEX
5
361
100
AcDbEntity
8
1
100
AcDbVertex
100
AcDb2dVertex
62
5
10
85.937500
20
42.000000
0
VERTEX
5
362
100
AcDbEntity
8
1
100
AcDbVertex
100
AcDb2dVertex
62
5
10
83.750000
20
40.750000
0
SEQEND
5
363
100
AcDbEntity
8
1
0
POLYLINE
5
364
100
AcDbEntity
8
1
6
CONTINUOUS
62
5
100
AcDb2dPolyline
66
1
10
0.0
20
0.0
30
0.0
70
0
0
VERTEX
5
365
100
AcDbEntity
8
1
100
AcDbVertex
100
AcDb2dVertex
62
5
10
85.312500
20
45.125000
0
VERTEX
5
366
100
AcDbEntity
8
1
100
AcDbVertex
100
AcDb2dVertex
62
5
10
85.937500
20
43.562500
0
VERTEX
5
367
100
AcDbEntity
8
1
100
AcDbVertex
100
AcDb2dVertex
62
5
10
87.187500
20
42.000000
0
VERTEX
5
368
100
AcDbEntity
8
1
100
AcDbVertex
100
AcDb2dVertex
62
5
10
88.125000
20
41.375000
0
VERTEX
5
369
100
AcDbEntity
8
1
100
AcDbVertex
100
AcDb2dVertex
62
5
10
89.375000
20
40.750000
0
SEQEND
5
36a
100
AcDbEntity
8
1
0
POLYLINE
5
36b
100
AcDbEntity
8
1
6
CONTINUOUS
62
5
100
AcDb2dPolyline
66
1
10
0.0
20
0.0
30
0.0
70
1
0
VERTEX
5
36c
100
AcDbEntity
8
1
100
AcDbVertex
100
AcDb2dVertex
62
5
10
85.000000
20
40.750000
0
VERTEX
5
36d
100
AcDbEntity
8
1
100
AcDbVertex
100
AcDb2dVertex
62
5
10
85.000000
20
37.937500
0
VERTEX
5
36e
100
AcDbEntity
8
1
100
AcDbVertex
100
AcDb2dVertex
62
5
10
88.437500
20
37.937500
0
VERTEX
5
36f
100
AcDbEntity
8
1
100
AcDbVertex
100
AcDb2dVertex
62
5
10
88.437500
20
40.750000
0
VERTEX
5
370
100
AcDbEntity
8
1
100
AcDbVertex
100
AcDb2dVertex
62
5
10
85.000000
20
40.750000
0
SEQEND
5
371
100
AcDbEntity
8
1
0
POLYLINE
5
372
100
AcDbEntity
8
1
6
CONTINUOUS
62
5
100
AcDb2dPolyline
66
1
10
0.0
20
0.0
30
0.0
70
1
0
VERTEX
5
373
100
AcDbEntity
8
1
100
AcDbVertex
100
AcDb2dVertex
62
5
10
290.000000
20
30.000000
0
VERTEX
5
374
100
AcDbEntity
8
1
100
AcDbVertex
100
AcDb2dVertex
62
5
10
290.000000
20
54.000000
0
VERTEX
5
375
100
AcDbEntity
8
1
100
AcDbVertex
100
AcDb2dVertex
62
5
10
50.000000
20
54.000000
0
VERTEX
5
376
100
AcDbEntity
8
1
100
AcDbVertex
100
AcDb2dVertex
62
5
10
50.000000
20
30.000000
0
VERTEX
5
377
100
AcDbEntity
8
1
100
AcDbVertex
100
AcDb2dVertex
62
5
10
290.000000
20
30.000000
0
SEQEND
5
378
100
AcDbEntity
8
1
0
LINE
5
379
100
AcDbEntity
8
0
100
AcDbLine
6
CONTINUOUS
62
5
10
106.500000
20
204.500000
11
76.000000
21
204.500000
0
LINE
5
37a
100
AcDbEntity
8
0
100
AcDbLine
6
CONTINUOUS
62
5
10
106.500000
20
115.500000
11
76.000000
21
115.500000
0
POLYLINE
5
37b
100
AcDbEntity
8
0
6
CONTINUOUS
62
5
100
AcDb2dPolyline
66
1
10
0.0
20
0.0
30
0.0
70
0
0
VERTEX
5
37c
100
AcDbEntity
8
0
100
AcDbVertex
100
AcDb2dVertex
62
5
10
78.000000
20
160.000000
0
VERTEX
5
37d
100
AcDbEntity
8
0
100
AcDbVertex
100
AcDb2dVertex
62
5
10
78.000000
20
115.500000
0
VERTEX
5
37e
100
AcDbEntity
8
0
100
AcDbVertex
100
AcDb2dVertex
62
5
10
77.000000
20
121.500000
0
VERTEX
5
37f
100
AcDbEntity
8
0
100
AcDbVertex
100
AcDb2dVertex
62
5
10
79.000000
20
121.500000
0
VERTEX
5
380
100
AcDbEntity
8
0
100
AcDbVertex
100
AcDb2dVertex
62
5
10
78.000000
20
115.500000
0
VERTEX
5
381
100
AcDbEntity
8
0
100
AcDbVertex
100
AcDb2dVertex
62
5
10
77.500000
20
121.500000
0
VERTEX
5
382
100
AcDbEntity
8
0
100
AcDbVertex
100
AcDb2dVertex
62
5
10
78.500000
20
121.500000
0
VERTEX
5
383
100
AcDbEntity
8
0
100
AcDbVertex
100
AcDb2dVertex
62
5
10
78.000000
20
115.500000
0
SEQEND
5
384
100
AcDbEntity
8
0
0
POLYLINE
5
385
100
AcDbEntity
8
0
6
CONTINUOUS
62
5
100
AcDb2dPolyline
66
1
10
0.0
20
0.0
30
0.0
70
0
0
VERTEX
5
386
100
AcDbEntity
8
0
100
AcDbVertex
100
AcDb2dVertex
62
5
10
78.000000
20
160.000000
0
VERTEX
5
387
100
AcDbEntity
8
0
100
AcDbVertex
100
AcDb2dVertex
62
5
10
78.000000
20
204.500000
0
VERTEX
5
388
100
AcDbEntity
8
0
100
AcDbVertex
100
AcDb2dVertex
62
5
10
79.000000
20
198.500000
0
VERTEX
5
389
100
AcDbEntity
8
0
100
AcDbVertex
100
AcDb2dVertex
62
5
10
77.000000
20
198.500000
0
VERTEX
5
38a
100
AcDbEntity
8
0
100
AcDbVertex
100
AcDb2dVertex
62
5
10
78.000000
20
204.500000
0
VERTEX
5
38b
100
AcDbEntity
8
0
100
AcDbVertex
100
AcDb2dVertex
62
5
10
78.500000
20
198.500000
0
VERTEX
5
38c
100
AcDbEntity
8
0
100
AcDbVertex
100
AcDb2dVertex
62
5
10
77.500000
20
198.500000
0
VERTEX
5
38d
100
AcDbEntity
8
0
100
AcDbVertex
100
AcDb2dVertex
62
5
10
78.000000
20
204.500000
0
SEQEND
5
38e
100
AcDbEntity
8
0
0
ARC
5
38f
100
AcDbEntity
8
1
100
AcDbCircle
6
CONTINUOUS
62
5
10
226.500000
20
204.150000
40
0.500000
100
AcDbArc
50
89.999999
51
179.999998
0
LINE
5
390
100
AcDbEntity
8
1
100
AcDbLine
6
CONTINUOUS
62
5
10
226.000000
20
204.150000
11
226.000000
21
115.850000
0
ARC
5
391
100
AcDbEntity
8
1
100
AcDbCircle
6
CONTINUOUS
62
5
10
226.500000
20
115.850000
40
0.500000
100
AcDbArc
50
179.999998
51
-89.999999
0
POLYLINE
5
392
100
AcDbEntity
8
1
6
CONTINUOUS
62
5
100
AcDb2dPolyline
66
1
10
0.0
20
0.0
30
0.0
70
0
0
VERTEX
5
393
100
AcDbEntity
8
1
100
AcDbVertex
100
AcDb2dVertex
62
5
10
226.500000
20
115.350000
0
VERTEX
5
394
100
AcDbEntity
8
1
100
AcDbVertex
100
AcDb2dVertex
62
5
10
237.000000
20
115.350000
0
VERTEX
5
395
100
AcDbEntity
8
1
100
AcDbVertex
100
AcDb2dVertex
62
5
10
237.000000
20
204.650000
0
VERTEX
5
396
100
AcDbEntity
8
1
100
AcDbVertex
100
AcDb2dVertex
62
5
10
226.500000
20
204.650000
0
SEQEND
5
397
100
AcDbEntity
8
1
0
ARC
5
398
100
AcDbEntity
8
1
100
AcDbCircle
6
CONTINUOUS
62
5
10
206.300000
20
192.200000
40
0.300000
100
AcDbArc
50
89.999999
51
179.999998
0
LINE
5
399
100
AcDbEntity
8
1
100
AcDbLine
6
CONTINUOUS
62
5
10
206.300000
20
192.500000
11
207.489916
21
192.500000
0
LINE
5
39a
100
AcDbEntity
8
1
100
AcDbLine
6
CONTINUOUS
62
5
10
207.889683
20
121.500000
11
206.300000
21
121.500000
0
ARC
5
39b
100
AcDbEntity
8
1
100
AcDbCircle
6
CONTINUOUS
62
5
10
206.300000
20
121.800000
40
0.300000
100
AcDbArc
50
179.999998
51
-89.999999
0
LINE
5
39c
100
AcDbEntity
8
1
100
AcDbLine
6
CONTINUOUS
62
5
10
206.000000
20
121.800000
11
206.000000
21
192.200000
0
LINE
5
39d
100
AcDbEntity
8
1
100
AcDbLine
6
CONTINUOUS
62
5
10
133.350000
20
183.500000
11
133.350000
21
176.500000
0
LINE
5
39e
100
AcDbEntity
8
1
100
AcDbLine
6
CONTINUOUS
62
5
10
133.350000
20
185.952885
11
133.350000
21
174.229808
0
POLYLINE
5
39f
100
AcDbEntity
8
1
6
CONTINUOUS
62
5
100
AcDb2dPolyline
66
1
10
0.0
20
0.0
30
0.0
70
1
0
VERTEX
5
3a0
100
AcDbEntity
8
1
100
AcDbVertex
100
AcDb2dVertex
62
5
10
132.250000
20
183.500000
0
VERTEX
5
3a1
100
AcDbEntity
8
1
100
AcDbVertex
100
AcDb2dVertex
62
5
10
132.250000
20
176.500000
0
VERTEX
5
3a2
100
AcDbEntity
8
1
100
AcDbVertex
100
AcDb2dVertex
62
5
10
134.450000
20
176.500000
0
VERTEX
5
3a3
100
AcDbEntity
8
1
100
AcDbVertex
100
AcDb2dVertex
62
5
10
134.450000
20
183.500000
0
SEQEND
5
3a4
100
AcDbEntity
8
1
0
LINE
5
3a5
100
AcDbEntity
8
1
100
AcDbLine
6
CONTINUOUS
62
5
10
120.650000
20
176.250000
11
120.650000
21
183.750000
0
POLYLINE
5
3a6
100
AcDbEntity
8
1
6
CONTINUOUS
62
5
100
AcDb2dPolyline
66
1
10
0.0
20
0.0
30
0.0
70
1
0
VERTEX
5
3a7
100
AcDbEntity
8
1
100
AcDbVertex
100
AcDb2dVertex
62
5
10
119.550000
20
175.650000
0
VERTEX
5
3a8
100
AcDbEntity
8
1
100
AcDbVertex
100
AcDb2dVertex
62
5
10
119.550000
20
184.350000
0
VERTEX
5
3a9
100
AcDbEntity
8
1
100
AcDbVertex
100
AcDb2dVertex
62
5
10
121.750000
20
184.350000
0
VERTEX
5
3aa
100
AcDbEntity
8
1
100
AcDbVertex
100
AcDb2dVertex
62
5
10
121.750000
20
175.650000
0
SEQEND
5
3ab
100
AcDbEntity
8
1
0
ARC
5
3ac
100
AcDbEntity
8
1
100
AcDbCircle
6
CONTINUOUS
62
5
10
121.750000
20
175.650000
40
1.500000
100
AcDbArc
50
-89.999999
51
0.000000
0
LINE
5
3ad
100
AcDbEntity
8
1
100
AcDbLine
6
CONTINUOUS
62
5
10
121.750000
20
174.150000
11
119.550000
21
174.150000
0
ARC
5
3ae
100
AcDbEntity
8
1
100
AcDbCircle
6
CONTINUOUS
62
5
10
119.550000
20
175.650000
40
1.500000
100
AcDbArc
50
179.999998
51
-89.999999
0
LINE
5
3af
100
AcDbEntity
8
1
100
AcDbLine
6
CONTINUOUS
62
5
10
118.050000
20
175.650000
11
118.050000
21
184.350000
0
ARC
5
3b0
100
AcDbEntity
8
1
100
AcDbCircle
6
CONTINUOUS
62
5
10
119.550000
20
184.350000
40
1.500000
100
AcDbArc
50
89.999999
51
179.999998
0
LINE
5
3b1
100
AcDbEntity
8
1
100
AcDbLine
6
CONTINUOUS
62
5
10
119.550000
20
185.850000
11
121.750000
21
185.850000
0
ARC
5
3b2
100
AcDbEntity
8
1
100
AcDbCircle
6
CONTINUOUS
62
5
10
121.750000
20
184.350000
40
1.500000
100
AcDbArc
50
0.000000
51
89.999999
0
LINE
5
3b3
100
AcDbEntity
8
1
100
AcDbLine
6
CONTINUOUS
62
5
10
123.250000
20
184.350000
11
123.250000
21
175.650000
0
ARC
5
3b4
100
AcDbEntity
8
1
100
AcDbCircle
6
CONTINUOUS
62
5
10
132.250000
20
176.500000
40
1.500000
100
AcDbArc
50
179.999998
51
-89.999999
0
LINE
5
3b5
100
AcDbEntity
8
1
100
AcDbLine
6
CONTINUOUS
62
5
10
132.250000
20
175.000000
11
134.450000
21
175.000000
0
ARC
5
3b6
100
AcDbEntity
8
1
100
AcDbCircle
6
CONTINUOUS
62
5
10
134.450000
20
176.500000
40
1.500000
100
AcDbArc
50
-89.999999
51
0.000000
0
LINE
5
3b7
100
AcDbEntity
8
1
100
AcDbLine
6
CONTINUOUS
62
5
10
135.950000
20
176.500000
11
135.950000
21
183.500000
0
ARC
5
3b8
100
AcDbEntity
8
1
100
AcDbCircle
6
CONTINUOUS
62
5
10
134.450000
20
183.500000
40
1.500000
100
AcDbArc
50
0.000000
51
89.999999
0
LINE
5
3b9
100
AcDbEntity
8
1
100
AcDbLine
6
CONTINUOUS
62
5
10
134.450000
20
185.000000
11
132.250000
21
185.000000
0
ARC
5
3ba
100
AcDbEntity
8
1
100
AcDbCircle
6
CONTINUOUS
62
5
10
132.250000
20
183.500000
40
1.500000
100
AcDbArc
50
89.999999
51
179.999998
0
LINE
5
3bb
100
AcDbEntity
8
1
100
AcDbLine
6
CONTINUOUS
62
5
10
130.750000
20
183.500000
11
130.750000
21
176.500000
0
ARC
5
3bc
100
AcDbEntity
8
1
100
AcDbCircle
6
CONTINUOUS
62
5
10
112.000000
20
123.500000
40
2.000000
100
AcDbArc
50
179.999998
51
-89.999999
0
LINE
5
3bd
100
AcDbEntity
8
1
100
AcDbLine
6
CONTINUOUS
62
5
10
112.000000
20
121.500000
11
142.000000
21
121.500000
0
ARC
5
3be
100
AcDbEntity
8
1
100
AcDbCircle
6
CONTINUOUS
62
5
10
142.000000
20
123.500000
40
2.000000
100
AcDbArc
50
-89.999999
51
-0.000000
0
LINE
5
3bf
100
AcDbEntity
8
1
100
AcDbLine
6
CONTINUOUS
62
5
10
144.000000
20
123.500000
11
144.000000
21
190.500000
0
ARC
5
3c0
100
AcDbEntity
8
1
100
AcDbCircle
6
CONTINUOUS
62
5
10
142.000000
20
190.500000
40
2.000000
100
AcDbArc
50
-0.000000
51
89.999999
0
LINE
5
3c1
100
AcDbEntity
8
1
100
AcDbLine
6
CONTINUOUS
62
5
10
142.000000
20
192.500000
11
112.000000
21
192.500000
0
ARC
5
3c2
100
AcDbEntity
8
1
100
AcDbCircle
6
CONTINUOUS
62
5
10
112.000000
20
190.500000
40
2.000000
100
AcDbArc
50
89.999999
51
179.999998
0
LINE
5
3c3
100
AcDbEntity
8
1
100
AcDbLine
6
CONTINUOUS
62
5
10
110.000000
20
190.500000
11
110.000000
21
123.500000
0
ARC
5
3c4
100
AcDbEntity
8
1
100
AcDbCircle
6
CONTINUOUS
62
5
10
108.000000
20
120.500000
40
4.000000
100
AcDbArc
50
179.999998
51
-89.999999
0
LINE
5
3c5
100
AcDbEntity
8
1
100
AcDbLine
6
CONTINUOUS
62
5
10
108.000000
20
116.500000
11
146.000000
21
116.500000
0
ARC
5
3c6
100
AcDbEntity
8
1
100
AcDbCircle
6
CONTINUOUS
62
5
10
146.000000
20
120.500000
40
4.000000
100
AcDbArc
50
-89.999999
51
0.000000
0
LINE
5
3c7
100
AcDbEntity
8
1
100
AcDbLine
6
CONTINUOUS
62
5
10
150.000000
20
120.500000
11
150.000000
21
199.500000
0
ARC
5
3c8
100
AcDbEntity
8
1
100
AcDbCircle
6
CONTINUOUS
62
5
10
146.000000
20
199.500000
40
4.000000
100
AcDbArc
50
0.000000
51
89.999999
0
LINE
5
3c9
100
AcDbEntity
8
1
100
AcDbLine
6
CONTINUOUS
62
5
10
146.000000
20
203.500000
11
108.000000
21
203.500000
0
ARC
5
3ca
100
AcDbEntity
8
1
100
AcDbCircle
6
CONTINUOUS
62
5
10
108.000000
20
199.500000
40
4.000000
100
AcDbArc
50
89.999999
51
179.999998
0
LINE
5
3cb
100
AcDbEntity
8
1
100
AcDbLine
6
CONTINUOUS
62
5
10
104.000000
20
199.500000
11
104.000000
21
120.500000
0
ARC
5
3cc
100
AcDbEntity
8
1
100
AcDbCircle
6
CONTINUOUS
62
5
10
108.000000
20
120.500000
40
3.000000
100
AcDbArc
50
-179.999998
51
-89.999999
0
POLYLINE
5
3cd
100
AcDbEntity
8
1
6
CONTINUOUS
62
5
100
AcDb2dPolyline
66
1
10
0.0
20
0.0
30
0.0
70
0
0
VERTEX
5
3ce
100
AcDbEntity
8
1
100
AcDbVertex
100
AcDb2dVertex
62
5
10
108.000000
20
117.500000
0
VERTEX
5
3cf
100
AcDbEntity
8
1
100
AcDbVertex
100
AcDb2dVertex
62
5
10
108.000000
20
117.500000
0
VERTEX
5
3d0
100
AcDbEntity
8
1
100
AcDbVertex
100
AcDb2dVertex
62
5
10
146.000000
20
117.500000
0
SEQEND
5
3d1
100
AcDbEntity
8
1
0
ARC
5
3d2
100
AcDbEntity
8
1
100
AcDbCircle
6
CONTINUOUS
62
5
10
146.000000
20
120.500000
40
3.000000
100
AcDbArc
50
-89.999999
51
0.000000
0
POLYLINE
5
3d3
100
AcDbEntity
8
1
6
CONTINUOUS
62
5
100
AcDb2dPolyline
66
1
10
0.0
20
0.0
30
0.0
70
0
0
VERTEX
5
3d4
100
AcDbEntity
8
1
100
AcDbVertex
100
AcDb2dVertex
62
5
10
149.000000
20
120.500000
0
VERTEX
5
3d5
100
AcDbEntity
8
1
100
AcDbVertex
100
AcDb2dVertex
62
5
10
149.000000
20
120.500000
0
VERTEX
5
3d6
100
AcDbEntity
8
1
100
AcDbVertex
100
AcDb2dVertex
62
5
10
149.000000
20
199.500000
0
SEQEND
5
3d7
100
AcDbEntity
8
1
0
ARC
5
3d8
100
AcDbEntity
8
1
100
AcDbCircle
6
CONTINUOUS
62
5
10
146.000000
20
199.500000
40
3.000000
100
AcDbArc
50
-0.000000
51
89.999999
0
POLYLINE
5
3d9
100
AcDbEntity
8
1
6
CONTINUOUS
62
5
100
AcDb2dPolyline
66
1
10
0.0
20
0.0
30
0.0
70
0
0
VERTEX
5
3da
100
AcDbEntity
8
1
100
AcDbVertex
100
AcDb2dVertex
62
5
10
146.000000
20
202.500000
0
VERTEX
5
3db
100
AcDbEntity
8
1
100
AcDbVertex
100
AcDb2dVertex
62
5
10
146.000000
20
202.500000
0
VERTEX
5
3dc
100
AcDbEntity
8
1
100
AcDbVertex
100
AcDb2dVertex
62
5
10
108.000000
20
202.500000
0
SEQEND
5
3dd
100
AcDbEntity
8
1
0
ARC
5
3de
100
AcDbEntity
8
1
100
AcDbCircle
6
CONTINUOUS
62
5
10
108.000000
20
199.500000
40
3.000000
100
AcDbArc
50
89.999999
51
-179.999998
0
LINE
5
3df
100
AcDbEntity
8
1
100
AcDbLine
6
CONTINUOUS
62
5
10
105.000000
20
199.500000
11
105.000000
21
199.500000
0
LINE
5
3e0
100
AcDbEntity
8
1
100
AcDbLine
6
CONTINUOUS
62
5
10
105.000000
20
199.500000
11
105.000000
21
120.500000
0
ARC
5
3e1
100
AcDbEntity
8
1
100
AcDbCircle
6
CONTINUOUS
62
5
10
108.000000
20
199.500000
40
5.000000
100
AcDbArc
50
89.999999
51
179.999998
0
LINE
5
3e2
100
AcDbEntity
8
1
100
AcDbLine
6
CONTINUOUS
62
5
10
103.000000
20
199.500000
11
103.000000
21
120.500000
0
ARC
5
3e3
100
AcDbEntity
8
1
100
AcDbCircle
6
CONTINUOUS
62
5
10
108.000000
20
120.500000
40
5.000000
100
AcDbArc
50
179.999998
51
-89.999999
0
LINE
5
3e4
100
AcDbEntity
8
1
100
AcDbLine
6
CONTINUOUS
62
5
10
108.000000
20
115.500000
11
146.000000
21
115.500000
0
ARC
5
3e5
100
AcDbEntity
8
1
100
AcDbCircle
6
CONTINUOUS
62
5
10
146.000000
20
120.500000
40
5.000000
100
AcDbArc
50
-89.999999
51
0.000000
0
LINE
5
3e6
100
AcDbEntity
8
1
100
AcDbLine
6
CONTINUOUS
62
5
10
151.000000
20
120.500000
11
151.000000
21
199.500000
0
ARC
5
3e7
100
AcDbEntity
8
1
100
AcDbCircle
6
CONTINUOUS
62
5
10
146.000000
20
199.500000
40
5.000000
100
AcDbArc
50
0.000000
51
89.999999
0
LINE
5
3e8
100
AcDbEntity
8
1
100
AcDbLine
6
CONTINUOUS
62
5
10
146.000000
20
204.500000
11
108.000000
21
204.500000
0
ARC
5
3e9
100
AcDbEntity
8
1
100
AcDbCircle
6
CONTINUOUS
62
5
10
740.500000
20
160.000000
40
534.000000
100
AcDbArc
50
175.623043
51
-175.623043
0
ARC
5
3ea
100
AcDbEntity
8
1
100
AcDbCircle
6
CONTINUOUS
62
5
10
210.051563
20
119.398826
40
2.000000
100
AcDbArc
50
-175.623043
51
-93.214390
0
LINE
5
3eb
100
AcDbEntity
8
1
100
AcDbLine
6
CONTINUOUS
62
5
10
209.939418
20
117.401972
11
226.000000
21
116.500000
0
LINE
5
3ec
100
AcDbEntity
8
1
100
AcDbLine
6
CONTINUOUS
62
5
10
226.000000
20
203.500000
11
209.939418
21
202.598028
0
ARC
5
3ed
100
AcDbEntity
8
1
100
AcDbCircle
6
CONTINUOUS
62
5
10
210.051563
20
200.601174
40
2.000000
100
AcDbArc
50
93.214390
51
175.623043
0
POLYLINE
5
3ee
100
AcDbEntity
8
1
6
CONTINUOUS
62
5
100
AcDb2dPolyline
66
1
10
0.0
20
0.0
30
0.0
70
1
0
VERTEX
5
3ef
100
AcDbEntity
8
1
100
AcDbVertex
100
AcDb2dVertex
62
5
10
10.000000
20
10.000000
0
VERTEX
5
3f0
100
AcDbEntity
8
1
100
AcDbVertex
100
AcDb2dVertex
62
5
10
10.000000
20
350.000000
0
VERTEX
5
3f1
100
AcDbEntity
8
1
100
AcDbVertex
100
AcDb2dVertex
62
5
10
330.000000
20
350.000000
0
VERTEX
5
3f2
100
AcDbEntity
8
1
100
AcDbVertex
100
AcDb2dVertex
62
5
10
330.000000
20
10.000000
0
VERTEX
5
3f3
100
AcDbEntity
8
1
100
AcDbVertex
100
AcDb2dVertex
62
5
10
10.000000
20
10.000000
0
SEQEND
5
3f4
100
AcDbEntity
8
1
0
POLYLINE
5
3f5
100
AcDbEntity
8
1
6
CONTINUOUS
62
5
100
AcDb2dPolyline
66
1
10
0.0
20
0.0
30
0.0
70
1
0
VERTEX
5
3f6
100
AcDbEntity
8
1
100
AcDbVertex
100
AcDb2dVertex
62
5
10
10.000000
20
10.000000
0
VERTEX
5
3f7
100
AcDbEntity
8
1
100
AcDbVertex
100
AcDb2dVertex
62
5
10
10.000000
20
350.000000
0
VERTEX
5
3f8
100
AcDbEntity
8
1
100
AcDbVertex
100
AcDb2dVertex
62
5
10
330.000000
20
350.000000
0
VERTEX
5
3f9
100
AcDbEntity
8
1
100
AcDbVertex
100
AcDb2dVertex
62
5
10
330.000000
20
10.000000
0
VERTEX
5
3fa
100
AcDbEntity
8
1
100
AcDbVertex
100
AcDb2dVertex
62
5
10
10.000000
20
10.000000
0
SEQEND
5
3fb
100
AcDbEntity
8
1
0
POLYLINE
5
3fc
100
AcDbEntity
8
1
6
DOT2
62
5
100
AcDb2dPolyline
66
1
10
0.0
20
0.0
30
0.0
70
0
0
VERTEX
5
3fd
100
AcDbEntity
8
1
100
AcDbVertex
100
AcDb2dVertex
62
5
10
340.000000
20
10.000000
0
VERTEX
5
3fe
100
AcDbEntity
8
1
100
AcDbVertex
100
AcDb2dVertex
62
5
10
340.000000
20
0.000000
0
VERTEX
5
3ff
100
AcDbEntity
8
1
100
AcDbVertex
100
AcDb2dVertex
62
5
10
330.000000
20
0.000000
0
SEQEND
5
400
100
AcDbEntity
8
1
0
POLYLINE
5
401
100
AcDbEntity
8
1
6
DOT2
62
5
100
AcDb2dPolyline
66
1
10
0.0
20
0.0
30
0.0
70
0
0
VERTEX
5
402
100
AcDbEntity
8
1
100
AcDbVertex
100
AcDb2dVertex
62
5
10
10.000000
20
0.000000
0
VERTEX
5
403
100
AcDbEntity
8
1
100
AcDbVertex
100
AcDb2dVertex
62
5
10
0.000000
20
0.000000
0
VERTEX
5
404
100
AcDbEntity
8
1
100
AcDbVertex
100
AcDb2dVertex
62
5
10
0.000000
20
10.000000
0
SEQEND
5
405
100
AcDbEntity
8
1
0
POLYLINE
5
406
100
AcDbEntity
8
1
6
DOT2
62
5
100
AcDb2dPolyline
66
1
10
0.0
20
0.0
30
0.0
70
0
0
VERTEX
5
407
100
AcDbEntity
8
1
100
AcDbVertex
100
AcDb2dVertex
62
5
10
0.000000
20
350.000000
0
VERTEX
5
408
100
AcDbEntity
8
1
100
AcDbVertex
100
AcDb2dVertex
62
5
10
0.000000
20
360.000000
0
VERTEX
5
409
100
AcDbEntity
8
1
100
AcDbVertex
100
AcDb2dVertex
62
5
10
10.000000
20
360.000000
0
SEQEND
5
40a
100
AcDbEntity
8
1
0
POLYLINE
5
40b
100
AcDbEntity
8
1
6
DOT2
62
5
100
AcDb2dPolyline
66
1
10
0.0
20
0.0
30
0.0
70
0
0
VERTEX
5
40c
100
AcDbEntity
8
1
100
AcDbVertex
100
AcDb2dVertex
62
5
10
330.000000
20
360.000000
0
VERTEX
5
40d
100
AcDbEntity
8
1
100
AcDbVertex
100
AcDb2dVertex
62
5
10
340.000000
20
360.000000
0
VERTEX
5
40e
100
AcDbEntity
8
1
100
AcDbVertex
100
AcDb2dVertex
62
5
10
340.000000
20
350.000000
0
SEQEND
5
40f
100
AcDbEntity
8
1
0
ENDSEC
0
SECTION
2
OBJECTS
0
DICTIONARY
5
410
100
AcDbDictionary
3
ACAD_GROUP
350
411
3
ACAD_MLINESTYLE
350
412
0
DICTIONARY
5
411
102
{ACAD_REACTORS
330
410
102
}
100
AcDbDictionary
0
DICTIONARY
5
412
102
{ACAD_REACTORS
330
410
102
}
100
AcDbDictionary
3
STANDARD
350
413
0
MLINESTYLE
5
413
102
{ACAD_REACTORS
330
412
102
}
100
AcDbMlineStyle
2
STANDARD
70
0
3

62
0
51
90.0
52
90.0
71
2
49
0.5
62
256
6
BYLAYER
49
-0.5
62
256
6
BYLAYER
0
ENDSEC
0
EOF
