0
SECTION
2
HEADER
9
$ACADVER
1
AC1012
9
$EXTMIN
10
-0.010000
20
-0.010000
30
0.0
9
$EXTMAX
10
13.390000
20
14.180000
30
0.0
9
$LIMMIN
10
-0.254000
20
-0.254000
9
$LIMMAX
10
340.106000
20
360.172000
9
$DIMSCALE
40
1.000000
9
$PDMODE
70
2
9
$PDSIZE
40
0.0
  9
$HANDSEED
  5
52c
0
ENDSEC
0
SECTION
2
CLASSES
0
ENDSEC
0
SECTION
2
TABLES
0
TABLE
2
LTYPE
5
1e
100
AcDbSymbolTable
70
12
0
LTYPE
5
1f
100
AcDbSymbolTableRecord
100
AcDbLinetypeTableRecord
2
BYBLOCK
70
0
3

72
65
73
0
40
0.0
0
LTYPE
5
20
100
AcDbSymbolTableRecord
100
AcDbLinetypeTableRecord
2
BYLAYER
70
0
3

72
65
73
0
40
0.0
0
LTYPE
5
21
100
AcDbSymbolTableRecord
100
AcDbLinetypeTableRecord
2
CONTINUOUS
70
64
3
Solid line
72
65
73
0
40
0.0
0
LTYPE
5
22
100
AcDbSymbolTableRecord
100
AcDbLinetypeTableRecord
2
DASHED
70
64
3
__ __ __ __ __ __ __ __ __ __ __ __ __ __ __
72
65
73
2
40
0.75
49
0.5
74
0
49
-0.25
74
0
0
LTYPE
5
23
100
AcDbSymbolTableRecord
100
AcDbLinetypeTableRecord
2
DOT
70
64
3
...............................................
72
65
73
2
40
0.25
49
0.0
74
0
49
-0.25
74
0
0
LTYPE
5
24
100
AcDbSymbolTableRecord
100
AcDbLinetypeTableRecord
2
DASHDOT
70
64
3
__ . __ . __ . __ . __ . __ . __ . __ . __ . --
72
65
73
4
40
1.0
49
0.5
74
0
49
-0.25
74
0
49
0.0
74
0
49
-0.25
74
0
0
LTYPE
5
25
100
AcDbSymbolTableRecord
100
AcDbLinetypeTableRecord
2
CENTER
70
64
3
____ _ ____ _ ____ _ ____ _ ____ _ ____ _ ____
72
65
73
4
40
2.0
49
1.25
74
0
49
-0.25
74
0
49
0.25
74
0
49
-0.25
74
0
0
LTYPE
5
26
100
AcDbSymbolTableRecord
100
AcDbLinetypeTableRecord
2
PHANTOM
70
64
3
_____ _ _ _____ _ _ _____ _ _ _____ _ _ ____
72
65
73
6
40
2.5
49
1.25
74
0
49
-0.25
74
0
49
0.25
74
0
49
-0.25
74
0
49
0.25
74
0
49
-0.25
74
0
0
LTYPE
5
27
100
AcDbSymbolTableRecord
100
AcDbLinetypeTableRecord
2
HIDDEN
70
64
3
_ _ _ _ _ _ _ _ _ _ _ _ _ _ _ _ _ _ _ _ _ _ _
72
65
73
2
40
0.375
49
0.25
74
0
49
-0.125
74
0
0
LTYPE
5
28
100
AcDbSymbolTableRecord
100
AcDbLinetypeTableRecord
2
BORDER
70
64
3
__ __ . __ __ . __ __ . __ __ . __ __ . __ __
72
65
73
6
40
1.75
49
0.5
74
0
49
-0.25
74
0
49
0.5
74
0
49
-0.25
74
0
49
0.0
74
0
49
-0.25
74
0
0
LTYPE
5
29
100
AcDbSymbolTableRecord
100
AcDbLinetypeTableRecord
2
DIVIDE
70
64
3
__ . . __ . . __ . . __ . . __ . . __ . . __
72
65
73
6
40
1.25
49
0.5
74
0
49
-0.25
74
0
49
0.0
74
0
49
-0.25
74
0
49
0.0
74
0
49
-0.25
74
0
0
LTYPE
5
2a
100
AcDbSymbolTableRecord
100
AcDbLinetypeTableRecord
2
DOT2
70
64
3
...............................................
72
65
73
2
40
0.125
49
0.0
74
0
49
-0.125
74
0
0
ENDTAB
0
TABLE
2
STYLE
5
2b
100
AcDbSymbolTable
70
1
0
STYLE
5
2c
100
AcDbSymbolTableRecord
100
AcDbTextStyleTableRecord
2
STANDARD
70
64
40
0.0
41
1.0
50
0.0
71
0
42
5.0
3
txt
4
bigfont
0
ENDTAB
0
TABLE
2
LAYER
5
2d
100
AcDbSymbolTable
70
3
0
LAYER
5
2e
100
AcDbSymbolTableRecord
100
AcDbLayerTableRecord
2
0
70
0
62
7
6
CONTINUOUS
0
LAYER
5
2f
100
AcDbSymbolTableRecord
100
AcDbLayerTableRecord
2
1
70
0
62
7
6
CONTINUOUS
0
LAYER
5
30
100
AcDbSymbolTableRecord
100
AcDbLayerTableRecord
2
0
70
0
62
7
6
CONTINUOUS
0
ENDTAB
0
TABLE
2
APPID
5
31
100
AcDbSymbolTable
70
1
0
APPID
5
32
100
AcDbSymbolTableRecord
100
AcDbRegAppTableRecord
2
ACAD
70
64
0
ENDTAB
0
TABLE
2
DIMSTYLE
5
33
100
AcDbSymbolTable
70
0
0
ENDTAB
0
TABLE
2
UCS
5
34
100
AcDbSymbolTable
70
0
0
ENDTAB
0
TABLE
2
VIEW
5
35
100
AcDbSymbolTable
70
0
0
ENDTAB
0
TABLE
2
VPORT
5
36
100
AcDbSymbolTable
70
0
0
ENDTAB
0
TABLE
2
BLOCK_RECORD
5
37
100
AcDbSymbolTable
70
0
0
BLOCK_RECORD
5
38
100
AcDbSymbolTableRecord
100
AcDbBlockTableRecord
2
*MODEL_SPACE
0
BLOCK_RECORD
5
39
100
AcDbSymbolTableRecord
100
AcDbBlockTableRecord
2
*PAPER_SPACE
0
BLOCK_RECORD
5
3a
100
AcDbSymbolTableRecord
100
AcDbBlockTableRecord
2
OPEN
0
BLOCK_RECORD
5
3b
100
AcDbSymbolTableRecord
100
AcDbBlockTableRecord
2
HALF
0
BLOCK_RECORD
5
3c
100
AcDbSymbolTableRecord
100
AcDbBlockTableRecord
2
CLOSEDBLANK
0
BLOCK_RECORD
5
3d
100
AcDbSymbolTableRecord
100
AcDbBlockTableRecord
2
HALFCLOSE_R
0
BLOCK_RECORD
5
3e
100
AcDbSymbolTableRecord
100
AcDbBlockTableRecord
2
DOT
0
BLOCK_RECORD
5
3f
100
AcDbSymbolTableRecord
100
AcDbBlockTableRecord
2
HALFOPEN_R
0
BLOCK_RECORD
5
40
100
AcDbSymbolTableRecord
100
AcDbBlockTableRecord
2
CLOSEDF
0
BLOCK_RECORD
5
41
100
AcDbSymbolTableRecord
100
AcDbBlockTableRecord
2
HALF_R
0
ENDTAB
0
ENDSEC
0
SECTION
2
BLOCKS
0
BLOCK
5
42
100
AcDbEntity
8
0
100
AcDbBlockBegin
2
*MODEL_SPACE
70
0
10
0.0
20
0.0
30
0.0
3
*MODEL_SPACE
1

0
ENDBLK
5
43
100
AcDbEntity
8
0
100
AcDbBlockEnd
0
BLOCK
5
44
100
AcDbEntity
67
1
8
0
100
AcDbBlockBegin
2
*PAPER_SPACE
70
0
10
0.0
20
0.0
30
0.0
3
*PAPER_SPACE
1

0
ENDBLK
5
45
100
AcDbEntity
67
1
8
0
100
AcDbBlockEnd
0
BLOCK
5
46
100
AcDbEntity
8
0
100
AcDbBlockBegin
2
OPEN
70
0
10
0.0
20
0.0
30
0.0
3
OPEN
1

0
LINE
5
47
100
AcDbEntity
8
0
6
BYBLOCK
62
0
100
AcDbLine
10
0.000000
20
0.000000
11
-1.000000
21
0.000000
0
LINE
5
48
100
AcDbEntity
8
0
6
BYBLOCK
62
0
100
AcDbLine
10
-1.000000
20
-0.166667
11
0.000000
21
0.000000
0
LINE
5
49
100
AcDbEntity
8
0
6
BYBLOCK
62
0
100
AcDbLine
10
-1.000000
20
0.166667
11
0.000000
21
0.000000
0
ENDBLK
5
4a
100
AcDbEntity
8
0
100
AcDbBlockEnd
0
BLOCK
5
4b
100
AcDbEntity
8
0
100
AcDbBlockBegin
2
HALF
70
0
10
0.0
20
0.0
30
0.0
3
HALF
1

0
SOLID
5
4c
100
AcDbEntity
8
0
6
BYBLOCK
62
0
100
AcDbTrace
10
-1.000000
20
0.166667
11
-1.000000
21
-0.166667
12
0.000000
22
0.000000
13
0.000000
23
0.000000
0
ENDBLK
5
4d
100
AcDbEntity
8
0
100
AcDbBlockEnd
0
BLOCK
5
4e
100
AcDbEntity
8
0
100
AcDbBlockBegin
2
CLOSEDBLANK
70
0
10
0.0
20
0.0
30
0.0
3
CLOSEDBLANK
1

0
LINE
5
4f
100
AcDbEntity
8
0
6
BYBLOCK
62
0
100
AcDbLine
10
-1.000000
20
0.166667
11
-1.000000
21
-0.166667
0
LINE
5
50
100
AcDbEntity
8
0
6
BYBLOCK
62
0
100
AcDbLine
10
0.000000
20
0.000000
11
-1.000000
21
-0.166667
0
LINE
5
51
100
AcDbEntity
8
0
6
BYBLOCK
62
0
100
AcDbLine
10
-1.000000
20
0.166667
11
0.000000
21
0.000000
0
ENDBLK
5
52
100
AcDbEntity
8
0
100
AcDbBlockEnd
0
BLOCK
5
53
100
AcDbEntity
8
0
100
AcDbBlockBegin
2
HALFCLOSE_R
70
0
10
0.0
20
0.0
30
0.0
3
HALFCLOSE_R
1

0
LINE
5
54
100
AcDbEntity
8
0
6
BYBLOCK
62
0
100
AcDbLine
10
-1.000000
20
-0.166667
11
-1.000000
21
0.000000
0
LINE
5
55
100
AcDbEntity
8
0
6
BYBLOCK
62
0
100
AcDbLine
10
-1.000000
20
-0.166667
11
0.000000
21
0.000000
0
LINE
5
56
100
AcDbEntity
8
0
6
BYBLOCK
62
0
100
AcDbLine
10
0.000000
20
0.000000
11
-1.000000
21
0.000000
0
ENDBLK
5
57
100
AcDbEntity
8
0
100
AcDbBlockEnd
0
BLOCK
5
58
100
AcDbEntity
8
0
100
AcDbBlockBegin
2
DOT
70
0
10
0.0
20
0.0
30
0.0
3
DOT
1

0
LINE
5
59
100
AcDbEntity
8
0
6
BYBLOCK
62
0
100
AcDbLine
10
0.000000
20
0.000000
11
-1.000000
21
0.000000
0
POLYLINE
5
5a
100
AcDbEntity
8
0
6
BYBLOCK
62
0
100
AcDb2dPolyline
66
1
10
0.0
20
0.0
30
0.0
70
1
40
0.166667
41
0.166667
0
VERTEX
5
5b
100
AcDbEntity
8
0
100
AcDbVertex
100
AcDb2dVertex
62
10
10
-0.083333
20
0.000000
42
1.000000
0
VERTEX
5
5c
100
AcDbEntity
8
0
100
AcDbVertex
100
AcDb2dVertex
62
10
10
0.083333
20
0.000000
42
1.000000
0
SEQEND
5
5d
100
AcDbEntity
8
0
0
ENDBLK
5
5e
100
AcDbEntity
8
0
100
AcDbBlockEnd
0
BLOCK
5
5f
100
AcDbEntity
8
0
100
AcDbBlockBegin
2
HALFOPEN_R
70
0
10
0.0
20
0.0
30
0.0
3
HALFOPEN_R
1

0
LINE
5
60
100
AcDbEntity
8
0
6
BYBLOCK
62
0
100
AcDbLine
10
-1.000000
20
-0.166667
11
0.000000
21
0.000000
0
LINE
5
61
100
AcDbEntity
8
0
6
BYBLOCK
62
0
100
AcDbLine
10
0.000000
20
0.000000
11
-1.000000
21
0.000000
0
ENDBLK
5
62
100
AcDbEntity
8
0
100
AcDbBlockEnd
0
BLOCK
5
63
100
AcDbEntity
8
0
100
AcDbBlockBegin
2
CLOSEDF
70
0
10
0.0
20
0.0
30
0.0
3
CLOSEDF
1

0
SOLID
5
64
100
AcDbEntity
8
0
6
BYBLOCK
62
0
100
AcDbTrace
10
-1.000000
20
0.166667
11
-1.000000
21
-0.166667
12
0.000000
22
0.000000
13
0.000000
23
0.000000
0
ENDBLK
5
65
100
AcDbEntity
8
0
100
AcDbBlockEnd
0
BLOCK
5
66
100
AcDbEntity
8
0
100
AcDbBlockBegin
2
HALF_R
70
0
10
0.0
20
0.0
30
0.0
3
HALF_R
1

0
SOLID
5
67
100
AcDbEntity
8
0
6
BYBLOCK
62
0
100
AcDbTrace
10
-1.000000
20
-0.166667
11
-1.000000
21
0.000000
12
0.000000
22
0.000000
13
0.000000
23
0.000000
0
ENDBLK
5
68
100
AcDbEntity
8
0
100
AcDbBlockEnd
0
ENDSEC
0
SECTION
2
ENTITIES
0
POLYLINE
5
69
100
AcDbEntity
8
1
6
CONTINUOUS
62
5
100
AcDb2dPolyline
66
1
10
0.0
20
0.0
30
0.0
70
0
0
VERTEX
5
6a
100
AcDbEntity
8
1
100
AcDbVertex
100
AcDb2dVertex
62
5
10
172.000000
20
334.312500
0
VERTEX
5
6b
100
AcDbEntity
8
1
100
AcDbVertex
100
AcDb2dVertex
62
5
10
177.250000
20
334.937500
0
VERTEX
5
6c
100
AcDbEntity
8
1
100
AcDbVertex
100
AcDb2dVertex
62
5
10
177.250000
20
334.625000
0
VERTEX
5
6d
100
AcDbEntity
8
1
100
AcDbVertex
100
AcDb2dVertex
62
5
10
176.000000
20
333.062500
0
SEQEND
5
6e
100
AcDbEntity
8
1
0
POLYLINE
5
6f
100
AcDbEntity
8
1
6
CONTINUOUS
62
5
100
AcDb2dPolyline
66
1
10
0.0
20
0.0
30
0.0
70
0
0
VERTEX
5
70
100
AcDbEntity
8
1
100
AcDbVertex
100
AcDb2dVertex
62
5
10
174.000000
20
337.125000
0
VERTEX
5
71
100
AcDbEntity
8
1
100
AcDbVertex
100
AcDb2dVertex
62
5
10
174.000000
20
331.187500
0
VERTEX
5
72
100
AcDbEntity
8
1
100
AcDbVertex
100
AcDb2dVertex
62
5
10
174.500000
20
330.562500
0
VERTEX
5
73
100
AcDbEntity
8
1
100
AcDbVertex
100
AcDb2dVertex
62
5
10
177.250000
20
330.562500
0
SEQEND
5
74
100
AcDbEntity
8
1
0
LINE
5
75
100
AcDbEntity
8
1
100
AcDbLine
6
CONTINUOUS
62
5
10
180.750000
20
336.187500
11
181.750000
21
334.937500
0
POLYLINE
5
76
100
AcDbEntity
8
1
6
CONTINUOUS
62
5
100
AcDb2dPolyline
66
1
10
0.0
20
0.0
30
0.0
70
0
0
VERTEX
5
77
100
AcDbEntity
8
1
100
AcDbVertex
100
AcDb2dVertex
62
5
10
180.500000
20
331.187500
0
VERTEX
5
78
100
AcDbEntity
8
1
100
AcDbVertex
100
AcDb2dVertex
62
5
10
182.250000
20
332.125000
0
VERTEX
5
79
100
AcDbEntity
8
1
100
AcDbVertex
100
AcDb2dVertex
62
5
10
183.750000
20
333.375000
0
VERTEX
5
7a
100
AcDbEntity
8
1
100
AcDbVertex
100
AcDb2dVertex
62
5
10
185.250000
20
334.937500
0
SEQEND
5
7b
100
AcDbEntity
8
1
0
POLYLINE
5
7c
100
AcDbEntity
8
1
6
CONTINUOUS
62
5
100
AcDb2dPolyline
66
1
10
0.0
20
0.0
30
0.0
70
0
0
VERTEX
5
7d
100
AcDbEntity
8
1
100
AcDbVertex
100
AcDb2dVertex
62
5
10
190.250000
20
334.937500
0
VERTEX
5
7e
100
AcDbEntity
8
1
100
AcDbVertex
100
AcDb2dVertex
62
5
10
190.500000
20
334.937500
0
VERTEX
5
7f
100
AcDbEntity
8
1
100
AcDbVertex
100
AcDb2dVertex
62
5
10
192.250000
20
333.687500
0
SEQEND
5
80
100
AcDbEntity
8
1
0
LINE
5
81
100
AcDbEntity
8
1
100
AcDbLine
6
CONTINUOUS
62
5
10
190.250000
20
337.750000
11
190.250000
21
330.250000
0
POLYLINE
5
82
100
AcDbEntity
8
0
6
DOT2
62
5
100
AcDb2dPolyline
66
1
10
0.0
20
0.0
30
0.0
70
0
0
VERTEX
5
83
100
AcDbEntity
8
0
100
AcDbVertex
100
AcDb2dVertex
62
5
10
241.250000
20
238.750000
0
VERTEX
5
84
100
AcDbEntity
8
0
100
AcDbVertex
100
AcDb2dVertex
62
5
10
238.437500
20
233.125000
0
VERTEX
5
85
100
AcDbEntity
8
0
100
AcDbVertex
100
AcDb2dVertex
62
5
10
242.187500
20
233.125000
0
SEQEND
5
86
100
AcDbEntity
8
0
0
LINE
5
87
100
AcDbEntity
8
0
100
AcDbLine
6
DOT2
62
5
10
241.250000
20
238.750000
11
241.250000
21
231.250000
0
LINE
5
88
100
AcDbEntity
8
0
100
AcDbLine
6
DOT2
62
5
10
240.625000
20
231.250000
11
241.875000
21
231.250000
0
LINE
5
89
100
AcDbEntity
8
0
100
AcDbLine
6
DOT2
62
5
10
243.750000
20
238.750000
11
246.562500
21
238.750000
0
POLYLINE
5
8a
100
AcDbEntity
8
0
6
DOT2
62
5
100
AcDb2dPolyline
66
1
10
0.0
20
0.0
30
0.0
70
0
0
VERTEX
5
8b
100
AcDbEntity
8
0
100
AcDbVertex
100
AcDb2dVertex
62
5
10
243.750000
20
238.750000
0
VERTEX
5
8c
100
AcDbEntity
8
0
100
AcDbVertex
100
AcDb2dVertex
62
5
10
243.750000
20
235.000000
0
VERTEX
5
8d
100
AcDbEntity
8
0
100
AcDbVertex
100
AcDb2dVertex
62
5
10
244.375000
20
235.625000
0
VERTEX
5
8e
100
AcDbEntity
8
0
100
AcDbVertex
100
AcDb2dVertex
62
5
10
245.000000
20
235.937500
0
VERTEX
5
8f
100
AcDbEntity
8
0
100
AcDbVertex
100
AcDb2dVertex
62
5
10
245.937500
20
235.937500
0
VERTEX
5
90
100
AcDbEntity
8
0
100
AcDbVertex
100
AcDb2dVertex
62
5
10
246.562500
20
235.625000
0
VERTEX
5
91
100
AcDbEntity
8
0
100
AcDbVertex
100
AcDb2dVertex
62
5
10
246.875000
20
234.687500
0
VERTEX
5
92
100
AcDbEntity
8
0
100
AcDbVertex
100
AcDb2dVertex
62
5
10
246.875000
20
232.812500
0
VERTEX
5
93
100
AcDbEntity
8
0
100
AcDbVertex
100
AcDb2dVertex
62
5
10
246.250000
20
231.875000
0
VERTEX
5
94
100
AcDbEntity
8
0
100
AcDbVertex
100
AcDb2dVertex
62
5
10
245.312500
20
231.250000
0
VERTEX
5
95
100
AcDbEntity
8
0
100
AcDbVertex
100
AcDb2dVertex
62
5
10
243.750000
20
231.250000
0
SEQEND
5
96
100
AcDbEntity
8
0
0
LINE
5
97
100
AcDbEntity
8
0
100
AcDbLine
6
CONTINUOUS
62
5
10
220.000000
20
199.969452
11
220.000000
21
232.000000
0
LINE
5
98
100
AcDbEntity
8
0
100
AcDbLine
6
CONTINUOUS
62
5
10
265.000000
20
206.500008
11
265.000000
21
232.000000
0
POLYLINE
5
99
100
AcDbEntity
8
0
6
CONTINUOUS
62
5
100
AcDb2dPolyline
66
1
10
0.0
20
0.0
30
0.0
70
0
0
VERTEX
5
9a
100
AcDbEntity
8
0
100
AcDbVertex
100
AcDb2dVertex
62
5
10
242.500000
20
230.000000
0
VERTEX
5
9b
100
AcDbEntity
8
0
100
AcDbVertex
100
AcDb2dVertex
62
5
10
220.000000
20
230.000000
0
VERTEX
5
9c
100
AcDbEntity
8
0
100
AcDbVertex
100
AcDb2dVertex
62
5
10
226.000000
20
231.000000
0
VERTEX
5
9d
100
AcDbEntity
8
0
100
AcDbVertex
100
AcDb2dVertex
62
5
10
226.000000
20
229.000000
0
VERTEX
5
9e
100
AcDbEntity
8
0
100
AcDbVertex
100
AcDb2dVertex
62
5
10
220.000000
20
230.000000
0
VERTEX
5
9f
100
AcDbEntity
8
0
100
AcDbVertex
100
AcDb2dVertex
62
5
10
226.000000
20
230.500000
0
VERTEX
5
a0
100
AcDbEntity
8
0
100
AcDbVertex
100
AcDb2dVertex
62
5
10
226.000000
20
229.500000
0
VERTEX
5
a1
100
AcDbEntity
8
0
100
AcDbVertex
100
AcDb2dVertex
62
5
10
220.000000
20
230.000000
0
SEQEND
5
a2
100
AcDbEntity
8
0
0
POLYLINE
5
a3
100
AcDbEntity
8
0
6
CONTINUOUS
62
5
100
AcDb2dPolyline
66
1
10
0.0
20
0.0
30
0.0
70
0
0
VERTEX
5
a4
100
AcDbEntity
8
0
100
AcDbVertex
100
AcDb2dVertex
62
5
10
242.500000
20
230.000000
0
VERTEX
5
a5
100
AcDbEntity
8
0
100
AcDbVertex
100
AcDb2dVertex
62
5
10
265.000000
20
230.000000
0
VERTEX
5
a6
100
AcDbEntity
8
0
100
AcDbVertex
100
AcDb2dVertex
62
5
10
259.000000
20
229.000000
0
VERTEX
5
a7
100
AcDbEntity
8
0
100
AcDbVertex
100
AcDb2dVertex
62
5
10
259.000000
20
231.000000
0
VERTEX
5
a8
100
AcDbEntity
8
0
100
AcDbVertex
100
AcDb2dVertex
62
5
10
265.000000
20
230.000000
0
VERTEX
5
a9
100
AcDbEntity
8
0
100
AcDbVertex
100
AcDb2dVertex
62
5
10
259.000000
20
229.500000
0
VERTEX
5
aa
100
AcDbEntity
8
0
100
AcDbVertex
100
AcDb2dVertex
62
5
10
259.000000
20
230.500000
0
VERTEX
5
ab
100
AcDbEntity
8
0
100
AcDbVertex
100
AcDb2dVertex
62
5
10
265.000000
20
230.000000
0
SEQEND
5
ac
100
AcDbEntity
8
0
0
POLYLINE
5
ad
100
AcDbEntity
8
1
6
CONTINUOUS
62
5
100
AcDb2dPolyline
66
1
10
0.0
20
0.0
30
0.0
70
0
0
VERTEX
5
ae
100
AcDbEntity
8
1
100
AcDbVertex
100
AcDb2dVertex
62
5
10
156.750000
20
335.875000
0
VERTEX
5
af
100
AcDbEntity
8
1
100
AcDbVertex
100
AcDb2dVertex
62
5
10
160.750000
20
335.875000
0
VERTEX
5
b0
100
AcDbEntity
8
1
100
AcDbVertex
100
AcDb2dVertex
62
5
10
160.750000
20
331.500000
0
VERTEX
5
b1
100
AcDbEntity
8
1
100
AcDbVertex
100
AcDb2dVertex
62
5
10
156.750000
20
331.500000
0
SEQEND
5
b2
100
AcDbEntity
8
1
0
LINE
5
b3
100
AcDbEntity
8
1
100
AcDbLine
6
CONTINUOUS
62
5
10
164.750000
20
336.187500
11
165.750000
21
334.937500
0
POLYLINE
5
b4
100
AcDbEntity
8
1
6
CONTINUOUS
62
5
100
AcDb2dPolyline
66
1
10
0.0
20
0.0
30
0.0
70
0
0
VERTEX
5
b5
100
AcDbEntity
8
1
100
AcDbVertex
100
AcDb2dVertex
62
5
10
164.500000
20
331.187500
0
VERTEX
5
b6
100
AcDbEntity
8
1
100
AcDbVertex
100
AcDb2dVertex
62
5
10
166.250000
20
332.125000
0
VERTEX
5
b7
100
AcDbEntity
8
1
100
AcDbVertex
100
AcDb2dVertex
62
5
10
167.750000
20
333.375000
0
VERTEX
5
b8
100
AcDbEntity
8
1
100
AcDbVertex
100
AcDb2dVertex
62
5
10
169.250000
20
334.937500
0
SEQEND
5
b9
100
AcDbEntity
8
1
0
POLYLINE
5
ba
100
AcDbEntity
8
1
6
CONTINUOUS
62
5
100
AcDb2dPolyline
66
1
10
0.0
20
0.0
30
0.0
70
0
0
VERTEX
5
bb
100
AcDbEntity
8
1
100
AcDbVertex
100
AcDb2dVertex
62
5
10
128.000000
20
330.250000
0
VERTEX
5
bc
100
AcDbEntity
8
1
100
AcDbVertex
100
AcDb2dVertex
62
5
10
129.250000
20
337.750000
0
VERTEX
5
bd
100
AcDbEntity
8
1
100
AcDbVertex
100
AcDb2dVertex
62
5
10
130.500000
20
330.250000
0
SEQEND
5
be
100
AcDbEntity
8
1
0
LINE
5
bf
100
AcDbEntity
8
1
100
AcDbLine
6
CONTINUOUS
62
5
10
128.500000
20
332.750000
11
130.000000
21
332.750000
0
LINE
5
c0
100
AcDbEntity
8
1
100
AcDbLine
6
CONTINUOUS
62
5
10
140.000000
20
338.062500
11
145.750000
21
338.062500
0
POLYLINE
5
c1
100
AcDbEntity
8
1
6
CONTINUOUS
62
5
100
AcDb2dPolyline
66
1
10
0.0
20
0.0
30
0.0
70
0
0
VERTEX
5
c2
100
AcDbEntity
8
1
100
AcDbVertex
100
AcDb2dVertex
62
5
10
139.750000
20
335.250000
0
VERTEX
5
c3
100
AcDbEntity
8
1
100
AcDbVertex
100
AcDb2dVertex
62
5
10
139.750000
20
337.125000
0
VERTEX
5
c4
100
AcDbEntity
8
1
100
AcDbVertex
100
AcDb2dVertex
62
5
10
146.250000
20
337.125000
0
VERTEX
5
c5
100
AcDbEntity
8
1
100
AcDbVertex
100
AcDb2dVertex
62
5
10
146.250000
20
335.250000
0
SEQEND
5
c6
100
AcDbEntity
8
1
0
LINE
5
c7
100
AcDbEntity
8
1
100
AcDbLine
6
CONTINUOUS
62
5
10
143.000000
20
338.062500
11
143.000000
21
334.625000
0
LINE
5
c8
100
AcDbEntity
8
1
100
AcDbLine
6
CONTINUOUS
62
5
10
140.500000
20
336.187500
11
142.250000
21
336.187500
0
LINE
5
c9
100
AcDbEntity
8
1
100
AcDbLine
6
CONTINUOUS
62
5
10
140.500000
20
335.250000
11
142.250000
21
335.250000
0
LINE
5
ca
100
AcDbEntity
8
1
100
AcDbLine
6
CONTINUOUS
62
5
10
143.750000
20
336.187500
11
145.500000
21
336.187500
0
LINE
5
cb
100
AcDbEntity
8
1
100
AcDbLine
6
CONTINUOUS
62
5
10
143.750000
20
335.250000
11
145.500000
21
335.250000
0
POLYLINE
5
cc
100
AcDbEntity
8
1
6
CONTINUOUS
62
5
100
AcDb2dPolyline
66
1
10
0.0
20
0.0
30
0.0
70
1
0
VERTEX
5
cd
100
AcDbEntity
8
1
100
AcDbVertex
100
AcDb2dVertex
62
5
10
140.000000
20
334.000000
0
VERTEX
5
ce
100
AcDbEntity
8
1
100
AcDbVertex
100
AcDb2dVertex
62
5
10
140.000000
20
332.750000
0
VERTEX
5
cf
100
AcDbEntity
8
1
100
AcDbVertex
100
AcDb2dVertex
62
5
10
142.000000
20
332.750000
0
VERTEX
5
d0
100
AcDbEntity
8
1
100
AcDbVertex
100
AcDb2dVertex
62
5
10
142.000000
20
334.000000
0
VERTEX
5
d1
100
AcDbEntity
8
1
100
AcDbVertex
100
AcDb2dVertex
62
5
10
140.000000
20
334.000000
0
SEQEND
5
d2
100
AcDbEntity
8
1
0
LINE
5
d3
100
AcDbEntity
8
1
100
AcDbLine
6
CONTINUOUS
62
5
10
141.000000
20
332.750000
11
141.000000
21
330.250000
0
LINE
5
d4
100
AcDbEntity
8
1
100
AcDbLine
6
CONTINUOUS
62
5
10
141.000000
20
331.812500
11
142.000000
21
331.812500
0
LINE
5
d5
100
AcDbEntity
8
1
100
AcDbLine
6
CONTINUOUS
62
5
10
140.000000
20
332.125000
11
140.000000
21
329.937500
0
LINE
5
d6
100
AcDbEntity
8
1
100
AcDbLine
6
CONTINUOUS
62
5
10
139.500000
20
329.625000
11
142.000000
21
330.562500
0
POLYLINE
5
d7
100
AcDbEntity
8
1
6
CONTINUOUS
62
5
100
AcDb2dPolyline
66
1
10
0.0
20
0.0
30
0.0
70
0
0
VERTEX
5
d8
100
AcDbEntity
8
1
100
AcDbVertex
100
AcDb2dVertex
62
5
10
144.000000
20
334.312500
0
VERTEX
5
d9
100
AcDbEntity
8
1
100
AcDbVertex
100
AcDb2dVertex
62
5
10
143.750000
20
333.687500
0
VERTEX
5
da
100
AcDbEntity
8
1
100
AcDbVertex
100
AcDb2dVertex
62
5
10
143.250000
20
333.062500
0
VERTEX
5
db
100
AcDbEntity
8
1
100
AcDbVertex
100
AcDb2dVertex
62
5
10
142.750000
20
332.750000
0
SEQEND
5
dc
100
AcDbEntity
8
1
0
POLYLINE
5
dd
100
AcDbEntity
8
1
6
CONTINUOUS
62
5
100
AcDb2dPolyline
66
1
10
0.0
20
0.0
30
0.0
70
0
0
VERTEX
5
de
100
AcDbEntity
8
1
100
AcDbVertex
100
AcDb2dVertex
62
5
10
143.750000
20
333.687500
0
VERTEX
5
df
100
AcDbEntity
8
1
100
AcDbVertex
100
AcDb2dVertex
62
5
10
145.750000
20
333.687500
0
VERTEX
5
e0
100
AcDbEntity
8
1
100
AcDbVertex
100
AcDb2dVertex
62
5
10
145.000000
20
332.750000
0
VERTEX
5
e1
100
AcDbEntity
8
1
100
AcDbVertex
100
AcDb2dVertex
62
5
10
144.250000
20
332.125000
0
VERTEX
5
e2
100
AcDbEntity
8
1
100
AcDbVertex
100
AcDb2dVertex
62
5
10
142.500000
20
331.500000
0
SEQEND
5
e3
100
AcDbEntity
8
1
0
POLYLINE
5
e4
100
AcDbEntity
8
1
6
CONTINUOUS
62
5
100
AcDb2dPolyline
66
1
10
0.0
20
0.0
30
0.0
70
0
0
VERTEX
5
e5
100
AcDbEntity
8
1
100
AcDbVertex
100
AcDb2dVertex
62
5
10
143.500000
20
333.375000
0
VERTEX
5
e6
100
AcDbEntity
8
1
100
AcDbVertex
100
AcDb2dVertex
62
5
10
144.000000
20
332.750000
0
VERTEX
5
e7
100
AcDbEntity
8
1
100
AcDbVertex
100
AcDb2dVertex
62
5
10
144.750000
20
332.125000
0
VERTEX
5
e8
100
AcDbEntity
8
1
100
AcDbVertex
100
AcDb2dVertex
62
5
10
146.500000
20
331.500000
0
SEQEND
5
e9
100
AcDbEntity
8
1
0
POLYLINE
5
ea
100
AcDbEntity
8
1
6
CONTINUOUS
62
5
100
AcDb2dPolyline
66
1
10
0.0
20
0.0
30
0.0
70
1
0
VERTEX
5
eb
100
AcDbEntity
8
1
100
AcDbVertex
100
AcDb2dVertex
62
5
10
143.250000
20
331.500000
0
VERTEX
5
ec
100
AcDbEntity
8
1
100
AcDbVertex
100
AcDb2dVertex
62
5
10
143.250000
20
329.937500
0
VERTEX
5
ed
100
AcDbEntity
8
1
100
AcDbVertex
100
AcDb2dVertex
62
5
10
145.750000
20
329.937500
0
VERTEX
5
ee
100
AcDbEntity
8
1
100
AcDbVertex
100
AcDb2dVertex
62
5
10
145.750000
20
331.500000
0
VERTEX
5
ef
100
AcDbEntity
8
1
100
AcDbVertex
100
AcDb2dVertex
62
5
10
143.250000
20
331.500000
0
SEQEND
5
f0
100
AcDbEntity
8
1
0
POLYLINE
5
f1
100
AcDbEntity
8
1
6
CONTINUOUS
62
5
100
AcDb2dPolyline
66
1
10
0.0
20
0.0
30
0.0
70
0
0
VERTEX
5
f2
100
AcDbEntity
8
1
100
AcDbVertex
100
AcDb2dVertex
62
5
10
148.500000
20
337.125000
0
VERTEX
5
f3
100
AcDbEntity
8
1
100
AcDbVertex
100
AcDb2dVertex
62
5
10
148.500000
20
334.312500
0
VERTEX
5
f4
100
AcDbEntity
8
1
100
AcDbVertex
100
AcDb2dVertex
62
5
10
153.000000
20
334.312500
0
VERTEX
5
f5
100
AcDbEntity
8
1
100
AcDbVertex
100
AcDb2dVertex
62
5
10
153.000000
20
337.125000
0
SEQEND
5
f6
100
AcDbEntity
8
1
0
LINE
5
f7
100
AcDbEntity
8
1
100
AcDbLine
6
CONTINUOUS
62
5
10
150.750000
20
338.375000
11
150.750000
21
329.625000
0
POLYLINE
5
f8
100
AcDbEntity
8
1
6
CONTINUOUS
62
5
100
AcDb2dPolyline
66
1
10
0.0
20
0.0
30
0.0
70
0
0
VERTEX
5
f9
100
AcDbEntity
8
1
100
AcDbVertex
100
AcDb2dVertex
62
5
10
148.000000
20
332.750000
0
VERTEX
5
fa
100
AcDbEntity
8
1
100
AcDbVertex
100
AcDb2dVertex
62
5
10
148.000000
20
329.625000
0
VERTEX
5
fb
100
AcDbEntity
8
1
100
AcDbVertex
100
AcDb2dVertex
62
5
10
153.500000
20
329.625000
0
VERTEX
5
fc
100
AcDbEntity
8
1
100
AcDbVertex
100
AcDb2dVertex
62
5
10
153.500000
20
332.750000
0
SEQEND
5
fd
100
AcDbEntity
8
1
0
LINE
5
fe
100
AcDbEntity
8
1
100
AcDbLine
6
CONTINUOUS
62
5
10
87.250000
20
336.187500
11
89.500000
21
336.187500
0
POLYLINE
5
ff
100
AcDbEntity
8
1
6
CONTINUOUS
62
5
100
AcDb2dPolyline
66
1
10
0.0
20
0.0
30
0.0
70
0
0
VERTEX
5
100
100
AcDbEntity
8
1
100
AcDbVertex
100
AcDb2dVertex
62
5
10
88.500000
20
338.062500
0
VERTEX
5
101
100
AcDbEntity
8
1
100
AcDbVertex
100
AcDb2dVertex
62
5
10
88.500000
20
330.250000
0
VERTEX
5
102
100
AcDbEntity
8
1
100
AcDbVertex
100
AcDb2dVertex
62
5
10
88.000000
20
329.625000
0
VERTEX
5
103
100
AcDbEntity
8
1
100
AcDbVertex
100
AcDb2dVertex
62
5
10
87.500000
20
329.625000
0
SEQEND
5
104
100
AcDbEntity
8
1
0
LINE
5
105
100
AcDbEntity
8
1
100
AcDbLine
6
CONTINUOUS
62
5
10
87.500000
20
333.062500
11
89.250000
21
334.312500
0
LINE
5
106
100
AcDbEntity
8
1
100
AcDbLine
6
CONTINUOUS
62
5
10
90.000000
20
337.125000
11
94.000000
21
337.125000
0
LINE
5
107
100
AcDbEntity
8
1
100
AcDbLine
6
CONTINUOUS
62
5
10
89.750000
20
334.937500
11
94.250000
21
334.937500
0
LINE
5
108
100
AcDbEntity
8
1
100
AcDbLine
6
CONTINUOUS
62
5
10
90.750000
20
337.125000
11
91.500000
21
334.937500
0
LINE
5
109
100
AcDbEntity
8
1
100
AcDbLine
6
CONTINUOUS
62
5
10
92.500000
20
334.937500
11
93.250000
21
337.125000
0
LINE
5
10a
100
AcDbEntity
8
1
100
AcDbLine
6
CONTINUOUS
62
5
10
92.000000
20
337.125000
11
92.000000
21
338.375000
0
POLYLINE
5
10b
100
AcDbEntity
8
1
6
CONTINUOUS
62
5
100
AcDb2dPolyline
66
1
10
0.0
20
0.0
30
0.0
70
0
0
VERTEX
5
10c
100
AcDbEntity
8
1
100
AcDbVertex
100
AcDb2dVertex
62
5
10
92.000000
20
334.937500
0
VERTEX
5
10d
100
AcDbEntity
8
1
100
AcDbVertex
100
AcDb2dVertex
62
5
10
90.750000
20
331.812500
0
VERTEX
5
10e
100
AcDbEntity
8
1
100
AcDbVertex
100
AcDb2dVertex
62
5
10
92.250000
20
331.500000
0
VERTEX
5
10f
100
AcDbEntity
8
1
100
AcDbVertex
100
AcDb2dVertex
62
5
10
93.500000
20
330.875000
0
VERTEX
5
110
100
AcDbEntity
8
1
100
AcDbVertex
100
AcDb2dVertex
62
5
10
94.250000
20
329.937500
0
SEQEND
5
111
100
AcDbEntity
8
1
0
POLYLINE
5
112
100
AcDbEntity
8
1
6
CONTINUOUS
62
5
100
AcDb2dPolyline
66
1
10
0.0
20
0.0
30
0.0
70
0
0
VERTEX
5
113
100
AcDbEntity
8
1
100
AcDbVertex
100
AcDb2dVertex
62
5
10
93.000000
20
333.375000
0
VERTEX
5
114
100
AcDbEntity
8
1
100
AcDbVertex
100
AcDb2dVertex
62
5
10
92.250000
20
331.500000
0
VERTEX
5
115
100
AcDbEntity
8
1
100
AcDbVertex
100
AcDb2dVertex
62
5
10
91.500000
20
330.250000
0
VERTEX
5
116
100
AcDbEntity
8
1
100
AcDbVertex
100
AcDb2dVertex
62
5
10
90.750000
20
329.937500
0
VERTEX
5
117
100
AcDbEntity
8
1
100
AcDbVertex
100
AcDb2dVertex
62
5
10
90.000000
20
329.937500
0
SEQEND
5
118
100
AcDbEntity
8
1
0
LINE
5
119
100
AcDbEntity
8
1
100
AcDbLine
6
CONTINUOUS
62
5
10
90.000000
20
333.375000
11
94.250000
21
333.375000
0
LINE
5
11a
100
AcDbEntity
8
1
100
AcDbLine
6
CONTINUOUS
62
5
10
95.250000
20
335.250000
11
97.500000
21
335.250000
0
LINE
5
11b
100
AcDbEntity
8
1
100
AcDbLine
6
CONTINUOUS
62
5
10
95.500000
20
330.250000
11
97.500000
21
331.812500
0
LINE
5
11c
100
AcDbEntity
8
1
100
AcDbLine
6
CONTINUOUS
62
5
10
96.500000
20
337.750000
11
96.500000
21
330.875000
0
POLYLINE
5
11d
100
AcDbEntity
8
1
6
CONTINUOUS
62
5
100
AcDb2dPolyline
66
1
10
0.0
20
0.0
30
0.0
70
0
0
VERTEX
5
11e
100
AcDbEntity
8
1
100
AcDbVertex
100
AcDb2dVertex
62
5
10
97.250000
20
333.687500
0
VERTEX
5
11f
100
AcDbEntity
8
1
100
AcDbVertex
100
AcDb2dVertex
62
5
10
101.750000
20
336.500000
0
VERTEX
5
120
100
AcDbEntity
8
1
100
AcDbVertex
100
AcDb2dVertex
62
5
10
101.750000
20
333.375000
0
VERTEX
5
121
100
AcDbEntity
8
1
100
AcDbVertex
100
AcDb2dVertex
62
5
10
101.250000
20
332.750000
0
VERTEX
5
122
100
AcDbEntity
8
1
100
AcDbVertex
100
AcDb2dVertex
62
5
10
100.750000
20
332.750000
0
SEQEND
5
123
100
AcDbEntity
8
1
0
LINE
5
124
100
AcDbEntity
8
1
100
AcDbLine
6
CONTINUOUS
62
5
10
99.750000
20
338.062500
11
99.750000
21
331.500000
0
POLYLINE
5
125
100
AcDbEntity
8
1
6
CONTINUOUS
62
5
100
AcDb2dPolyline
66
1
10
0.0
20
0.0
30
0.0
70
0
0
VERTEX
5
126
100
AcDbEntity
8
1
100
AcDbVertex
100
AcDb2dVertex
62
5
10
98.250000
20
336.812500
0
VERTEX
5
127
100
AcDbEntity
8
1
100
AcDbVertex
100
AcDb2dVertex
62
5
10
98.250000
20
330.250000
0
VERTEX
5
128
100
AcDbEntity
8
1
100
AcDbVertex
100
AcDb2dVertex
62
5
10
98.750000
20
329.625000
0
VERTEX
5
129
100
AcDbEntity
8
1
100
AcDbVertex
100
AcDb2dVertex
62
5
10
101.750000
20
329.625000
0
VERTEX
5
12a
100
AcDbEntity
8
1
100
AcDbVertex
100
AcDb2dVertex
62
5
10
102.250000
20
330.250000
0
VERTEX
5
12b
100
AcDbEntity
8
1
100
AcDbVertex
100
AcDb2dVertex
62
5
10
102.250000
20
331.187500
0
SEQEND
5
12c
100
AcDbEntity
8
1
0
LINE
5
12d
100
AcDbEntity
8
1
100
AcDbLine
6
CONTINUOUS
62
5
10
103.250000
20
335.875000
11
105.500000
21
335.875000
0
LINE
5
12e
100
AcDbEntity
8
1
100
AcDbLine
6
CONTINUOUS
62
5
10
104.500000
20
338.062500
11
104.500000
21
329.312500
0
POLYLINE
5
12f
100
AcDbEntity
8
1
6
CONTINUOUS
62
5
100
AcDb2dPolyline
66
1
10
0.0
20
0.0
30
0.0
70
0
0
VERTEX
5
130
100
AcDbEntity
8
1
100
AcDbVertex
100
AcDb2dVertex
62
5
10
104.500000
20
335.875000
0
VERTEX
5
131
100
AcDbEntity
8
1
100
AcDbVertex
100
AcDb2dVertex
62
5
10
104.000000
20
334.000000
0
VERTEX
5
132
100
AcDbEntity
8
1
100
AcDbVertex
100
AcDb2dVertex
62
5
10
103.250000
20
332.125000
0
SEQEND
5
133
100
AcDbEntity
8
1
0
LINE
5
134
100
AcDbEntity
8
1
100
AcDbLine
6
CONTINUOUS
62
5
10
104.500000
20
334.937500
11
105.500000
21
333.375000
0
LINE
5
135
100
AcDbEntity
8
1
100
AcDbLine
6
CONTINUOUS
62
5
10
105.500000
20
337.750000
11
110.250000
21
337.750000
0
POLYLINE
5
136
100
AcDbEntity
8
1
6
CONTINUOUS
62
5
100
AcDb2dPolyline
66
1
10
0.0
20
0.0
30
0.0
70
0
0
VERTEX
5
137
100
AcDbEntity
8
1
100
AcDbVertex
100
AcDb2dVertex
62
5
10
107.750000
20
337.750000
0
VERTEX
5
138
100
AcDbEntity
8
1
100
AcDbVertex
100
AcDb2dVertex
62
5
10
106.750000
20
335.562500
0
VERTEX
5
139
100
AcDbEntity
8
1
100
AcDbVertex
100
AcDb2dVertex
62
5
10
108.250000
20
335.875000
0
VERTEX
5
13a
100
AcDbEntity
8
1
100
AcDbVertex
100
AcDb2dVertex
62
5
10
108.250000
20
332.750000
0
VERTEX
5
13b
100
AcDbEntity
8
1
100
AcDbVertex
100
AcDb2dVertex
62
5
10
107.750000
20
330.562500
0
VERTEX
5
13c
100
AcDbEntity
8
1
100
AcDbVertex
100
AcDb2dVertex
62
5
10
107.250000
20
330.875000
0
SEQEND
5
13d
100
AcDbEntity
8
1
0
POLYLINE
5
13e
100
AcDbEntity
8
1
6
CONTINUOUS
62
5
100
AcDb2dPolyline
66
1
10
0.0
20
0.0
30
0.0
70
1
0
VERTEX
5
13f
100
AcDbEntity
8
1
100
AcDbVertex
100
AcDb2dVertex
62
5
10
106.000000
20
334.000000
0
VERTEX
5
140
100
AcDbEntity
8
1
100
AcDbVertex
100
AcDb2dVertex
62
5
10
107.250000
20
334.000000
0
VERTEX
5
141
100
AcDbEntity
8
1
100
AcDbVertex
100
AcDb2dVertex
62
5
10
107.250000
20
331.812500
0
VERTEX
5
142
100
AcDbEntity
8
1
100
AcDbVertex
100
AcDb2dVertex
62
5
10
106.000000
20
331.812500
0
VERTEX
5
143
100
AcDbEntity
8
1
100
AcDbVertex
100
AcDb2dVertex
62
5
10
106.000000
20
334.000000
0
SEQEND
5
144
100
AcDbEntity
8
1
0
POLYLINE
5
145
100
AcDbEntity
8
1
6
CONTINUOUS
62
5
100
AcDb2dPolyline
66
1
10
0.0
20
0.0
30
0.0
70
0
0
VERTEX
5
146
100
AcDbEntity
8
1
100
AcDbVertex
100
AcDb2dVertex
62
5
10
108.750000
20
335.562500
0
VERTEX
5
147
100
AcDbEntity
8
1
100
AcDbVertex
100
AcDb2dVertex
62
5
10
110.250000
20
335.562500
0
VERTEX
5
148
100
AcDbEntity
8
1
100
AcDbVertex
100
AcDb2dVertex
62
5
10
110.000000
20
334.312500
0
VERTEX
5
149
100
AcDbEntity
8
1
100
AcDbVertex
100
AcDb2dVertex
62
5
10
109.500000
20
332.750000
0
VERTEX
5
14a
100
AcDbEntity
8
1
100
AcDbVertex
100
AcDb2dVertex
62
5
10
108.750000
20
331.187500
0
SEQEND
5
14b
100
AcDbEntity
8
1
0
POLYLINE
5
14c
100
AcDbEntity
8
1
6
CONTINUOUS
62
5
100
AcDb2dPolyline
66
1
10
0.0
20
0.0
30
0.0
70
0
0
VERTEX
5
14d
100
AcDbEntity
8
1
100
AcDbVertex
100
AcDb2dVertex
62
5
10
108.750000
20
334.625000
0
VERTEX
5
14e
100
AcDbEntity
8
1
100
AcDbVertex
100
AcDb2dVertex
62
5
10
109.000000
20
333.375000
0
VERTEX
5
14f
100
AcDbEntity
8
1
100
AcDbVertex
100
AcDb2dVertex
62
5
10
110.500000
20
331.187500
0
SEQEND
5
150
100
AcDbEntity
8
1
0
LINE
5
151
100
AcDbEntity
8
1
100
AcDbLine
6
CONTINUOUS
62
5
10
105.250000
20
329.625000
11
110.500000
21
329.625000
0
POLYLINE
5
152
100
AcDbEntity
8
1
6
CONTINUOUS
62
5
100
AcDb2dPolyline
66
1
10
0.0
20
0.0
30
0.0
70
0
0
VERTEX
5
153
100
AcDbEntity
8
1
100
AcDbVertex
100
AcDb2dVertex
62
5
10
113.500000
20
338.062500
0
VERTEX
5
154
100
AcDbEntity
8
1
100
AcDbVertex
100
AcDb2dVertex
62
5
10
112.500000
20
335.250000
0
VERTEX
5
155
100
AcDbEntity
8
1
100
AcDbVertex
100
AcDb2dVertex
62
5
10
111.250000
20
333.062500
0
SEQEND
5
156
100
AcDbEntity
8
1
0
LINE
5
157
100
AcDbEntity
8
1
100
AcDbLine
6
CONTINUOUS
62
5
10
112.500000
20
335.250000
11
112.500000
21
329.312500
0
LINE
5
158
100
AcDbEntity
8
1
100
AcDbLine
6
CONTINUOUS
62
5
10
113.250000
20
335.250000
11
118.500000
21
335.250000
0
POLYLINE
5
159
100
AcDbEntity
8
1
6
CONTINUOUS
62
5
100
AcDb2dPolyline
66
1
10
0.0
20
0.0
30
0.0
70
0
0
VERTEX
5
15a
100
AcDbEntity
8
1
100
AcDbVertex
100
AcDb2dVertex
62
5
10
116.750000
20
338.062500
0
VERTEX
5
15b
100
AcDbEntity
8
1
100
AcDbVertex
100
AcDb2dVertex
62
5
10
116.750000
20
329.625000
0
VERTEX
5
15c
100
AcDbEntity
8
1
100
AcDbVertex
100
AcDb2dVertex
62
5
10
115.250000
20
329.937500
0
SEQEND
5
15d
100
AcDbEntity
8
1
0
LINE
5
15e
100
AcDbEntity
8
1
100
AcDbLine
6
CONTINUOUS
62
5
10
114.250000
20
334.000000
11
115.250000
21
332.125000
0
POLYLINE
5
15f
100
AcDbEntity
8
1
6
CONTINUOUS
62
5
100
AcDb2dPolyline
66
1
10
0.0
20
0.0
30
0.0
70
0
0
VERTEX
5
160
100
AcDbEntity
8
1
100
AcDbVertex
100
AcDb2dVertex
62
5
10
120.000000
20
335.875000
0
VERTEX
5
161
100
AcDbEntity
8
1
100
AcDbVertex
100
AcDb2dVertex
62
5
10
120.250000
20
337.125000
0
VERTEX
5
162
100
AcDbEntity
8
1
100
AcDbVertex
100
AcDb2dVertex
62
5
10
120.750000
20
337.750000
0
VERTEX
5
163
100
AcDbEntity
8
1
100
AcDbVertex
100
AcDb2dVertex
62
5
10
121.500000
20
337.750000
0
VERTEX
5
164
100
AcDbEntity
8
1
100
AcDbVertex
100
AcDb2dVertex
62
5
10
122.000000
20
337.437500
0
VERTEX
5
165
100
AcDbEntity
8
1
100
AcDbVertex
100
AcDb2dVertex
62
5
10
122.250000
20
336.500000
0
VERTEX
5
166
100
AcDbEntity
8
1
100
AcDbVertex
100
AcDb2dVertex
62
5
10
122.250000
20
335.250000
0
VERTEX
5
167
100
AcDbEntity
8
1
100
AcDbVertex
100
AcDb2dVertex
62
5
10
122.000000
20
334.625000
0
VERTEX
5
168
100
AcDbEntity
8
1
100
AcDbVertex
100
AcDb2dVertex
62
5
10
121.500000
20
334.000000
0
VERTEX
5
169
100
AcDbEntity
8
1
100
AcDbVertex
100
AcDb2dVertex
62
5
10
120.750000
20
334.000000
0
SEQEND
5
16a
100
AcDbEntity
8
1
0
POLYLINE
5
16b
100
AcDbEntity
8
1
6
CONTINUOUS
62
5
100
AcDb2dPolyline
66
1
10
0.0
20
0.0
30
0.0
70
0
0
VERTEX
5
16c
100
AcDbEntity
8
1
100
AcDbVertex
100
AcDb2dVertex
62
5
10
121.500000
20
334.000000
0
VERTEX
5
16d
100
AcDbEntity
8
1
100
AcDbVertex
100
AcDb2dVertex
62
5
10
122.250000
20
333.375000
0
VERTEX
5
16e
100
AcDbEntity
8
1
100
AcDbVertex
100
AcDb2dVertex
62
5
10
122.500000
20
332.437500
0
VERTEX
5
16f
100
AcDbEntity
8
1
100
AcDbVertex
100
AcDb2dVertex
62
5
10
122.500000
20
331.500000
0
VERTEX
5
170
100
AcDbEntity
8
1
100
AcDbVertex
100
AcDb2dVertex
62
5
10
122.250000
20
330.875000
0
VERTEX
5
171
100
AcDbEntity
8
1
100
AcDbVertex
100
AcDb2dVertex
62
5
10
121.500000
20
330.250000
0
VERTEX
5
172
100
AcDbEntity
8
1
100
AcDbVertex
100
AcDb2dVertex
62
5
10
120.750000
20
330.250000
0
VERTEX
5
173
100
AcDbEntity
8
1
100
AcDbVertex
100
AcDb2dVertex
62
5
10
120.250000
20
330.562500
0
VERTEX
5
174
100
AcDbEntity
8
1
100
AcDbVertex
100
AcDb2dVertex
62
5
10
119.750000
20
331.500000
0
SEQEND
5
175
100
AcDbEntity
8
1
0
POLYLINE
5
176
100
AcDbEntity
8
1
6
CONTINUOUS
62
5
100
AcDb2dPolyline
66
1
10
0.0
20
0.0
30
0.0
70
1
0
VERTEX
5
177
100
AcDbEntity
8
1
100
AcDbVertex
100
AcDb2dVertex
62
5
10
125.000000
20
337.750000
0
VERTEX
5
178
100
AcDbEntity
8
1
100
AcDbVertex
100
AcDb2dVertex
62
5
10
125.500000
20
337.750000
0
VERTEX
5
179
100
AcDbEntity
8
1
100
AcDbVertex
100
AcDb2dVertex
62
5
10
125.750000
20
337.437500
0
VERTEX
5
17a
100
AcDbEntity
8
1
100
AcDbVertex
100
AcDb2dVertex
62
5
10
126.250000
20
336.187500
0
VERTEX
5
17b
100
AcDbEntity
8
1
100
AcDbVertex
100
AcDb2dVertex
62
5
10
126.500000
20
334.937500
0
VERTEX
5
17c
100
AcDbEntity
8
1
100
AcDbVertex
100
AcDb2dVertex
62
5
10
126.500000
20
333.062500
0
VERTEX
5
17d
100
AcDbEntity
8
1
100
AcDbVertex
100
AcDb2dVertex
62
5
10
126.250000
20
331.812500
0
VERTEX
5
17e
100
AcDbEntity
8
1
100
AcDbVertex
100
AcDb2dVertex
62
5
10
125.750000
20
330.562500
0
VERTEX
5
17f
100
AcDbEntity
8
1
100
AcDbVertex
100
AcDb2dVertex
62
5
10
125.500000
20
330.250000
0
VERTEX
5
180
100
AcDbEntity
8
1
100
AcDbVertex
100
AcDb2dVertex
62
5
10
125.000000
20
330.250000
0
VERTEX
5
181
100
AcDbEntity
8
1
100
AcDbVertex
100
AcDb2dVertex
62
5
10
124.750000
20
330.562500
0
VERTEX
5
182
100
AcDbEntity
8
1
100
AcDbVertex
100
AcDb2dVertex
62
5
10
124.250000
20
331.812500
0
VERTEX
5
183
100
AcDbEntity
8
1
100
AcDbVertex
100
AcDb2dVertex
62
5
10
124.000000
20
333.062500
0
VERTEX
5
184
100
AcDbEntity
8
1
100
AcDbVertex
100
AcDb2dVertex
62
5
10
124.000000
20
334.937500
0
VERTEX
5
185
100
AcDbEntity
8
1
100
AcDbVertex
100
AcDb2dVertex
62
5
10
124.250000
20
336.187500
0
VERTEX
5
186
100
AcDbEntity
8
1
100
AcDbVertex
100
AcDb2dVertex
62
5
10
124.750000
20
337.437500
0
VERTEX
5
187
100
AcDbEntity
8
1
100
AcDbVertex
100
AcDb2dVertex
62
5
10
125.000000
20
337.750000
0
SEQEND
5
188
100
AcDbEntity
8
1
0
POLYLINE
5
189
100
AcDbEntity
8
1
6
CONTINUOUS
62
5
100
AcDb2dPolyline
66
1
10
0.0
20
0.0
30
0.0
70
0
0
VERTEX
5
18a
100
AcDbEntity
8
1
100
AcDbVertex
100
AcDb2dVertex
62
5
10
87.500000
20
298.625000
0
VERTEX
5
18b
100
AcDbEntity
8
1
100
AcDbVertex
100
AcDb2dVertex
62
5
10
87.812500
20
299.875000
0
VERTEX
5
18c
100
AcDbEntity
8
1
100
AcDbVertex
100
AcDb2dVertex
62
5
10
88.437500
20
300.500000
0
VERTEX
5
18d
100
AcDbEntity
8
1
100
AcDbVertex
100
AcDb2dVertex
62
5
10
89.375000
20
300.500000
0
VERTEX
5
18e
100
AcDbEntity
8
1
100
AcDbVertex
100
AcDb2dVertex
62
5
10
90.000000
20
300.187500
0
VERTEX
5
18f
100
AcDbEntity
8
1
100
AcDbVertex
100
AcDb2dVertex
62
5
10
90.312500
20
299.250000
0
VERTEX
5
190
100
AcDbEntity
8
1
100
AcDbVertex
100
AcDb2dVertex
62
5
10
90.312500
20
298.000000
0
VERTEX
5
191
100
AcDbEntity
8
1
100
AcDbVertex
100
AcDb2dVertex
62
5
10
90.000000
20
297.375000
0
VERTEX
5
192
100
AcDbEntity
8
1
100
AcDbVertex
100
AcDb2dVertex
62
5
10
89.375000
20
296.750000
0
VERTEX
5
193
100
AcDbEntity
8
1
100
AcDbVertex
100
AcDb2dVertex
62
5
10
88.437500
20
296.750000
0
SEQEND
5
194
100
AcDbEntity
8
1
0
POLYLINE
5
195
100
AcDbEntity
8
1
6
CONTINUOUS
62
5
100
AcDb2dPolyline
66
1
10
0.0
20
0.0
30
0.0
70
0
0
VERTEX
5
196
100
AcDbEntity
8
1
100
AcDbVertex
100
AcDb2dVertex
62
5
10
89.375000
20
296.750000
0
VERTEX
5
197
100
AcDbEntity
8
1
100
AcDbVertex
100
AcDb2dVertex
62
5
10
90.312500
20
296.125000
0
VERTEX
5
198
100
AcDbEntity
8
1
100
AcDbVertex
100
AcDb2dVertex
62
5
10
90.625000
20
295.187500
0
VERTEX
5
199
100
AcDbEntity
8
1
100
AcDbVertex
100
AcDb2dVertex
62
5
10
90.625000
20
294.250000
0
VERTEX
5
19a
100
AcDbEntity
8
1
100
AcDbVertex
100
AcDb2dVertex
62
5
10
90.312500
20
293.625000
0
VERTEX
5
19b
100
AcDbEntity
8
1
100
AcDbVertex
100
AcDb2dVertex
62
5
10
89.375000
20
293.000000
0
VERTEX
5
19c
100
AcDbEntity
8
1
100
AcDbVertex
100
AcDb2dVertex
62
5
10
88.437500
20
293.000000
0
VERTEX
5
19d
100
AcDbEntity
8
1
100
AcDbVertex
100
AcDb2dVertex
62
5
10
87.812500
20
293.312500
0
VERTEX
5
19e
100
AcDbEntity
8
1
100
AcDbVertex
100
AcDb2dVertex
62
5
10
87.187500
20
294.250000
0
SEQEND
5
19f
100
AcDbEntity
8
1
0
POLYLINE
5
1a0
100
AcDbEntity
8
1
6
CONTINUOUS
62
5
100
AcDb2dPolyline
66
1
10
0.0
20
0.0
30
0.0
70
1
0
VERTEX
5
1a1
100
AcDbEntity
8
1
100
AcDbVertex
100
AcDb2dVertex
62
5
10
93.750000
20
300.500000
0
VERTEX
5
1a2
100
AcDbEntity
8
1
100
AcDbVertex
100
AcDb2dVertex
62
5
10
94.375000
20
300.500000
0
VERTEX
5
1a3
100
AcDbEntity
8
1
100
AcDbVertex
100
AcDb2dVertex
62
5
10
94.687500
20
300.187500
0
VERTEX
5
1a4
100
AcDbEntity
8
1
100
AcDbVertex
100
AcDb2dVertex
62
5
10
95.312500
20
298.937500
0
VERTEX
5
1a5
100
AcDbEntity
8
1
100
AcDbVertex
100
AcDb2dVertex
62
5
10
95.625000
20
297.687500
0
VERTEX
5
1a6
100
AcDbEntity
8
1
100
AcDbVertex
100
AcDb2dVertex
62
5
10
95.625000
20
295.812500
0
VERTEX
5
1a7
100
AcDbEntity
8
1
100
AcDbVertex
100
AcDb2dVertex
62
5
10
95.312500
20
294.562500
0
VERTEX
5
1a8
100
AcDbEntity
8
1
100
AcDbVertex
100
AcDb2dVertex
62
5
10
94.687500
20
293.312500
0
VERTEX
5
1a9
100
AcDbEntity
8
1
100
AcDbVertex
100
AcDb2dVertex
62
5
10
94.375000
20
293.000000
0
VERTEX
5
1aa
100
AcDbEntity
8
1
100
AcDbVertex
100
AcDb2dVertex
62
5
10
93.750000
20
293.000000
0
VERTEX
5
1ab
100
AcDbEntity
8
1
100
AcDbVertex
100
AcDb2dVertex
62
5
10
93.437500
20
293.312500
0
VERTEX
5
1ac
100
AcDbEntity
8
1
100
AcDbVertex
100
AcDb2dVertex
62
5
10
92.812500
20
294.562500
0
VERTEX
5
1ad
100
AcDbEntity
8
1
100
AcDbVertex
100
AcDb2dVertex
62
5
10
92.500000
20
295.812500
0
VERTEX
5
1ae
100
AcDbEntity
8
1
100
AcDbVertex
100
AcDb2dVertex
62
5
10
92.500000
20
297.687500
0
VERTEX
5
1af
100
AcDbEntity
8
1
100
AcDbVertex
100
AcDb2dVertex
62
5
10
92.812500
20
298.937500
0
VERTEX
5
1b0
100
AcDbEntity
8
1
100
AcDbVertex
100
AcDb2dVertex
62
5
10
93.437500
20
300.187500
0
VERTEX
5
1b1
100
AcDbEntity
8
1
100
AcDbVertex
100
AcDb2dVertex
62
5
10
93.750000
20
300.500000
0
SEQEND
5
1b2
100
AcDbEntity
8
1
0
POLYLINE
5
1b3
100
AcDbEntity
8
1
6
CONTINUOUS
62
5
100
AcDb2dPolyline
66
1
10
0.0
20
0.0
30
0.0
70
0
0
VERTEX
5
1b4
100
AcDbEntity
8
1
100
AcDbVertex
100
AcDb2dVertex
62
5
10
97.500000
20
298.312500
0
VERTEX
5
1b5
100
AcDbEntity
8
1
100
AcDbVertex
100
AcDb2dVertex
62
5
10
97.812500
20
299.875000
0
VERTEX
5
1b6
100
AcDbEntity
8
1
100
AcDbVertex
100
AcDb2dVertex
62
5
10
98.750000
20
300.500000
0
VERTEX
5
1b7
100
AcDbEntity
8
1
100
AcDbVertex
100
AcDb2dVertex
62
5
10
99.687500
20
300.500000
0
VERTEX
5
1b8
100
AcDbEntity
8
1
100
AcDbVertex
100
AcDb2dVertex
62
5
10
100.312500
20
300.187500
0
VERTEX
5
1b9
100
AcDbEntity
8
1
100
AcDbVertex
100
AcDb2dVertex
62
5
10
100.625000
20
299.250000
0
VERTEX
5
1ba
100
AcDbEntity
8
1
100
AcDbVertex
100
AcDb2dVertex
62
5
10
100.625000
20
298.312500
0
VERTEX
5
1bb
100
AcDbEntity
8
1
100
AcDbVertex
100
AcDb2dVertex
62
5
10
100.312500
20
297.375000
0
VERTEX
5
1bc
100
AcDbEntity
8
1
100
AcDbVertex
100
AcDb2dVertex
62
5
10
97.500000
20
293.000000
0
VERTEX
5
1bd
100
AcDbEntity
8
1
100
AcDbVertex
100
AcDb2dVertex
62
5
10
100.625000
20
293.000000
0
VERTEX
5
1be
100
AcDbEntity
8
1
100
AcDbVertex
100
AcDb2dVertex
62
5
10
100.625000
20
293.937500
0
SEQEND
5
1bf
100
AcDbEntity
8
1
0
POLYLINE
5
1c0
100
AcDbEntity
8
1
6
CONTINUOUS
62
5
100
AcDb2dPolyline
66
1
10
0.0
20
0.0
30
0.0
70
0
0
VERTEX
5
1c1
100
AcDbEntity
8
1
100
AcDbVertex
100
AcDb2dVertex
62
5
10
79.000000
20
328.375000
0
VERTEX
5
1c2
100
AcDbEntity
8
1
100
AcDbVertex
100
AcDb2dVertex
62
5
10
76.250000
20
326.812500
0
VERTEX
5
1c3
100
AcDbEntity
8
1
100
AcDbVertex
100
AcDb2dVertex
62
5
10
76.250000
20
319.625000
0
VERTEX
5
1c4
100
AcDbEntity
8
1
100
AcDbVertex
100
AcDb2dVertex
62
5
10
81.250000
20
319.625000
0
VERTEX
5
1c5
100
AcDbEntity
8
1
100
AcDbVertex
100
AcDb2dVertex
62
5
10
81.250000
20
326.812500
0
VERTEX
5
1c6
100
AcDbEntity
8
1
100
AcDbVertex
100
AcDb2dVertex
62
5
10
76.250000
20
326.812500
0
SEQEND
5
1c7
100
AcDbEntity
8
1
0
LINE
5
1c8
100
AcDbEntity
8
1
100
AcDbLine
6
CONTINUOUS
62
5
10
76.250000
20
323.375000
11
81.250000
21
323.375000
0
POLYLINE
5
1c9
100
AcDbEntity
8
1
6
CONTINUOUS
62
5
100
AcDb2dPolyline
66
1
10
0.0
20
0.0
30
0.0
70
0
0
VERTEX
5
1ca
100
AcDbEntity
8
1
100
AcDbVertex
100
AcDb2dVertex
62
5
10
76.000000
20
335.562500
0
VERTEX
5
1cb
100
AcDbEntity
8
1
100
AcDbVertex
100
AcDb2dVertex
62
5
10
76.250000
20
337.125000
0
VERTEX
5
1cc
100
AcDbEntity
8
1
100
AcDbVertex
100
AcDb2dVertex
62
5
10
77.000000
20
337.750000
0
VERTEX
5
1cd
100
AcDbEntity
8
1
100
AcDbVertex
100
AcDb2dVertex
62
5
10
77.750000
20
337.750000
0
VERTEX
5
1ce
100
AcDbEntity
8
1
100
AcDbVertex
100
AcDb2dVertex
62
5
10
78.250000
20
337.437500
0
VERTEX
5
1cf
100
AcDbEntity
8
1
100
AcDbVertex
100
AcDb2dVertex
62
5
10
78.500000
20
336.500000
0
VERTEX
5
1d0
100
AcDbEntity
8
1
100
AcDbVertex
100
AcDb2dVertex
62
5
10
78.500000
20
335.562500
0
VERTEX
5
1d1
100
AcDbEntity
8
1
100
AcDbVertex
100
AcDb2dVertex
62
5
10
78.250000
20
334.625000
0
VERTEX
5
1d2
100
AcDbEntity
8
1
100
AcDbVertex
100
AcDb2dVertex
62
5
10
76.000000
20
330.250000
0
VERTEX
5
1d3
100
AcDbEntity
8
1
100
AcDbVertex
100
AcDb2dVertex
62
5
10
78.500000
20
330.250000
0
VERTEX
5
1d4
100
AcDbEntity
8
1
100
AcDbVertex
100
AcDb2dVertex
62
5
10
78.500000
20
331.187500
0
SEQEND
5
1d5
100
AcDbEntity
8
1
0
LINE
5
1d6
100
AcDbEntity
8
1
100
AcDbLine
6
CONTINUOUS
62
5
10
50.000000
20
350.000000
11
50.000000
21
318.000000
0
LINE
5
1d7
100
AcDbEntity
8
1
100
AcDbLine
6
CONTINUOUS
62
5
10
50.000000
20
350.000000
11
50.000000
21
318.000000
0
LINE
5
1d8
100
AcDbEntity
8
1
100
AcDbLine
6
CONTINUOUS
62
5
10
72.500000
20
296.750000
11
75.625000
21
296.750000
0
POLYLINE
5
1d9
100
AcDbEntity
8
1
6
CONTINUOUS
62
5
100
AcDb2dPolyline
66
1
10
0.0
20
0.0
30
0.0
70
0
0
VERTEX
5
1da
100
AcDbEntity
8
1
100
AcDbVertex
100
AcDb2dVertex
62
5
10
65.312500
20
300.500000
0
VERTEX
5
1db
100
AcDbEntity
8
1
100
AcDbVertex
100
AcDb2dVertex
62
5
10
65.312500
20
294.875000
0
VERTEX
5
1dc
100
AcDbEntity
8
1
100
AcDbVertex
100
AcDb2dVertex
62
5
10
65.000000
20
293.625000
0
VERTEX
5
1dd
100
AcDbEntity
8
1
100
AcDbVertex
100
AcDb2dVertex
62
5
10
64.375000
20
293.000000
0
VERTEX
5
1de
100
AcDbEntity
8
1
100
AcDbVertex
100
AcDb2dVertex
62
5
10
63.437500
20
293.000000
0
VERTEX
5
1df
100
AcDbEntity
8
1
100
AcDbVertex
100
AcDb2dVertex
62
5
10
62.812500
20
293.625000
0
VERTEX
5
1e0
100
AcDbEntity
8
1
100
AcDbVertex
100
AcDb2dVertex
62
5
10
62.500000
20
294.875000
0
SEQEND
5
1e1
100
AcDbEntity
8
1
0
POLYLINE
5
1e2
100
AcDbEntity
8
1
6
CONTINUOUS
62
5
100
AcDb2dPolyline
66
1
10
0.0
20
0.0
30
0.0
70
0
0
VERTEX
5
1e3
100
AcDbEntity
8
1
100
AcDbVertex
100
AcDb2dVertex
62
5
10
70.625000
20
300.500000
0
VERTEX
5
1e4
100
AcDbEntity
8
1
100
AcDbVertex
100
AcDb2dVertex
62
5
10
67.500000
20
300.500000
0
VERTEX
5
1e5
100
AcDbEntity
8
1
100
AcDbVertex
100
AcDb2dVertex
62
5
10
67.500000
20
293.000000
0
VERTEX
5
1e6
100
AcDbEntity
8
1
100
AcDbVertex
100
AcDb2dVertex
62
5
10
70.937500
20
293.000000
0
SEQEND
5
1e7
100
AcDbEntity
8
1
0
LINE
5
1e8
100
AcDbEntity
8
1
100
AcDbLine
6
CONTINUOUS
62
5
10
67.500000
20
296.750000
11
70.312500
21
296.750000
0
POLYLINE
5
1e9
100
AcDbEntity
8
1
6
CONTINUOUS
62
5
100
AcDb2dPolyline
66
1
10
0.0
20
0.0
30
0.0
70
0
0
VERTEX
5
1ea
100
AcDbEntity
8
1
100
AcDbVertex
100
AcDb2dVertex
62
5
10
77.500000
20
298.312500
0
VERTEX
5
1eb
100
AcDbEntity
8
1
100
AcDbVertex
100
AcDb2dVertex
62
5
10
77.812500
20
299.875000
0
VERTEX
5
1ec
100
AcDbEntity
8
1
100
AcDbVertex
100
AcDb2dVertex
62
5
10
78.750000
20
300.500000
0
VERTEX
5
1ed
100
AcDbEntity
8
1
100
AcDbVertex
100
AcDb2dVertex
62
5
10
79.687500
20
300.500000
0
VERTEX
5
1ee
100
AcDbEntity
8
1
100
AcDbVertex
100
AcDb2dVertex
62
5
10
80.312500
20
300.187500
0
VERTEX
5
1ef
100
AcDbEntity
8
1
100
AcDbVertex
100
AcDb2dVertex
62
5
10
80.625000
20
299.250000
0
VERTEX
5
1f0
100
AcDbEntity
8
1
100
AcDbVertex
100
AcDb2dVertex
62
5
10
80.625000
20
298.312500
0
VERTEX
5
1f1
100
AcDbEntity
8
1
100
AcDbVertex
100
AcDb2dVertex
62
5
10
80.312500
20
297.375000
0
VERTEX
5
1f2
100
AcDbEntity
8
1
100
AcDbVertex
100
AcDb2dVertex
62
5
10
77.500000
20
293.000000
0
VERTEX
5
1f3
100
AcDbEntity
8
1
100
AcDbVertex
100
AcDb2dVertex
62
5
10
80.625000
20
293.000000
0
VERTEX
5
1f4
100
AcDbEntity
8
1
100
AcDbVertex
100
AcDb2dVertex
62
5
10
80.625000
20
293.937500
0
SEQEND
5
1f5
100
AcDbEntity
8
1
0
LINE
5
1f6
100
AcDbEntity
8
1
100
AcDbLine
6
CONTINUOUS
62
5
10
79.250000
20
335.875000
11
81.500000
21
335.875000
0
LINE
5
1f7
100
AcDbEntity
8
1
100
AcDbLine
6
CONTINUOUS
62
5
10
80.500000
20
338.062500
11
80.500000
21
329.312500
0
POLYLINE
5
1f8
100
AcDbEntity
8
1
6
CONTINUOUS
62
5
100
AcDb2dPolyline
66
1
10
0.0
20
0.0
30
0.0
70
0
0
VERTEX
5
1f9
100
AcDbEntity
8
1
100
AcDbVertex
100
AcDb2dVertex
62
5
10
80.500000
20
335.875000
0
VERTEX
5
1fa
100
AcDbEntity
8
1
100
AcDbVertex
100
AcDb2dVertex
62
5
10
80.000000
20
334.000000
0
VERTEX
5
1fb
100
AcDbEntity
8
1
100
AcDbVertex
100
AcDb2dVertex
62
5
10
79.250000
20
332.125000
0
SEQEND
5
1fc
100
AcDbEntity
8
1
0
LINE
5
1fd
100
AcDbEntity
8
1
100
AcDbLine
6
CONTINUOUS
62
5
10
80.500000
20
334.937500
11
81.500000
21
333.375000
0
LINE
5
1fe
100
AcDbEntity
8
1
100
AcDbLine
6
CONTINUOUS
62
5
10
81.500000
20
337.750000
11
86.250000
21
337.750000
0
POLYLINE
5
1ff
100
AcDbEntity
8
1
6
CONTINUOUS
62
5
100
AcDb2dPolyline
66
1
10
0.0
20
0.0
30
0.0
70
0
0
VERTEX
5
200
100
AcDbEntity
8
1
100
AcDbVertex
100
AcDb2dVertex
62
5
10
83.750000
20
337.750000
0
VERTEX
5
201
100
AcDbEntity
8
1
100
AcDbVertex
100
AcDb2dVertex
62
5
10
82.750000
20
335.562500
0
VERTEX
5
202
100
AcDbEntity
8
1
100
AcDbVertex
100
AcDb2dVertex
62
5
10
84.250000
20
335.875000
0
VERTEX
5
203
100
AcDbEntity
8
1
100
AcDbVertex
100
AcDb2dVertex
62
5
10
84.250000
20
332.750000
0
VERTEX
5
204
100
AcDbEntity
8
1
100
AcDbVertex
100
AcDb2dVertex
62
5
10
83.750000
20
330.562500
0
VERTEX
5
205
100
AcDbEntity
8
1
100
AcDbVertex
100
AcDb2dVertex
62
5
10
83.250000
20
330.875000
0
SEQEND
5
206
100
AcDbEntity
8
1
0
POLYLINE
5
207
100
AcDbEntity
8
1
6
CONTINUOUS
62
5
100
AcDb2dPolyline
66
1
10
0.0
20
0.0
30
0.0
70
1
0
VERTEX
5
208
100
AcDbEntity
8
1
100
AcDbVertex
100
AcDb2dVertex
62
5
10
82.000000
20
334.000000
0
VERTEX
5
209
100
AcDbEntity
8
1
100
AcDbVertex
100
AcDb2dVertex
62
5
10
83.250000
20
334.000000
0
VERTEX
5
20a
100
AcDbEntity
8
1
100
AcDbVertex
100
AcDb2dVertex
62
5
10
83.250000
20
331.812500
0
VERTEX
5
20b
100
AcDbEntity
8
1
100
AcDbVertex
100
AcDb2dVertex
62
5
10
82.000000
20
331.812500
0
VERTEX
5
20c
100
AcDbEntity
8
1
100
AcDbVertex
100
AcDb2dVertex
62
5
10
82.000000
20
334.000000
0
SEQEND
5
20d
100
AcDbEntity
8
1
0
POLYLINE
5
20e
100
AcDbEntity
8
1
6
CONTINUOUS
62
5
100
AcDb2dPolyline
66
1
10
0.0
20
0.0
30
0.0
70
0
0
VERTEX
5
20f
100
AcDbEntity
8
1
100
AcDbVertex
100
AcDb2dVertex
62
5
10
84.750000
20
335.562500
0
VERTEX
5
210
100
AcDbEntity
8
1
100
AcDbVertex
100
AcDb2dVertex
62
5
10
86.250000
20
335.562500
0
VERTEX
5
211
100
AcDbEntity
8
1
100
AcDbVertex
100
AcDb2dVertex
62
5
10
86.000000
20
334.312500
0
VERTEX
5
212
100
AcDbEntity
8
1
100
AcDbVertex
100
AcDb2dVertex
62
5
10
85.500000
20
332.750000
0
VERTEX
5
213
100
AcDbEntity
8
1
100
AcDbVertex
100
AcDb2dVertex
62
5
10
84.750000
20
331.187500
0
SEQEND
5
214
100
AcDbEntity
8
1
0
POLYLINE
5
215
100
AcDbEntity
8
1
6
CONTINUOUS
62
5
100
AcDb2dPolyline
66
1
10
0.0
20
0.0
30
0.0
70
0
0
VERTEX
5
216
100
AcDbEntity
8
1
100
AcDbVertex
100
AcDb2dVertex
62
5
10
84.750000
20
334.625000
0
VERTEX
5
217
100
AcDbEntity
8
1
100
AcDbVertex
100
AcDb2dVertex
62
5
10
85.000000
20
333.375000
0
VERTEX
5
218
100
AcDbEntity
8
1
100
AcDbVertex
100
AcDb2dVertex
62
5
10
86.500000
20
331.187500
0
SEQEND
5
219
100
AcDbEntity
8
1
0
LINE
5
21a
100
AcDbEntity
8
1
100
AcDbLine
6
CONTINUOUS
62
5
10
81.250000
20
329.625000
11
86.500000
21
329.625000
0
POLYLINE
5
21b
100
AcDbEntity
8
1
6
CONTINUOUS
62
5
100
AcDb2dPolyline
66
1
10
0.0
20
0.0
30
0.0
70
0
0
VERTEX
5
21c
100
AcDbEntity
8
1
100
AcDbVertex
100
AcDb2dVertex
62
5
10
85.625000
20
300.500000
0
VERTEX
5
21d
100
AcDbEntity
8
1
100
AcDbVertex
100
AcDb2dVertex
62
5
10
82.500000
20
300.500000
0
VERTEX
5
21e
100
AcDbEntity
8
1
100
AcDbVertex
100
AcDb2dVertex
62
5
10
82.500000
20
293.000000
0
VERTEX
5
21f
100
AcDbEntity
8
1
100
AcDbVertex
100
AcDb2dVertex
62
5
10
85.937500
20
293.000000
0
SEQEND
5
220
100
AcDbEntity
8
1
0
LINE
5
221
100
AcDbEntity
8
1
100
AcDbLine
6
CONTINUOUS
62
5
10
82.500000
20
296.750000
11
85.312500
21
296.750000
0
POLYLINE
5
222
100
AcDbEntity
8
1
6
CONTINUOUS
62
5
100
AcDb2dPolyline
66
1
10
0.0
20
0.0
30
0.0
70
0
0
VERTEX
5
223
100
AcDbEntity
8
1
100
AcDbVertex
100
AcDb2dVertex
62
5
10
86.250000
20
328.375000
0
VERTEX
5
224
100
AcDbEntity
8
1
100
AcDbVertex
100
AcDb2dVertex
62
5
10
85.500000
20
327.125000
0
VERTEX
5
225
100
AcDbEntity
8
1
100
AcDbVertex
100
AcDb2dVertex
62
5
10
84.750000
20
326.187500
0
VERTEX
5
226
100
AcDbEntity
8
1
100
AcDbVertex
100
AcDb2dVertex
62
5
10
83.750000
20
325.250000
0
SEQEND
5
227
100
AcDbEntity
8
1
0
POLYLINE
5
228
100
AcDbEntity
8
1
6
CONTINUOUS
62
5
100
AcDb2dPolyline
66
1
10
0.0
20
0.0
30
0.0
70
0
0
VERTEX
5
229
100
AcDbEntity
8
1
100
AcDbVertex
100
AcDb2dVertex
62
5
10
86.000000
20
327.750000
0
VERTEX
5
22a
100
AcDbEntity
8
1
100
AcDbVertex
100
AcDb2dVertex
62
5
10
88.250000
20
327.750000
0
VERTEX
5
22b
100
AcDbEntity
8
1
100
AcDbVertex
100
AcDb2dVertex
62
5
10
87.000000
20
325.875000
0
SEQEND
5
22c
100
AcDbEntity
8
1
0
POLYLINE
5
22d
100
AcDbEntity
8
1
6
CONTINUOUS
62
5
100
AcDb2dPolyline
66
1
10
0.0
20
0.0
30
0.0
70
0
0
VERTEX
5
22e
100
AcDbEntity
8
1
100
AcDbVertex
100
AcDb2dVertex
62
5
10
84.750000
20
325.875000
0
VERTEX
5
22f
100
AcDbEntity
8
1
100
AcDbVertex
100
AcDb2dVertex
62
5
10
89.250000
20
325.875000
0
VERTEX
5
230
100
AcDbEntity
8
1
100
AcDbVertex
100
AcDb2dVertex
62
5
10
89.250000
20
323.062500
0
VERTEX
5
231
100
AcDbEntity
8
1
100
AcDbVertex
100
AcDb2dVertex
62
5
10
84.750000
20
323.062500
0
SEQEND
5
232
100
AcDbEntity
8
1
0
LINE
5
233
100
AcDbEntity
8
1
100
AcDbLine
6
CONTINUOUS
62
5
10
87.000000
20
325.875000
11
87.000000
21
323.062500
0
POLYLINE
5
234
100
AcDbEntity
8
1
6
CONTINUOUS
62
5
100
AcDb2dPolyline
66
1
10
0.0
20
0.0
30
0.0
70
0
0
VERTEX
5
235
100
AcDbEntity
8
1
100
AcDbVertex
100
AcDb2dVertex
62
5
10
84.750000
20
325.875000
0
VERTEX
5
236
100
AcDbEntity
8
1
100
AcDbVertex
100
AcDb2dVertex
62
5
10
84.750000
20
320.562500
0
VERTEX
5
237
100
AcDbEntity
8
1
100
AcDbVertex
100
AcDb2dVertex
62
5
10
85.250000
20
319.937500
0
VERTEX
5
238
100
AcDbEntity
8
1
100
AcDbVertex
100
AcDb2dVertex
62
5
10
90.250000
20
319.937500
0
VERTEX
5
239
100
AcDbEntity
8
1
100
AcDbVertex
100
AcDb2dVertex
62
5
10
90.250000
20
321.187500
0
SEQEND
5
23a
100
AcDbEntity
8
1
0
POLYLINE
5
23b
100
AcDbEntity
8
0
6
DOT2
62
5
100
AcDb2dPolyline
66
1
10
0.0
20
0.0
30
0.0
70
0
0
VERTEX
5
23c
100
AcDbEntity
8
0
100
AcDbVertex
100
AcDb2dVertex
62
5
10
119.375000
20
234.687500
0
VERTEX
5
23d
100
AcDbEntity
8
0
100
AcDbVertex
100
AcDb2dVertex
62
5
10
119.375000
20
234.687500
0
VERTEX
5
23e
100
AcDbEntity
8
0
100
AcDbVertex
100
AcDb2dVertex
62
5
10
118.125000
20
234.375000
0
VERTEX
5
23f
100
AcDbEntity
8
0
100
AcDbVertex
100
AcDb2dVertex
62
5
10
117.187500
20
234.375000
0
VERTEX
5
240
100
AcDbEntity
8
0
100
AcDbVertex
100
AcDb2dVertex
62
5
10
116.562500
20
234.687500
0
VERTEX
5
241
100
AcDbEntity
8
0
100
AcDbVertex
100
AcDb2dVertex
62
5
10
116.250000
20
235.625000
0
VERTEX
5
242
100
AcDbEntity
8
0
100
AcDbVertex
100
AcDb2dVertex
62
5
10
116.250000
20
237.187500
0
VERTEX
5
243
100
AcDbEntity
8
0
100
AcDbVertex
100
AcDb2dVertex
62
5
10
116.562500
20
238.125000
0
VERTEX
5
244
100
AcDbEntity
8
0
100
AcDbVertex
100
AcDb2dVertex
62
5
10
116.875000
20
238.437500
0
VERTEX
5
245
100
AcDbEntity
8
0
100
AcDbVertex
100
AcDb2dVertex
62
5
10
117.500000
20
238.750000
0
VERTEX
5
246
100
AcDbEntity
8
0
100
AcDbVertex
100
AcDb2dVertex
62
5
10
118.125000
20
238.750000
0
VERTEX
5
247
100
AcDbEntity
8
0
100
AcDbVertex
100
AcDb2dVertex
62
5
10
118.750000
20
238.437500
0
VERTEX
5
248
100
AcDbEntity
8
0
100
AcDbVertex
100
AcDb2dVertex
62
5
10
119.062500
20
238.125000
0
VERTEX
5
249
100
AcDbEntity
8
0
100
AcDbVertex
100
AcDb2dVertex
62
5
10
119.375000
20
237.187500
0
VERTEX
5
24a
100
AcDbEntity
8
0
100
AcDbVertex
100
AcDb2dVertex
62
5
10
119.375000
20
233.750000
0
VERTEX
5
24b
100
AcDbEntity
8
0
100
AcDbVertex
100
AcDb2dVertex
62
5
10
119.062500
20
232.187500
0
VERTEX
5
24c
100
AcDbEntity
8
0
100
AcDbVertex
100
AcDb2dVertex
62
5
10
118.437500
20
231.562500
0
VERTEX
5
24d
100
AcDbEntity
8
0
100
AcDbVertex
100
AcDb2dVertex
62
5
10
117.500000
20
231.250000
0
VERTEX
5
24e
100
AcDbEntity
8
0
100
AcDbVertex
100
AcDb2dVertex
62
5
10
116.875000
20
231.250000
0
SEQEND
5
24f
100
AcDbEntity
8
0
0
POLYLINE
5
250
100
AcDbEntity
8
0
6
DOT2
62
5
100
AcDb2dPolyline
66
1
10
0.0
20
0.0
30
0.0
70
1
0
VERTEX
5
251
100
AcDbEntity
8
0
100
AcDbVertex
100
AcDb2dVertex
62
5
10
122.500000
20
238.750000
0
VERTEX
5
252
100
AcDbEntity
8
0
100
AcDbVertex
100
AcDb2dVertex
62
5
10
123.125000
20
238.750000
0
VERTEX
5
253
100
AcDbEntity
8
0
100
AcDbVertex
100
AcDb2dVertex
62
5
10
123.437500
20
238.437500
0
VERTEX
5
254
100
AcDbEntity
8
0
100
AcDbVertex
100
AcDb2dVertex
62
5
10
124.062500
20
237.187500
0
VERTEX
5
255
100
AcDbEntity
8
0
100
AcDbVertex
100
AcDb2dVertex
62
5
10
124.375000
20
235.937500
0
VERTEX
5
256
100
AcDbEntity
8
0
100
AcDbVertex
100
AcDb2dVertex
62
5
10
124.375000
20
234.062500
0
VERTEX
5
257
100
AcDbEntity
8
0
100
AcDbVertex
100
AcDb2dVertex
62
5
10
124.062500
20
232.812500
0
VERTEX
5
258
100
AcDbEntity
8
0
100
AcDbVertex
100
AcDb2dVertex
62
5
10
123.437500
20
231.562500
0
VERTEX
5
259
100
AcDbEntity
8
0
100
AcDbVertex
100
AcDb2dVertex
62
5
10
123.125000
20
231.250000
0
VERTEX
5
25a
100
AcDbEntity
8
0
100
AcDbVertex
100
AcDb2dVertex
62
5
10
122.500000
20
231.250000
0
VERTEX
5
25b
100
AcDbEntity
8
0
100
AcDbVertex
100
AcDb2dVertex
62
5
10
122.187500
20
231.562500
0
VERTEX
5
25c
100
AcDbEntity
8
0
100
AcDbVertex
100
AcDb2dVertex
62
5
10
121.562500
20
232.812500
0
VERTEX
5
25d
100
AcDbEntity
8
0
100
AcDbVertex
100
AcDb2dVertex
62
5
10
121.250000
20
234.062500
0
VERTEX
5
25e
100
AcDbEntity
8
0
100
AcDbVertex
100
AcDb2dVertex
62
5
10
121.250000
20
235.937500
0
VERTEX
5
25f
100
AcDbEntity
8
0
100
AcDbVertex
100
AcDb2dVertex
62
5
10
121.562500
20
237.187500
0
VERTEX
5
260
100
AcDbEntity
8
0
100
AcDbVertex
100
AcDb2dVertex
62
5
10
122.187500
20
238.437500
0
VERTEX
5
261
100
AcDbEntity
8
0
100
AcDbVertex
100
AcDb2dVertex
62
5
10
122.500000
20
238.750000
0
SEQEND
5
262
100
AcDbEntity
8
0
0
ARC
5
263
100
AcDbEntity
8
0
100
AcDbCircle
6
CONTINUOUS
62
5
10
120.538200
20
180.441383
40
1.000000
100
AcDbArc
50
7.583244
51
77.567992
0
ARC
5
264
100
AcDbEntity
8
0
100
AcDbCircle
6
CONTINUOUS
62
5
10
120.538200
20
180.441383
40
0.700000
100
AcDbArc
50
7.583244
51
77.567992
0
ARC
5
265
100
AcDbEntity
8
0
100
AcDbCircle
6
CONTINUOUS
62
5
10
120.538200
20
180.441383
40
0.800000
100
AcDbArc
50
7.583244
51
77.567992
0
ARC
5
266
100
AcDbEntity
8
0
100
AcDbCircle
6
CONTINUOUS
62
5
10
120.538200
20
180.441383
40
0.900000
100
AcDbArc
50
7.583244
51
77.567992
0
ARC
5
267
100
AcDbEntity
8
0
100
AcDbCircle
6
CONTINUOUS
62
5
10
120.538200
20
180.441383
40
0.600000
100
AcDbArc
50
7.583244
51
77.567992
0
ARC
5
268
100
AcDbEntity
8
0
100
AcDbCircle
6
CONTINUOUS
62
5
10
120.538200
20
180.441383
40
0.500000
100
AcDbArc
50
7.583244
51
77.567992
0
ARC
5
269
100
AcDbEntity
8
0
100
AcDbCircle
6
CONTINUOUS
62
5
10
120.538200
20
180.441383
40
1.100000
100
AcDbArc
50
7.583244
51
77.567992
0
ARC
5
26a
100
AcDbEntity
8
0
100
AcDbCircle
6
CONTINUOUS
62
5
10
120.538200
20
180.441383
40
1.200000
100
AcDbArc
50
7.583244
51
77.567992
0
ARC
5
26b
100
AcDbEntity
8
0
100
AcDbCircle
6
CONTINUOUS
62
5
10
120.538200
20
180.441383
40
1.300000
100
AcDbArc
50
7.583244
51
77.567992
0
ARC
5
26c
100
AcDbEntity
8
0
100
AcDbCircle
6
CONTINUOUS
62
5
10
120.538200
20
180.441383
40
1.400000
100
AcDbArc
50
7.583244
51
77.567992
0
ARC
5
26d
100
AcDbEntity
8
0
100
AcDbCircle
6
CONTINUOUS
62
5
10
120.538200
20
180.441383
40
1.500000
100
AcDbArc
50
7.583244
51
77.567992
0
ARC
5
26e
100
AcDbEntity
8
0
100
AcDbCircle
6
CONTINUOUS
62
5
10
113.199997
20
178.000000
40
3.300000
100
AcDbArc
50
78.744103
51
106.260203
0
ARC
5
26f
100
AcDbEntity
8
0
100
AcDbCircle
6
CONTINUOUS
62
5
10
113.199997
20
178.000000
40
3.400000
100
AcDbArc
50
78.744103
51
106.260203
0
ARC
5
270
100
AcDbEntity
8
0
100
AcDbCircle
6
CONTINUOUS
62
5
10
113.199997
20
178.000000
40
3.200000
100
AcDbArc
50
84.842328
51
106.260203
0
ARC
5
271
100
AcDbEntity
8
0
100
AcDbCircle
6
CONTINUOUS
62
5
10
113.199997
20
178.000000
40
3.800000
100
AcDbArc
50
78.744103
51
106.260203
0
ARC
5
272
100
AcDbEntity
8
0
100
AcDbCircle
6
CONTINUOUS
62
5
10
113.199997
20
178.000000
40
3.900000
100
AcDbArc
50
78.744103
51
106.260203
0
ARC
5
273
100
AcDbEntity
8
0
100
AcDbCircle
6
CONTINUOUS
62
5
10
113.199997
20
178.000000
40
3.500000
100
AcDbArc
50
78.744103
51
106.260203
0
ARC
5
274
100
AcDbEntity
8
0
100
AcDbCircle
6
CONTINUOUS
62
5
10
113.199997
20
178.000000
40
3.600000
100
AcDbArc
50
78.744103
51
106.260203
0
ARC
5
275
100
AcDbEntity
8
0
100
AcDbCircle
6
CONTINUOUS
62
5
10
113.199997
20
178.000000
40
3.700000
100
AcDbArc
50
78.744103
51
106.260203
0
ARC
5
276
100
AcDbEntity
8
0
100
AcDbCircle
6
CONTINUOUS
62
5
10
113.199997
20
178.000000
40
4.000000
100
AcDbArc
50
78.744103
51
106.260203
0
ARC
5
277
100
AcDbEntity
8
0
100
AcDbCircle
6
CONTINUOUS
62
5
10
112.500000
20
180.400002
40
1.000000
100
AcDbArc
50
106.260203
51
-179.999993
0
ARC
5
278
100
AcDbEntity
8
0
100
AcDbCircle
6
CONTINUOUS
62
5
10
112.500000
20
180.400002
40
1.100000
100
AcDbArc
50
106.260203
51
-179.999993
0
ARC
5
279
100
AcDbEntity
8
0
100
AcDbCircle
6
CONTINUOUS
62
5
10
112.500000
20
180.400002
40
1.400000
100
AcDbArc
50
106.260203
51
-179.999993
0
ARC
5
27a
100
AcDbEntity
8
0
100
AcDbCircle
6
CONTINUOUS
62
5
10
112.500000
20
180.400002
40
1.500000
100
AcDbArc
50
106.260203
51
-179.999993
0
ARC
5
27b
100
AcDbEntity
8
0
100
AcDbCircle
6
CONTINUOUS
62
5
10
112.500000
20
180.400002
40
1.200000
100
AcDbArc
50
106.260203
51
-179.999993
0
ARC
5
27c
100
AcDbEntity
8
0
100
AcDbCircle
6
CONTINUOUS
62
5
10
112.500000
20
180.400002
40
1.300000
100
AcDbArc
50
106.260203
51
-179.999993
0
ARC
5
27d
100
AcDbEntity
8
0
100
AcDbCircle
6
CONTINUOUS
62
5
10
112.500000
20
180.400002
40
0.800000
100
AcDbArc
50
106.260203
51
-179.999993
0
ARC
5
27e
100
AcDbEntity
8
0
100
AcDbCircle
6
CONTINUOUS
62
5
10
112.500000
20
180.400002
40
0.900000
100
AcDbArc
50
106.260203
51
-179.999993
0
ARC
5
27f
100
AcDbEntity
8
0
100
AcDbCircle
6
CONTINUOUS
62
5
10
112.500000
20
180.400002
40
0.700000
100
AcDbArc
50
106.260203
51
-179.999993
0
ARC
5
280
100
AcDbEntity
8
0
100
AcDbCircle
6
CONTINUOUS
62
5
10
113.687973
20
180.451912
40
1.300000
100
AcDbArc
50
3.047638
51
78.744103
0
ARC
5
281
100
AcDbEntity
8
0
100
AcDbCircle
6
CONTINUOUS
62
5
10
113.687973
20
180.451912
40
1.000000
100
AcDbArc
50
3.047638
51
78.744103
0
ARC
5
282
100
AcDbEntity
8
0
100
AcDbCircle
6
CONTINUOUS
62
5
10
113.687973
20
180.451912
40
1.100000
100
AcDbArc
50
3.047638
51
78.744103
0
ARC
5
283
100
AcDbEntity
8
0
100
AcDbCircle
6
CONTINUOUS
62
5
10
113.687973
20
180.451912
40
1.200000
100
AcDbArc
50
3.047638
51
78.744103
0
ARC
5
284
100
AcDbEntity
8
0
100
AcDbCircle
6
CONTINUOUS
62
5
10
113.687973
20
180.451912
40
0.800000
100
AcDbArc
50
3.047638
51
78.744103
0
ARC
5
285
100
AcDbEntity
8
0
100
AcDbCircle
6
CONTINUOUS
62
5
10
113.687973
20
180.451912
40
0.900000
100
AcDbArc
50
3.047638
51
78.744103
0
ARC
5
286
100
AcDbEntity
8
0
100
AcDbCircle
6
CONTINUOUS
62
5
10
113.687973
20
180.451912
40
0.700000
100
AcDbArc
50
3.047638
51
78.744103
0
ARC
5
287
100
AcDbEntity
8
0
100
AcDbCircle
6
CONTINUOUS
62
5
10
113.687973
20
180.451912
40
1.400000
100
AcDbArc
50
3.047638
51
78.744103
0
ARC
5
288
100
AcDbEntity
8
0
100
AcDbCircle
6
CONTINUOUS
62
5
10
113.687973
20
180.451912
40
1.500000
100
AcDbArc
50
3.047638
51
78.744103
0
ARC
5
289
100
AcDbEntity
8
0
100
AcDbCircle
6
CONTINUOUS
62
5
10
119.461800
20
180.441383
40
0.600000
100
AcDbArc
50
102.432005
51
172.416759
0
ARC
5
28a
100
AcDbEntity
8
0
100
AcDbCircle
6
CONTINUOUS
62
5
10
119.461800
20
180.441383
40
0.500000
100
AcDbArc
50
102.432005
51
172.416759
0
ARC
5
28b
100
AcDbEntity
8
0
100
AcDbCircle
6
CONTINUOUS
62
5
10
119.461800
20
180.441383
40
0.700000
100
AcDbArc
50
102.432005
51
172.416759
0
ARC
5
28c
100
AcDbEntity
8
0
100
AcDbCircle
6
CONTINUOUS
62
5
10
119.461800
20
180.441383
40
0.800000
100
AcDbArc
50
102.432005
51
172.416759
0
ARC
5
28d
100
AcDbEntity
8
0
100
AcDbCircle
6
CONTINUOUS
62
5
10
119.461800
20
180.441383
40
0.900000
100
AcDbArc
50
102.432005
51
172.416759
0
ARC
5
28e
100
AcDbEntity
8
0
100
AcDbCircle
6
CONTINUOUS
62
5
10
119.461800
20
180.441383
40
1.000000
100
AcDbArc
50
102.432005
51
172.416759
0
ARC
5
28f
100
AcDbEntity
8
0
100
AcDbCircle
6
CONTINUOUS
62
5
10
119.461800
20
180.441383
40
1.300000
100
AcDbArc
50
102.432005
51
172.416759
0
ARC
5
290
100
AcDbEntity
8
0
100
AcDbCircle
6
CONTINUOUS
62
5
10
119.461800
20
180.441383
40
1.100000
100
AcDbArc
50
102.432005
51
172.416759
0
ARC
5
291
100
AcDbEntity
8
0
100
AcDbCircle
6
CONTINUOUS
62
5
10
119.461800
20
180.441383
40
1.200000
100
AcDbArc
50
102.432005
51
172.416759
0
ARC
5
292
100
AcDbEntity
8
0
100
AcDbCircle
6
CONTINUOUS
62
5
10
119.461800
20
180.441383
40
1.400000
100
AcDbArc
50
102.432005
51
172.416759
0
ARC
5
293
100
AcDbEntity
8
0
100
AcDbCircle
6
CONTINUOUS
62
5
10
119.461800
20
180.441383
40
1.500000
100
AcDbArc
50
102.432005
51
172.416759
0
ARC
5
294
100
AcDbEntity
8
0
100
AcDbCircle
6
CONTINUOUS
62
5
10
120.000000
20
178.000000
40
3.800000
100
AcDbArc
50
77.567992
51
102.432005
0
ARC
5
295
100
AcDbEntity
8
0
100
AcDbCircle
6
CONTINUOUS
62
5
10
120.000000
20
178.000000
40
3.900000
100
AcDbArc
50
77.567992
51
102.432005
0
ARC
5
296
100
AcDbEntity
8
0
100
AcDbCircle
6
CONTINUOUS
62
5
10
120.000000
20
178.000000
40
3.700000
100
AcDbArc
50
77.567992
51
102.432005
0
ARC
5
297
100
AcDbEntity
8
0
100
AcDbCircle
6
CONTINUOUS
62
5
10
120.000000
20
178.000000
40
4.000000
100
AcDbArc
50
77.567992
51
102.432005
0
ARC
5
298
100
AcDbEntity
8
0
100
AcDbCircle
6
CONTINUOUS
62
5
10
120.000000
20
178.000000
40
3.200000
100
AcDbArc
50
77.567992
51
102.432005
0
ARC
5
299
100
AcDbEntity
8
0
100
AcDbCircle
6
CONTINUOUS
62
5
10
120.000000
20
178.000000
40
3.300000
100
AcDbArc
50
77.567992
51
102.432005
0
ARC
5
29a
100
AcDbEntity
8
0
100
AcDbCircle
6
CONTINUOUS
62
5
10
120.000000
20
178.000000
40
3.400000
100
AcDbArc
50
77.567992
51
102.432005
0
ARC
5
29b
100
AcDbEntity
8
0
100
AcDbCircle
6
CONTINUOUS
62
5
10
120.000000
20
178.000000
40
3.100000
100
AcDbArc
50
77.567992
51
102.432005
0
ARC
5
29c
100
AcDbEntity
8
0
100
AcDbCircle
6
CONTINUOUS
62
5
10
120.000000
20
178.000000
40
3.000000
100
AcDbArc
50
77.567992
51
102.432005
0
ARC
5
29d
100
AcDbEntity
8
0
100
AcDbCircle
6
CONTINUOUS
62
5
10
120.000000
20
178.000000
40
3.500000
100
AcDbArc
50
77.567992
51
102.432005
0
ARC
5
29e
100
AcDbEntity
8
0
100
AcDbCircle
6
CONTINUOUS
62
5
10
120.000000
20
178.000000
40
3.600000
100
AcDbArc
50
77.567992
51
102.432005
0
LINE
5
29f
100
AcDbEntity
8
0
100
AcDbLine
6
CONTINUOUS
62
5
10
125.699997
20
182.000000
11
127.300003
21
182.000000
0
ARC
5
2a0
100
AcDbEntity
8
0
100
AcDbCircle
6
CONTINUOUS
62
5
10
108.300003
20
195.000000
40
1.000000
100
AcDbArc
50
89.999999
51
179.999998
0
LINE
5
2a1
100
AcDbEntity
8
0
100
AcDbLine
6
CONTINUOUS
62
5
10
107.300003
20
195.000000
11
107.300003
21
191.000000
0
ARC
5
2a2
100
AcDbEntity
8
0
100
AcDbCircle
6
CONTINUOUS
62
5
10
108.300003
20
191.000000
40
1.000000
100
AcDbArc
50
179.999998
51
-89.999999
0
LINE
5
2a3
100
AcDbEntity
8
0
100
AcDbLine
6
CONTINUOUS
62
5
10
108.300003
20
190.000000
11
131.699997
21
190.000000
0
ARC
5
2a4
100
AcDbEntity
8
0
100
AcDbCircle
6
CONTINUOUS
62
5
10
131.699997
20
191.000000
40
1.000000
100
AcDbArc
50
-89.999999
51
0.000000
0
LINE
5
2a5
100
AcDbEntity
8
0
100
AcDbLine
6
CONTINUOUS
62
5
10
132.699997
20
191.000000
11
132.699997
21
195.000000
0
ARC
5
2a6
100
AcDbEntity
8
0
100
AcDbCircle
6
CONTINUOUS
62
5
10
131.699997
20
195.000000
40
1.000000
100
AcDbArc
50
0.000000
51
89.999999
0
LINE
5
2a7
100
AcDbEntity
8
0
100
AcDbLine
6
CONTINUOUS
62
5
10
131.699997
20
196.000000
11
108.300003
21
196.000000
0
LINE
5
2a8
100
AcDbEntity
8
0
100
AcDbLine
6
CONTINUOUS
62
5
10
75.000000
20
192.500000
11
75.000000
21
232.000000
0
LINE
5
2a9
100
AcDbEntity
8
0
100
AcDbLine
6
CONTINUOUS
62
5
10
165.000000
20
192.500000
11
165.000000
21
232.000000
0
POLYLINE
5
2aa
100
AcDbEntity
8
0
6
CONTINUOUS
62
5
100
AcDb2dPolyline
66
1
10
0.0
20
0.0
30
0.0
70
0
0
VERTEX
5
2ab
100
AcDbEntity
8
0
100
AcDbVertex
100
AcDb2dVertex
62
5
10
120.000000
20
230.000000
0
VERTEX
5
2ac
100
AcDbEntity
8
0
100
AcDbVertex
100
AcDb2dVertex
62
5
10
75.000000
20
230.000000
0
VERTEX
5
2ad
100
AcDbEntity
8
0
100
AcDbVertex
100
AcDb2dVertex
62
5
10
81.000000
20
231.000000
0
VERTEX
5
2ae
100
AcDbEntity
8
0
100
AcDbVertex
100
AcDb2dVertex
62
5
10
81.000000
20
229.000000
0
VERTEX
5
2af
100
AcDbEntity
8
0
100
AcDbVertex
100
AcDb2dVertex
62
5
10
75.000000
20
230.000000
0
VERTEX
5
2b0
100
AcDbEntity
8
0
100
AcDbVertex
100
AcDb2dVertex
62
5
10
81.000000
20
230.500000
0
VERTEX
5
2b1
100
AcDbEntity
8
0
100
AcDbVertex
100
AcDb2dVertex
62
5
10
81.000000
20
229.500000
0
VERTEX
5
2b2
100
AcDbEntity
8
0
100
AcDbVertex
100
AcDb2dVertex
62
5
10
75.000000
20
230.000000
0
SEQEND
5
2b3
100
AcDbEntity
8
0
0
POLYLINE
5
2b4
100
AcDbEntity
8
0
6
CONTINUOUS
62
5
100
AcDb2dPolyline
66
1
10
0.0
20
0.0
30
0.0
70
0
0
VERTEX
5
2b5
100
AcDbEntity
8
0
100
AcDbVertex
100
AcDb2dVertex
62
5
10
120.000000
20
230.000000
0
VERTEX
5
2b6
100
AcDbEntity
8
0
100
AcDbVertex
100
AcDb2dVertex
62
5
10
165.000000
20
230.000000
0
VERTEX
5
2b7
100
AcDbEntity
8
0
100
AcDbVertex
100
AcDb2dVertex
62
5
10
159.000000
20
229.000000
0
VERTEX
5
2b8
100
AcDbEntity
8
0
100
AcDbVertex
100
AcDb2dVertex
62
5
10
159.000000
20
231.000000
0
VERTEX
5
2b9
100
AcDbEntity
8
0
100
AcDbVertex
100
AcDb2dVertex
62
5
10
165.000000
20
230.000000
0
VERTEX
5
2ba
100
AcDbEntity
8
0
100
AcDbVertex
100
AcDb2dVertex
62
5
10
159.000000
20
229.500000
0
VERTEX
5
2bb
100
AcDbEntity
8
0
100
AcDbVertex
100
AcDb2dVertex
62
5
10
159.000000
20
230.500000
0
VERTEX
5
2bc
100
AcDbEntity
8
0
100
AcDbVertex
100
AcDb2dVertex
62
5
10
165.000000
20
230.000000
0
SEQEND
5
2bd
100
AcDbEntity
8
0
0
LINE
5
2be
100
AcDbEntity
8
1
100
AcDbLine
6
CONTINUOUS
62
5
10
10.000000
20
318.000000
11
330.000000
21
318.000000
0
LINE
5
2bf
100
AcDbEntity
8
1
100
AcDbLine
6
CONTINUOUS
62
5
10
10.000000
20
318.000000
11
330.000000
21
318.000000
0
LINE
5
2c0
100
AcDbEntity
8
0
100
AcDbLine
6
CONTINUOUS
62
5
10
251.500000
20
116.000000
11
252.000000
21
116.000000
0
LINE
5
2c1
100
AcDbEntity
8
0
100
AcDbLine
6
CONTINUOUS
62
5
10
139.199997
20
168.699997
11
139.199997
21
164.300003
0
LINE
5
2c2
100
AcDbEntity
8
0
100
AcDbLine
6
CONTINUOUS
62
5
10
128.000000
20
174.000000
11
129.000000
21
174.000000
0
LINE
5
2c3
100
AcDbEntity
8
0
100
AcDbLine
6
CONTINUOUS
62
5
10
124.000000
20
174.000000
11
125.000000
21
174.000000
0
LINE
5
2c4
100
AcDbEntity
8
0
100
AcDbLine
6
CONTINUOUS
62
5
10
125.400002
20
166.614212
11
125.400002
21
168.699997
0
LINE
5
2c5
100
AcDbEntity
8
0
100
AcDbLine
6
CONTINUOUS
62
5
10
126.199997
20
168.699997
11
126.199997
21
164.300003
0
ARC
5
2c6
100
AcDbEntity
8
0
100
AcDbCircle
6
CONTINUOUS
62
5
10
120.538200
20
175.558617
40
0.600000
100
AcDbArc
50
-77.567992
51
-7.583244
0
ARC
5
2c7
100
AcDbEntity
8
0
100
AcDbCircle
6
CONTINUOUS
62
5
10
120.538200
20
175.558617
40
0.700000
100
AcDbArc
50
-77.567992
51
-7.583244
0
ARC
5
2c8
100
AcDbEntity
8
0
100
AcDbCircle
6
CONTINUOUS
62
5
10
120.538200
20
175.558617
40
0.500000
100
AcDbArc
50
-77.567992
51
-7.583244
0
LINE
5
2c9
100
AcDbEntity
8
0
100
AcDbLine
6
CONTINUOUS
62
5
10
125.000002
20
173.999996
11
125.382503
21
175.799999
0
ARC
5
2ca
100
AcDbEntity
8
0
100
AcDbCircle
6
CONTINUOUS
62
5
10
120.538200
20
175.558617
40
1.000000
100
AcDbArc
50
-77.567992
51
-7.583244
0
ARC
5
2cb
100
AcDbEntity
8
0
100
AcDbCircle
6
CONTINUOUS
62
5
10
120.538200
20
175.558617
40
0.800000
100
AcDbArc
50
-77.567992
51
-7.583244
0
ARC
5
2cc
100
AcDbEntity
8
0
100
AcDbCircle
6
CONTINUOUS
62
5
10
120.538200
20
175.558617
40
0.900000
100
AcDbArc
50
-77.567992
51
-7.583244
0
ARC
5
2cd
100
AcDbEntity
8
0
100
AcDbCircle
6
CONTINUOUS
62
5
10
120.538200
20
175.558617
40
1.100000
100
AcDbArc
50
-77.567992
51
-7.583244
0
ARC
5
2ce
100
AcDbEntity
8
0
100
AcDbCircle
6
CONTINUOUS
62
5
10
120.538200
20
175.558617
40
1.200000
100
AcDbArc
50
-77.567992
51
-7.583244
0
ARC
5
2cf
100
AcDbEntity
8
0
100
AcDbCircle
6
CONTINUOUS
62
5
10
120.538200
20
175.558617
40
1.300000
100
AcDbArc
50
-77.567992
51
-7.583244
0
ARC
5
2d0
100
AcDbEntity
8
0
100
AcDbCircle
6
CONTINUOUS
62
5
10
120.538200
20
175.558617
40
1.400000
100
AcDbArc
50
-77.567992
51
-7.583244
0
ARC
5
2d1
100
AcDbEntity
8
0
100
AcDbCircle
6
CONTINUOUS
62
5
10
120.538200
20
175.558617
40
1.500000
100
AcDbArc
50
-77.567992
51
-7.583244
0
ARC
5
2d2
100
AcDbEntity
8
0
100
AcDbCircle
6
CONTINUOUS
62
5
10
105.199997
20
176.000000
40
10.000000
100
AcDbArc
50
-3.047638
51
6.379370
0
LINE
5
2d3
100
AcDbEntity
8
0
100
AcDbLine
6
CONTINUOUS
62
5
10
112.899994
20
178.099998
11
113.378021
21
178.099998
0
LINE
5
2d4
100
AcDbEntity
8
0
100
AcDbLine
6
CONTINUOUS
62
5
10
112.899994
20
178.000000
11
113.378021
21
178.000000
0
LINE
5
2d5
100
AcDbEntity
8
0
100
AcDbLine
6
CONTINUOUS
62
5
10
112.899994
20
177.900002
11
113.378021
21
177.900002
0
LINE
5
2d6
100
AcDbEntity
8
0
100
AcDbLine
6
CONTINUOUS
62
5
10
112.899994
20
177.799995
11
113.378021
21
177.799995
0
LINE
5
2d7
100
AcDbEntity
8
0
100
AcDbLine
6
CONTINUOUS
62
5
10
112.899994
20
177.699997
11
113.378021
21
177.699997
0
LINE
5
2d8
100
AcDbEntity
8
0
100
AcDbLine
6
CONTINUOUS
62
5
10
112.899994
20
177.599998
11
113.378021
21
177.599998
0
LINE
5
2d9
100
AcDbEntity
8
0
100
AcDbLine
6
CONTINUOUS
62
5
10
112.899994
20
178.299995
11
113.335236
21
178.299995
0
LINE
5
2da
100
AcDbEntity
8
0
100
AcDbLine
6
CONTINUOUS
62
5
10
112.899994
20
178.199997
11
113.378021
21
178.199997
0
LINE
5
2db
100
AcDbEntity
8
0
100
AcDbLine
6
CONTINUOUS
62
5
10
112.899994
20
178.400002
11
112.899994
21
177.599998
0
LINE
5
2dc
100
AcDbEntity
8
0
100
AcDbLine
6
CONTINUOUS
62
5
10
112.899994
20
178.400002
11
113.378021
21
178.400002
0
LINE
5
2dd
100
AcDbEntity
8
0
100
AcDbLine
6
CONTINUOUS
62
5
10
111.000000
20
176.750000
11
111.800003
21
176.750000
0
LINE
5
2de
100
AcDbEntity
8
0
100
AcDbLine
6
CONTINUOUS
62
5
10
111.500000
20
176.750000
11
111.500000
21
175.599998
0
LINE
5
2df
100
AcDbEntity
8
0
100
AcDbLine
6
CONTINUOUS
62
5
10
111.399994
20
176.750000
11
111.399994
21
175.599998
0
LINE
5
2e0
100
AcDbEntity
8
0
100
AcDbLine
6
CONTINUOUS
62
5
10
111.300003
20
176.750000
11
111.300003
21
175.599998
0
LINE
5
2e1
100
AcDbEntity
8
0
100
AcDbLine
6
CONTINUOUS
62
5
10
111.199997
20
176.750000
11
111.199997
21
175.599998
0
LINE
5
2e2
100
AcDbEntity
8
0
100
AcDbLine
6
CONTINUOUS
62
5
10
111.100006
20
176.750000
11
111.100006
21
175.599998
0
LINE
5
2e3
100
AcDbEntity
8
0
100
AcDbLine
6
CONTINUOUS
62
5
10
111.000000
20
176.750000
11
111.000000
21
175.599998
0
LINE
5
2e4
100
AcDbEntity
8
0
100
AcDbLine
6
CONTINUOUS
62
5
10
111.699997
20
176.750000
11
111.699997
21
175.599998
0
LINE
5
2e5
100
AcDbEntity
8
0
100
AcDbLine
6
CONTINUOUS
62
5
10
111.600006
20
176.750000
11
111.600006
21
175.599998
0
LINE
5
2e6
100
AcDbEntity
8
0
100
AcDbLine
6
CONTINUOUS
62
5
10
111.800003
20
176.750000
11
111.800003
21
175.599998
0
LINE
5
2e7
100
AcDbEntity
8
0
100
AcDbLine
6
CONTINUOUS
62
5
10
111.000000
20
179.250000
11
111.800003
21
179.250000
0
ARC
5
2e8
100
AcDbEntity
8
0
100
AcDbCircle
6
CONTINUOUS
62
5
10
105.199997
20
176.000000
40
9.700000
100
AcDbArc
50
-3.047638
51
6.379370
0
ARC
5
2e9
100
AcDbEntity
8
0
100
AcDbCircle
6
CONTINUOUS
62
5
10
105.199997
20
176.000000
40
9.800000
100
AcDbArc
50
-3.047638
51
6.379370
0
ARC
5
2ea
100
AcDbEntity
8
0
100
AcDbCircle
6
CONTINUOUS
62
5
10
114.144272
20
177.000000
40
0.800000
100
AcDbArc
50
6.379370
51
90.000002
0
ARC
5
2eb
100
AcDbEntity
8
0
100
AcDbCircle
6
CONTINUOUS
62
5
10
113.378021
20
176.599998
40
1.300000
100
AcDbArc
50
4.196124
51
90.000002
0
ARC
5
2ec
100
AcDbEntity
8
0
100
AcDbCircle
6
CONTINUOUS
62
5
10
113.378021
20
176.599998
40
1.500000
100
AcDbArc
50
4.196124
51
90.000002
0
ARC
5
2ed
100
AcDbEntity
8
0
100
AcDbCircle
6
CONTINUOUS
62
5
10
113.378021
20
176.599998
40
1.400000
100
AcDbArc
50
4.196124
51
90.000002
0
ARC
5
2ee
100
AcDbEntity
8
0
100
AcDbCircle
6
CONTINUOUS
62
5
10
105.199997
20
176.000000
40
9.500000
100
AcDbArc
50
-3.047638
51
6.379370
0
ARC
5
2ef
100
AcDbEntity
8
0
100
AcDbCircle
6
CONTINUOUS
62
5
10
114.144272
20
177.000000
40
0.500000
100
AcDbArc
50
6.379370
51
90.000002
0
ARC
5
2f0
100
AcDbEntity
8
0
100
AcDbCircle
6
CONTINUOUS
62
5
10
105.199997
20
176.000000
40
9.600000
100
AcDbArc
50
-3.047638
51
6.379370
0
ARC
5
2f1
100
AcDbEntity
8
0
100
AcDbCircle
6
CONTINUOUS
62
5
10
114.144272
20
177.000000
40
0.600000
100
AcDbArc
50
6.379370
51
90.000002
0
ARC
5
2f2
100
AcDbEntity
8
0
100
AcDbCircle
6
CONTINUOUS
62
5
10
114.144272
20
177.000000
40
0.700000
100
AcDbArc
50
6.379370
51
90.000002
0
ARC
5
2f3
100
AcDbEntity
8
0
100
AcDbCircle
6
CONTINUOUS
62
5
10
113.378021
20
176.599998
40
1.200000
100
AcDbArc
50
4.196124
51
90.000002
0
ARC
5
2f4
100
AcDbEntity
8
0
100
AcDbCircle
6
CONTINUOUS
62
5
10
113.378021
20
176.599998
40
1.100000
100
AcDbArc
50
4.196124
51
90.000002
0
ARC
5
2f5
100
AcDbEntity
8
0
100
AcDbCircle
6
CONTINUOUS
62
5
10
113.378021
20
176.599998
40
1.000000
100
AcDbArc
50
4.196124
51
90.000002
0
ARC
5
2f6
100
AcDbEntity
8
0
100
AcDbCircle
6
CONTINUOUS
62
5
10
105.199997
20
176.000000
40
9.300000
100
AcDbArc
50
-3.047638
51
6.379370
0
ARC
5
2f7
100
AcDbEntity
8
0
100
AcDbCircle
6
CONTINUOUS
62
5
10
105.199997
20
176.000000
40
9.400000
100
AcDbArc
50
-3.047638
51
6.379370
0
ARC
5
2f8
100
AcDbEntity
8
0
100
AcDbCircle
6
CONTINUOUS
62
5
10
114.144272
20
177.000000
40
0.300000
100
AcDbArc
50
6.379370
51
90.000002
0
ARC
5
2f9
100
AcDbEntity
8
0
100
AcDbCircle
6
CONTINUOUS
62
5
10
114.144272
20
177.000000
40
0.400000
100
AcDbArc
50
6.379370
51
90.000002
0
ARC
5
2fa
100
AcDbEntity
8
0
100
AcDbCircle
6
CONTINUOUS
62
5
10
105.199997
20
176.000000
40
9.200000
100
AcDbArc
50
-1.335339
51
4.196124
0
ARC
5
2fb
100
AcDbEntity
8
0
100
AcDbCircle
6
CONTINUOUS
62
5
10
114.144272
20
177.000000
40
0.200000
100
AcDbArc
50
-24.435553
51
79.566867
0
ARC
5
2fc
100
AcDbEntity
8
0
100
AcDbCircle
6
CONTINUOUS
62
5
10
114.144272
20
177.000000
40
0.900000
100
AcDbArc
50
6.379370
51
90.000002
0
ARC
5
2fd
100
AcDbEntity
8
0
100
AcDbCircle
6
CONTINUOUS
62
5
10
105.199997
20
176.000000
40
9.900000
100
AcDbArc
50
-3.047638
51
6.379370
0
ARC
5
2fe
100
AcDbEntity
8
0
100
AcDbCircle
6
CONTINUOUS
62
5
10
114.144272
20
177.000000
40
1.000000
100
AcDbArc
50
6.379370
51
100.654974
0
ARC
5
2ff
100
AcDbEntity
8
0
100
AcDbCircle
6
CONTINUOUS
62
5
10
114.144272
20
179.000000
40
0.800000
100
AcDbArc
50
-90.000002
51
-6.379370
0
ARC
5
300
100
AcDbEntity
8
0
100
AcDbCircle
6
CONTINUOUS
62
5
10
113.378021
20
179.400002
40
1.300000
100
AcDbArc
50
-90.000002
51
-4.196124
0
ARC
5
301
100
AcDbEntity
8
0
100
AcDbCircle
6
CONTINUOUS
62
5
10
113.378021
20
179.400002
40
1.500000
100
AcDbArc
50
-90.000002
51
-4.196124
0
ARC
5
302
100
AcDbEntity
8
0
100
AcDbCircle
6
CONTINUOUS
62
5
10
113.378021
20
179.400002
40
1.400000
100
AcDbArc
50
-90.000002
51
-4.196124
0
ARC
5
303
100
AcDbEntity
8
0
100
AcDbCircle
6
CONTINUOUS
62
5
10
114.144272
20
179.000000
40
0.500000
100
AcDbArc
50
-90.000002
51
-6.379370
0
ARC
5
304
100
AcDbEntity
8
0
100
AcDbCircle
6
CONTINUOUS
62
5
10
114.144272
20
179.000000
40
0.600000
100
AcDbArc
50
-90.000002
51
-6.379370
0
ARC
5
305
100
AcDbEntity
8
0
100
AcDbCircle
6
CONTINUOUS
62
5
10
114.144272
20
179.000000
40
0.700000
100
AcDbArc
50
-90.000002
51
-6.379370
0
ARC
5
306
100
AcDbEntity
8
0
100
AcDbCircle
6
CONTINUOUS
62
5
10
113.378021
20
179.400002
40
1.200000
100
AcDbArc
50
-90.000002
51
-4.196124
0
ARC
5
307
100
AcDbEntity
8
0
100
AcDbCircle
6
CONTINUOUS
62
5
10
113.378021
20
179.400002
40
1.100000
100
AcDbArc
50
-90.000002
51
-4.196124
0
ARC
5
308
100
AcDbEntity
8
0
100
AcDbCircle
6
CONTINUOUS
62
5
10
113.378021
20
179.400002
40
1.000000
100
AcDbArc
50
-90.000002
51
-4.196124
0
ARC
5
309
100
AcDbEntity
8
0
100
AcDbCircle
6
CONTINUOUS
62
5
10
114.144272
20
179.000000
40
0.300000
100
AcDbArc
50
-90.000002
51
-6.379370
0
ARC
5
30a
100
AcDbEntity
8
0
100
AcDbCircle
6
CONTINUOUS
62
5
10
114.144272
20
179.000000
40
0.400000
100
AcDbArc
50
-90.000002
51
-6.379370
0
ARC
5
30b
100
AcDbEntity
8
0
100
AcDbCircle
6
CONTINUOUS
62
5
10
114.144272
20
179.000000
40
0.200000
100
AcDbArc
50
-79.566867
51
24.435553
0
ARC
5
30c
100
AcDbEntity
8
0
100
AcDbCircle
6
CONTINUOUS
62
5
10
114.144272
20
179.000000
40
0.900000
100
AcDbArc
50
-90.000002
51
-6.379370
0
ARC
5
30d
100
AcDbEntity
8
0
100
AcDbCircle
6
CONTINUOUS
62
5
10
114.144272
20
179.000000
40
1.000000
100
AcDbArc
50
-90.000002
51
-6.379370
0
LINE
5
30e
100
AcDbEntity
8
0
100
AcDbLine
6
CONTINUOUS
62
5
10
113.800003
20
168.699997
11
113.800003
21
164.300003
0
ARC
5
30f
100
AcDbEntity
8
0
100
AcDbCircle
6
CONTINUOUS
62
5
10
113.199997
20
178.000000
40
3.700000
100
AcDbArc
50
-106.260203
51
-78.744103
0
ARC
5
310
100
AcDbEntity
8
0
100
AcDbCircle
6
CONTINUOUS
62
5
10
113.199997
20
178.000000
40
3.800000
100
AcDbArc
50
-106.260203
51
-78.744103
0
ARC
5
311
100
AcDbEntity
8
0
100
AcDbCircle
6
CONTINUOUS
62
5
10
113.199997
20
178.000000
40
3.900000
100
AcDbArc
50
-106.260203
51
-78.744103
0
ARC
5
312
100
AcDbEntity
8
0
100
AcDbCircle
6
CONTINUOUS
62
5
10
113.199997
20
178.000000
40
4.000000
100
AcDbArc
50
-106.260203
51
-78.744103
0
ARC
5
313
100
AcDbEntity
8
0
100
AcDbCircle
6
CONTINUOUS
62
5
10
113.199997
20
178.000000
40
3.200000
100
AcDbArc
50
-106.260203
51
-84.842328
0
ARC
5
314
100
AcDbEntity
8
0
100
AcDbCircle
6
CONTINUOUS
62
5
10
112.500000
20
175.599998
40
0.800000
100
AcDbArc
50
179.999990
51
-106.260193
0
ARC
5
315
100
AcDbEntity
8
0
100
AcDbCircle
6
CONTINUOUS
62
5
10
112.500000
20
175.599998
40
0.700000
100
AcDbArc
50
179.999990
51
-106.260193
0
ARC
5
316
100
AcDbEntity
8
0
100
AcDbCircle
6
CONTINUOUS
62
5
10
113.397766
20
175.808907
40
1.000000
100
AcDbArc
50
-84.842328
51
-1.335339
0
ARC
5
317
100
AcDbEntity
8
0
100
AcDbCircle
6
CONTINUOUS
62
5
10
113.687973
20
175.548088
40
0.700000
100
AcDbArc
50
-78.744103
51
-3.047638
0
ARC
5
318
100
AcDbEntity
8
0
100
AcDbCircle
6
CONTINUOUS
62
5
10
113.199997
20
178.000000
40
3.300000
100
AcDbArc
50
-106.260203
51
-78.744103
0
ARC
5
319
100
AcDbEntity
8
0
100
AcDbCircle
6
CONTINUOUS
62
5
10
113.199997
20
178.000000
40
3.400000
100
AcDbArc
50
-106.260203
51
-78.744103
0
ARC
5
31a
100
AcDbEntity
8
0
100
AcDbCircle
6
CONTINUOUS
62
5
10
113.199997
20
178.000000
40
3.500000
100
AcDbArc
50
-106.260203
51
-78.744103
0
ARC
5
31b
100
AcDbEntity
8
0
100
AcDbCircle
6
CONTINUOUS
62
5
10
113.199997
20
178.000000
40
3.600000
100
AcDbArc
50
-106.260203
51
-78.744103
0
ARC
5
31c
100
AcDbEntity
8
0
100
AcDbCircle
6
CONTINUOUS
62
5
10
112.500000
20
175.599998
40
1.000000
100
AcDbArc
50
179.999990
51
-106.260193
0
ARC
5
31d
100
AcDbEntity
8
0
100
AcDbCircle
6
CONTINUOUS
62
5
10
112.500000
20
175.599998
40
1.100000
100
AcDbArc
50
179.999990
51
-106.260193
0
ARC
5
31e
100
AcDbEntity
8
0
100
AcDbCircle
6
CONTINUOUS
62
5
10
112.500000
20
175.599998
40
1.200000
100
AcDbArc
50
179.999990
51
-106.260193
0
ARC
5
31f
100
AcDbEntity
8
0
100
AcDbCircle
6
CONTINUOUS
62
5
10
112.500000
20
175.599998
40
1.300000
100
AcDbArc
50
179.999990
51
-106.260193
0
ARC
5
320
100
AcDbEntity
8
0
100
AcDbCircle
6
CONTINUOUS
62
5
10
112.500000
20
175.599998
40
1.400000
100
AcDbArc
50
179.999990
51
-106.260193
0
ARC
5
321
100
AcDbEntity
8
0
100
AcDbCircle
6
CONTINUOUS
62
5
10
112.500000
20
175.599998
40
1.500000
100
AcDbArc
50
179.999990
51
-106.260193
0
ARC
5
322
100
AcDbEntity
8
0
100
AcDbCircle
6
CONTINUOUS
62
5
10
112.500000
20
175.599998
40
0.900000
100
AcDbArc
50
179.999990
51
-106.260193
0
ARC
5
323
100
AcDbEntity
8
0
100
AcDbCircle
6
CONTINUOUS
62
5
10
113.687973
20
175.548088
40
1.300000
100
AcDbArc
50
-78.744103
51
-3.047638
0
ARC
5
324
100
AcDbEntity
8
0
100
AcDbCircle
6
CONTINUOUS
62
5
10
113.687973
20
175.548088
40
1.000000
100
AcDbArc
50
-78.744103
51
-3.047638
0
ARC
5
325
100
AcDbEntity
8
0
100
AcDbCircle
6
CONTINUOUS
62
5
10
113.687973
20
175.548088
40
1.100000
100
AcDbArc
50
-78.744103
51
-3.047638
0
ARC
5
326
100
AcDbEntity
8
0
100
AcDbCircle
6
CONTINUOUS
62
5
10
113.687973
20
175.548088
40
1.200000
100
AcDbArc
50
-78.744103
51
-3.047638
0
ARC
5
327
100
AcDbEntity
8
0
100
AcDbCircle
6
CONTINUOUS
62
5
10
113.687973
20
175.548088
40
0.800000
100
AcDbArc
50
-78.744103
51
-3.047638
0
ARC
5
328
100
AcDbEntity
8
0
100
AcDbCircle
6
CONTINUOUS
62
5
10
113.687973
20
175.548088
40
0.900000
100
AcDbArc
50
-78.744103
51
-3.047638
0
ARC
5
329
100
AcDbEntity
8
0
100
AcDbCircle
6
CONTINUOUS
62
5
10
113.687973
20
175.548088
40
1.400000
100
AcDbArc
50
-78.744103
51
-3.047638
0
ARC
5
32a
100
AcDbEntity
8
0
100
AcDbCircle
6
CONTINUOUS
62
5
10
113.687973
20
175.548088
40
1.500000
100
AcDbArc
50
-78.744103
51
-3.047638
0
ARC
5
32b
100
AcDbEntity
8
0
100
AcDbCircle
6
CONTINUOUS
62
5
10
119.461800
20
175.558617
40
0.600000
100
AcDbArc
50
-172.416759
51
-102.432005
0
ARC
5
32c
100
AcDbEntity
8
0
100
AcDbCircle
6
CONTINUOUS
62
5
10
119.461800
20
175.558617
40
0.500000
100
AcDbArc
50
-172.416759
51
-102.432005
0
ARC
5
32d
100
AcDbEntity
8
0
100
AcDbCircle
6
CONTINUOUS
62
5
10
119.461800
20
175.558617
40
0.700000
100
AcDbArc
50
-172.416759
51
-102.432005
0
ARC
5
32e
100
AcDbEntity
8
0
100
AcDbCircle
6
CONTINUOUS
62
5
10
119.461800
20
175.558617
40
1.300000
100
AcDbArc
50
-172.416759
51
-102.432005
0
ARC
5
32f
100
AcDbEntity
8
0
100
AcDbCircle
6
CONTINUOUS
62
5
10
119.461800
20
175.558617
40
0.800000
100
AcDbArc
50
-172.416759
51
-102.432005
0
ARC
5
330
100
AcDbEntity
8
0
100
AcDbCircle
6
CONTINUOUS
62
5
10
119.461800
20
175.558617
40
0.900000
100
AcDbArc
50
-172.416759
51
-102.432005
0
ARC
5
331
100
AcDbEntity
8
0
100
AcDbCircle
6
CONTINUOUS
62
5
10
119.461800
20
175.558617
40
1.000000
100
AcDbArc
50
-172.416759
51
-102.432005
0
ARC
5
332
100
AcDbEntity
8
0
100
AcDbCircle
6
CONTINUOUS
62
5
10
119.461800
20
175.558617
40
1.100000
100
AcDbArc
50
-172.416759
51
-102.432005
0
ARC
5
333
100
AcDbEntity
8
0
100
AcDbCircle
6
CONTINUOUS
62
5
10
119.461800
20
175.558617
40
1.200000
100
AcDbArc
50
-172.416759
51
-102.432005
0
ARC
5
334
100
AcDbEntity
8
0
100
AcDbCircle
6
CONTINUOUS
62
5
10
119.461800
20
175.558617
40
1.400000
100
AcDbArc
50
-172.416759
51
-102.432005
0
ARC
5
335
100
AcDbEntity
8
0
100
AcDbCircle
6
CONTINUOUS
62
5
10
119.461800
20
175.558617
40
1.500000
100
AcDbArc
50
-172.416759
51
-102.432005
0
LINE
5
336
100
AcDbEntity
8
0
100
AcDbLine
6
CONTINUOUS
62
5
10
119.349998
20
160.650002
11
120.650002
21
160.650002
0
ARC
5
337
100
AcDbEntity
8
0
100
AcDbCircle
6
CONTINUOUS
62
5
10
120.000000
20
178.000000
40
3.700000
100
AcDbArc
50
-102.432005
51
-77.567992
0
ARC
5
338
100
AcDbEntity
8
0
100
AcDbCircle
6
CONTINUOUS
62
5
10
120.000000
20
178.000000
40
3.800000
100
AcDbArc
50
-102.432005
51
-77.567992
0
ARC
5
339
100
AcDbEntity
8
0
100
AcDbCircle
6
CONTINUOUS
62
5
10
120.000000
20
178.000000
40
3.900000
100
AcDbArc
50
-102.432005
51
-77.567992
0
ARC
5
33a
100
AcDbEntity
8
0
100
AcDbCircle
6
CONTINUOUS
62
5
10
120.000000
20
178.000000
40
4.000000
100
AcDbArc
50
-102.432005
51
-77.567992
0
ARC
5
33b
100
AcDbEntity
8
0
100
AcDbCircle
6
CONTINUOUS
62
5
10
120.000000
20
178.000000
40
3.600000
100
AcDbArc
50
-102.432005
51
-77.567992
0
ARC
5
33c
100
AcDbEntity
8
0
100
AcDbCircle
6
CONTINUOUS
62
5
10
120.000000
20
178.000000
40
3.100000
100
AcDbArc
50
-102.432005
51
-77.567992
0
ARC
5
33d
100
AcDbEntity
8
0
100
AcDbCircle
6
CONTINUOUS
62
5
10
120.000000
20
178.000000
40
3.200000
100
AcDbArc
50
-102.432005
51
-77.567992
0
ARC
5
33e
100
AcDbEntity
8
0
100
AcDbCircle
6
CONTINUOUS
62
5
10
120.000000
20
178.000000
40
3.000000
100
AcDbArc
50
-102.432005
51
-77.567992
0
ARC
5
33f
100
AcDbEntity
8
0
100
AcDbCircle
6
CONTINUOUS
62
5
10
120.000000
20
178.000000
40
3.300000
100
AcDbArc
50
-102.432005
51
-77.567992
0
ARC
5
340
100
AcDbEntity
8
0
100
AcDbCircle
6
CONTINUOUS
62
5
10
120.000000
20
178.000000
40
3.400000
100
AcDbArc
50
-102.432005
51
-77.567992
0
ARC
5
341
100
AcDbEntity
8
0
100
AcDbCircle
6
CONTINUOUS
62
5
10
120.000000
20
178.000000
40
3.500000
100
AcDbArc
50
-102.432005
51
-77.567992
0
LINE
5
342
100
AcDbEntity
8
0
100
AcDbLine
6
CONTINUOUS
62
5
10
100.800003
20
168.699997
11
100.800003
21
164.300003
0
LINE
5
343
100
AcDbEntity
8
0
100
AcDbLine
6
CONTINUOUS
62
5
10
100.800003
20
166.500000
11
113.800003
21
166.500000
0
POLYLINE
5
344
100
AcDbEntity
8
0
6
CONTINUOUS
62
5
100
AcDb2dPolyline
66
1
10
0.0
20
0.0
30
0.0
70
1
0
VERTEX
5
345
100
AcDbEntity
8
0
100
AcDbVertex
100
AcDb2dVertex
62
5
10
100.000000
20
168.699997
0
VERTEX
5
346
100
AcDbEntity
8
0
100
AcDbVertex
100
AcDb2dVertex
62
5
10
114.600006
20
168.699997
0
VERTEX
5
347
100
AcDbEntity
8
0
100
AcDbVertex
100
AcDb2dVertex
62
5
10
114.600006
20
164.300003
0
VERTEX
5
348
100
AcDbEntity
8
0
100
AcDbVertex
100
AcDb2dVertex
62
5
10
100.000000
20
164.300003
0
SEQEND
5
349
100
AcDbEntity
8
0
0
ARC
5
34a
100
AcDbEntity
8
0
100
AcDbCircle
6
CONTINUOUS
62
5
10
119.999944
20
158.500053
40
5.999923
100
AcDbArc
50
124.517977
51
140.703556
0
LINE
5
34b
100
AcDbEntity
8
0
100
AcDbLine
6
CONTINUOUS
62
5
10
116.599998
20
163.443680
11
116.600006
21
168.699997
0
ARC
5
34c
100
AcDbEntity
8
0
100
AcDbCircle
6
CONTINUOUS
62
5
10
114.600006
20
168.699997
40
2.000000
100
AcDbArc
50
0.000000
51
90.000002
0
LINE
5
34d
100
AcDbEntity
8
0
100
AcDbLine
6
CONTINUOUS
62
5
10
114.600006
20
170.699997
11
100.000000
21
170.699997
0
ARC
5
34e
100
AcDbEntity
8
0
100
AcDbCircle
6
CONTINUOUS
62
5
10
100.000000
20
168.699997
40
2.000000
100
AcDbArc
50
89.999999
51
179.999998
0
LINE
5
34f
100
AcDbEntity
8
0
100
AcDbLine
6
CONTINUOUS
62
5
10
98.000000
20
168.699997
11
98.000000
21
164.300003
0
ARC
5
350
100
AcDbEntity
8
0
100
AcDbCircle
6
CONTINUOUS
62
5
10
100.000000
20
164.300003
40
2.000000
100
AcDbArc
50
-179.999998
51
-89.999999
0
LINE
5
351
100
AcDbEntity
8
0
100
AcDbLine
6
CONTINUOUS
62
5
10
100.000000
20
162.300003
11
115.356726
21
162.300001
0
LINE
5
352
100
AcDbEntity
8
0
100
AcDbLine
6
CONTINUOUS
62
5
10
123.150002
20
148.601852
11
123.150002
21
141.750000
0
LINE
5
353
100
AcDbEntity
8
0
100
AcDbLine
6
CONTINUOUS
62
5
10
116.849998
20
148.601852
11
116.849998
21
141.750000
0
LINE
5
354
100
AcDbEntity
8
0
100
AcDbLine
6
CONTINUOUS
62
5
10
119.349998
20
156.349998
11
120.650002
21
156.349998
0
ARC
5
355
100
AcDbEntity
8
0
100
AcDbCircle
6
CONTINUOUS
62
5
10
120.000000
20
145.900000
40
4.150002
100
AcDbArc
50
0.000020
51
179.999979
0
POLYLINE
5
356
100
AcDbEntity
8
0
6
CONTINUOUS
62
5
100
AcDb2dPolyline
66
1
10
0.0
20
0.0
30
0.0
70
0
0
VERTEX
5
357
100
AcDbEntity
8
0
100
AcDbVertex
100
AcDb2dVertex
62
5
10
115.849998
20
145.900002
0
VERTEX
5
358
100
AcDbEntity
8
0
100
AcDbVertex
100
AcDb2dVertex
62
5
10
115.849998
20
141.750000
0
VERTEX
5
359
100
AcDbEntity
8
0
100
AcDbVertex
100
AcDb2dVertex
62
5
10
124.150002
20
141.750000
0
VERTEX
5
35a
100
AcDbEntity
8
0
100
AcDbVertex
100
AcDb2dVertex
62
5
10
124.150002
20
145.900002
0
SEQEND
5
35b
100
AcDbEntity
8
0
0
ARC
5
35c
100
AcDbEntity
8
0
100
AcDbCircle
6
CONTINUOUS
62
5
10
120.000000
20
145.900002
40
6.150000
100
AcDbArc
50
0.000000
51
-179.999993
0
LINE
5
35d
100
AcDbEntity
8
0
100
AcDbLine
6
CONTINUOUS
62
5
10
113.850000
20
145.900001
11
113.850006
21
141.750000
0
ARC
5
35e
100
AcDbEntity
8
0
100
AcDbCircle
6
CONTINUOUS
62
5
10
115.849996
20
141.749990
40
1.999990
100
AcDbArc
50
179.999704
51
-89.999923
0
LINE
5
35f
100
AcDbEntity
8
0
100
AcDbLine
6
CONTINUOUS
62
5
10
115.849998
20
139.750000
11
124.150002
21
139.750000
0
ARC
5
360
100
AcDbEntity
8
0
100
AcDbCircle
6
CONTINUOUS
62
5
10
124.150002
20
141.750000
40
2.000000
100
AcDbArc
50
-89.999999
51
-0.000000
0
LINE
5
361
100
AcDbEntity
8
0
100
AcDbLine
6
CONTINUOUS
62
5
10
126.150002
20
141.750000
11
126.150000
21
145.900002
0
ARC
5
362
100
AcDbEntity
8
0
100
AcDbCircle
6
CONTINUOUS
62
5
10
121.150002
20
157.500000
40
0.500000
100
AcDbArc
50
90.000002
51
-179.999993
0
POLYLINE
5
363
100
AcDbEntity
8
0
6
CONTINUOUS
62
5
100
AcDb2dPolyline
66
1
10
0.0
20
0.0
30
0.0
70
0
0
VERTEX
5
364
100
AcDbEntity
8
0
100
AcDbVertex
100
AcDb2dVertex
62
5
10
121.150002
20
158.000000
0
VERTEX
5
365
100
AcDbEntity
8
0
100
AcDbVertex
100
AcDb2dVertex
62
5
10
122.150002
20
158.000000
0
VERTEX
5
366
100
AcDbEntity
8
0
100
AcDbVertex
100
AcDb2dVertex
62
5
10
122.150002
20
159.000000
0
VERTEX
5
367
100
AcDbEntity
8
0
100
AcDbVertex
100
AcDb2dVertex
62
5
10
121.150002
20
159.000000
0
SEQEND
5
368
100
AcDbEntity
8
0
0
ARC
5
369
100
AcDbEntity
8
0
100
AcDbCircle
6
CONTINUOUS
62
5
10
121.150002
20
159.500000
40
0.500000
100
AcDbArc
50
-179.999998
51
-89.999999
0
LINE
5
36a
100
AcDbEntity
8
0
100
AcDbLine
6
CONTINUOUS
62
5
10
120.650002
20
159.500000
11
120.650002
21
162.952805
0
LINE
5
36b
100
AcDbEntity
8
0
100
AcDbLine
6
CONTINUOUS
62
5
10
120.650002
20
154.047195
11
120.650002
21
157.500000
0
ARC
5
36c
100
AcDbEntity
8
0
100
AcDbCircle
6
CONTINUOUS
62
5
10
118.849998
20
157.500000
40
0.500000
100
AcDbArc
50
-0.000005
51
89.999997
0
POLYLINE
5
36d
100
AcDbEntity
8
0
6
CONTINUOUS
62
5
100
AcDb2dPolyline
66
1
10
0.0
20
0.0
30
0.0
70
0
0
VERTEX
5
36e
100
AcDbEntity
8
0
100
AcDbVertex
100
AcDb2dVertex
62
5
10
118.849998
20
158.000000
0
VERTEX
5
36f
100
AcDbEntity
8
0
100
AcDbVertex
100
AcDb2dVertex
62
5
10
117.849998
20
158.000000
0
VERTEX
5
370
100
AcDbEntity
8
0
100
AcDbVertex
100
AcDb2dVertex
62
5
10
117.849998
20
159.000000
0
VERTEX
5
371
100
AcDbEntity
8
0
100
AcDbVertex
100
AcDb2dVertex
62
5
10
118.849998
20
159.000000
0
SEQEND
5
372
100
AcDbEntity
8
0
0
ARC
5
373
100
AcDbEntity
8
0
100
AcDbCircle
6
CONTINUOUS
62
5
10
118.849998
20
159.500000
40
0.500000
100
AcDbArc
50
-90.000000
51
-0.000000
0
LINE
5
374
100
AcDbEntity
8
0
100
AcDbLine
6
CONTINUOUS
62
5
10
119.349998
20
159.500000
11
119.349998
21
162.952805
0
LINE
5
375
100
AcDbEntity
8
0
100
AcDbLine
6
CONTINUOUS
62
5
10
119.349998
20
154.047195
11
119.349998
21
157.500000
0
CIRCLE
5
376
100
AcDbEntity
8
0
100
AcDbCircle
6
CONTINUOUS
62
5
10
120.000000
20
158.500000
40
4.650000
0
CIRCLE
5
377
100
AcDbEntity
8
0
100
AcDbCircle
6
CONTINUOUS
62
5
10
120.000000
20
158.500000
40
4.500000
0
LINE
5
378
100
AcDbEntity
8
0
100
AcDbLine
6
CONTINUOUS
62
5
10
125.382500
20
176.400002
11
127.617500
21
176.400002
0
LINE
5
379
100
AcDbEntity
8
0
100
AcDbLine
6
CONTINUOUS
62
5
10
125.382500
20
176.300003
11
127.617500
21
176.300003
0
LINE
5
37a
100
AcDbEntity
8
0
100
AcDbLine
6
CONTINUOUS
62
5
10
125.382500
20
176.200005
11
127.617500
21
176.200005
0
LINE
5
37b
100
AcDbEntity
8
0
100
AcDbLine
6
CONTINUOUS
62
5
10
125.382500
20
176.100006
11
127.617500
21
176.100006
0
LINE
5
37c
100
AcDbEntity
8
0
100
AcDbLine
6
CONTINUOUS
62
5
10
125.382500
20
176.000000
11
127.617500
21
176.000000
0
LINE
5
37d
100
AcDbEntity
8
0
100
AcDbLine
6
CONTINUOUS
62
5
10
125.382500
20
175.900002
11
127.617500
21
175.900002
0
LINE
5
37e
100
AcDbEntity
8
0
100
AcDbLine
6
CONTINUOUS
62
5
10
125.382500
20
175.800003
11
127.617500
21
175.800003
0
LINE
5
37f
100
AcDbEntity
8
0
100
AcDbLine
6
CONTINUOUS
62
5
10
125.382500
20
176.500000
11
127.617500
21
176.500000
0
LINE
5
380
100
AcDbEntity
8
0
100
AcDbLine
6
CONTINUOUS
62
5
10
125.552498
20
176.599998
11
127.447502
21
176.599998
0
LINE
5
381
100
AcDbEntity
8
0
100
AcDbLine
6
CONTINUOUS
62
5
10
126.199997
20
166.500000
11
139.199997
21
166.500000
0
POLYLINE
5
382
100
AcDbEntity
8
0
6
CONTINUOUS
62
5
100
AcDb2dPolyline
66
1
10
0.0
20
0.0
30
0.0
70
1
0
VERTEX
5
383
100
AcDbEntity
8
0
100
AcDbVertex
100
AcDb2dVertex
62
5
10
140.000000
20
164.300003
0
VERTEX
5
384
100
AcDbEntity
8
0
100
AcDbVertex
100
AcDb2dVertex
62
5
10
125.400002
20
164.300003
0
VERTEX
5
385
100
AcDbEntity
8
0
100
AcDbVertex
100
AcDb2dVertex
62
5
10
125.400002
20
168.699997
0
VERTEX
5
386
100
AcDbEntity
8
0
100
AcDbVertex
100
AcDb2dVertex
62
5
10
140.000000
20
168.699997
0
SEQEND
5
387
100
AcDbEntity
8
0
0
ARC
5
388
100
AcDbEntity
8
0
100
AcDbCircle
6
CONTINUOUS
62
5
10
120.000059
20
158.500055
40
5.999920
100
AcDbArc
50
39.296437
51
55.482026
0
LINE
5
389
100
AcDbEntity
8
0
100
AcDbLine
6
CONTINUOUS
62
5
10
123.400002
20
163.443680
11
123.399994
21
168.699997
0
ARC
5
38a
100
AcDbEntity
8
0
100
AcDbCircle
6
CONTINUOUS
62
5
10
125.399994
20
168.699997
40
2.000000
100
AcDbArc
50
89.999997
51
179.999998
0
LINE
5
38b
100
AcDbEntity
8
0
100
AcDbLine
6
CONTINUOUS
62
5
10
125.399994
20
170.699997
11
140.000000
21
170.699997
0
ARC
5
38c
100
AcDbEntity
8
0
100
AcDbCircle
6
CONTINUOUS
62
5
10
140.000000
20
168.699997
40
2.000000
100
AcDbArc
50
0.000000
51
89.999999
0
LINE
5
38d
100
AcDbEntity
8
0
100
AcDbLine
6
CONTINUOUS
62
5
10
142.000000
20
168.699997
11
142.000000
21
164.300003
0
ARC
5
38e
100
AcDbEntity
8
0
100
AcDbCircle
6
CONTINUOUS
62
5
10
140.000000
20
164.300003
40
2.000000
100
AcDbArc
50
-90.000000
51
-0.000000
0
LINE
5
38f
100
AcDbEntity
8
0
100
AcDbLine
6
CONTINUOUS
62
5
10
140.000000
20
162.300003
11
124.643274
21
162.300001
0
LINE
5
390
100
AcDbEntity
8
0
100
AcDbLine
6
CONTINUOUS
62
5
10
127.617496
20
175.799998
11
127.999995
21
174.000002
0
ARC
5
391
100
AcDbEntity
8
0
100
AcDbCircle
6
CONTINUOUS
62
5
10
151.000000
20
129.000000
40
13.750000
100
AcDbArc
50
-90.000002
51
-0.000000
0
ARC
5
392
100
AcDbEntity
8
0
100
AcDbCircle
6
CONTINUOUS
62
5
10
139.000000
20
126.000000
40
1.000000
100
AcDbArc
50
-89.999999
51
0.000000
0
LINE
5
393
100
AcDbEntity
8
0
100
AcDbLine
6
CONTINUOUS
62
5
10
140.000000
20
126.000000
11
140.000000
21
129.000000
0
ARC
5
394
100
AcDbEntity
8
0
100
AcDbCircle
6
CONTINUOUS
62
5
10
139.000000
20
129.000000
40
1.000000
100
AcDbArc
50
-0.000000
51
90.000002
0
LINE
5
395
100
AcDbEntity
8
0
100
AcDbLine
6
CONTINUOUS
62
5
10
139.000000
20
130.000000
11
101.000000
21
130.000000
0
ARC
5
396
100
AcDbEntity
8
0
100
AcDbCircle
6
CONTINUOUS
62
5
10
101.000000
20
129.000000
40
1.000000
100
AcDbArc
50
89.999999
51
-179.999998
0
LINE
5
397
100
AcDbEntity
8
0
100
AcDbLine
6
CONTINUOUS
62
5
10
100.000000
20
129.000000
11
100.000000
21
126.000000
0
ARC
5
398
100
AcDbEntity
8
0
100
AcDbCircle
6
CONTINUOUS
62
5
10
101.000000
20
126.000000
40
1.000000
100
AcDbArc
50
-179.999998
51
-89.999999
0
LINE
5
399
100
AcDbEntity
8
0
100
AcDbLine
6
CONTINUOUS
62
5
10
101.000000
20
125.000000
11
139.000000
21
125.000000
0
POLYLINE
5
39a
100
AcDbEntity
8
0
6
DOT2
62
5
100
AcDb2dPolyline
66
1
10
0.0
20
0.0
30
0.0
70
0
0
VERTEX
5
39b
100
AcDbEntity
8
0
100
AcDbVertex
100
AcDb2dVertex
62
5
10
45.312500
20
159.375000
0
VERTEX
5
39c
100
AcDbEntity
8
0
100
AcDbVertex
100
AcDb2dVertex
62
5
10
45.312500
20
159.375000
0
VERTEX
5
39d
100
AcDbEntity
8
0
100
AcDbVertex
100
AcDb2dVertex
62
5
10
45.625000
20
158.125000
0
VERTEX
5
39e
100
AcDbEntity
8
0
100
AcDbVertex
100
AcDb2dVertex
62
5
10
45.625000
20
157.187500
0
VERTEX
5
39f
100
AcDbEntity
8
0
100
AcDbVertex
100
AcDb2dVertex
62
5
10
45.312500
20
156.562500
0
VERTEX
5
3a0
100
AcDbEntity
8
0
100
AcDbVertex
100
AcDb2dVertex
62
5
10
44.375000
20
156.250000
0
VERTEX
5
3a1
100
AcDbEntity
8
0
100
AcDbVertex
100
AcDb2dVertex
62
5
10
42.812500
20
156.250000
0
VERTEX
5
3a2
100
AcDbEntity
8
0
100
AcDbVertex
100
AcDb2dVertex
62
5
10
41.875000
20
156.562500
0
VERTEX
5
3a3
100
AcDbEntity
8
0
100
AcDbVertex
100
AcDb2dVertex
62
5
10
41.562500
20
156.875000
0
VERTEX
5
3a4
100
AcDbEntity
8
0
100
AcDbVertex
100
AcDb2dVertex
62
5
10
41.250000
20
157.500000
0
VERTEX
5
3a5
100
AcDbEntity
8
0
100
AcDbVertex
100
AcDb2dVertex
62
5
10
41.250000
20
158.125000
0
VERTEX
5
3a6
100
AcDbEntity
8
0
100
AcDbVertex
100
AcDb2dVertex
62
5
10
41.562500
20
158.750000
0
VERTEX
5
3a7
100
AcDbEntity
8
0
100
AcDbVertex
100
AcDb2dVertex
62
5
10
41.875000
20
159.062500
0
VERTEX
5
3a8
100
AcDbEntity
8
0
100
AcDbVertex
100
AcDb2dVertex
62
5
10
42.812500
20
159.375000
0
VERTEX
5
3a9
100
AcDbEntity
8
0
100
AcDbVertex
100
AcDb2dVertex
62
5
10
46.250000
20
159.375000
0
VERTEX
5
3aa
100
AcDbEntity
8
0
100
AcDbVertex
100
AcDb2dVertex
62
5
10
47.812500
20
159.062500
0
VERTEX
5
3ab
100
AcDbEntity
8
0
100
AcDbVertex
100
AcDb2dVertex
62
5
10
48.437500
20
158.437500
0
VERTEX
5
3ac
100
AcDbEntity
8
0
100
AcDbVertex
100
AcDb2dVertex
62
5
10
48.750000
20
157.500000
0
VERTEX
5
3ad
100
AcDbEntity
8
0
100
AcDbVertex
100
AcDb2dVertex
62
5
10
48.750000
20
156.875000
0
SEQEND
5
3ae
100
AcDbEntity
8
0
0
POLYLINE
5
3af
100
AcDbEntity
8
0
6
DOT2
62
5
100
AcDb2dPolyline
66
1
10
0.0
20
0.0
30
0.0
70
1
0
VERTEX
5
3b0
100
AcDbEntity
8
0
100
AcDbVertex
100
AcDb2dVertex
62
5
10
41.250000
20
162.500000
0
VERTEX
5
3b1
100
AcDbEntity
8
0
100
AcDbVertex
100
AcDb2dVertex
62
5
10
41.250000
20
163.125000
0
VERTEX
5
3b2
100
AcDbEntity
8
0
100
AcDbVertex
100
AcDb2dVertex
62
5
10
41.562500
20
163.437500
0
VERTEX
5
3b3
100
AcDbEntity
8
0
100
AcDbVertex
100
AcDb2dVertex
62
5
10
42.812500
20
164.062500
0
VERTEX
5
3b4
100
AcDbEntity
8
0
100
AcDbVertex
100
AcDb2dVertex
62
5
10
44.062500
20
164.375000
0
VERTEX
5
3b5
100
AcDbEntity
8
0
100
AcDbVertex
100
AcDb2dVertex
62
5
10
45.937500
20
164.375000
0
VERTEX
5
3b6
100
AcDbEntity
8
0
100
AcDbVertex
100
AcDb2dVertex
62
5
10
47.187500
20
164.062500
0
VERTEX
5
3b7
100
AcDbEntity
8
0
100
AcDbVertex
100
AcDb2dVertex
62
5
10
48.437500
20
163.437500
0
VERTEX
5
3b8
100
AcDbEntity
8
0
100
AcDbVertex
100
AcDb2dVertex
62
5
10
48.750000
20
163.125000
0
VERTEX
5
3b9
100
AcDbEntity
8
0
100
AcDbVertex
100
AcDb2dVertex
62
5
10
48.750000
20
162.500000
0
VERTEX
5
3ba
100
AcDbEntity
8
0
100
AcDbVertex
100
AcDb2dVertex
62
5
10
48.437500
20
162.187500
0
VERTEX
5
3bb
100
AcDbEntity
8
0
100
AcDbVertex
100
AcDb2dVertex
62
5
10
47.187500
20
161.562500
0
VERTEX
5
3bc
100
AcDbEntity
8
0
100
AcDbVertex
100
AcDb2dVertex
62
5
10
45.937500
20
161.250000
0
VERTEX
5
3bd
100
AcDbEntity
8
0
100
AcDbVertex
100
AcDb2dVertex
62
5
10
44.062500
20
161.250000
0
VERTEX
5
3be
100
AcDbEntity
8
0
100
AcDbVertex
100
AcDb2dVertex
62
5
10
42.812500
20
161.562500
0
VERTEX
5
3bf
100
AcDbEntity
8
0
100
AcDbVertex
100
AcDb2dVertex
62
5
10
41.562500
20
162.187500
0
VERTEX
5
3c0
100
AcDbEntity
8
0
100
AcDbVertex
100
AcDb2dVertex
62
5
10
41.250000
20
162.500000
0
SEQEND
5
3c1
100
AcDbEntity
8
0
0
LINE
5
3c2
100
AcDbEntity
8
1
100
AcDbLine
6
CONTINUOUS
62
5
10
127.500000
20
42.000000
11
130.625000
21
42.000000
0
POLYLINE
5
3c3
100
AcDbEntity
8
1
6
CONTINUOUS
62
5
100
AcDb2dPolyline
66
1
10
0.0
20
0.0
30
0.0
70
0
0
VERTEX
5
3c4
100
AcDbEntity
8
1
100
AcDbVertex
100
AcDb2dVertex
62
5
10
112.500000
20
43.875000
0
VERTEX
5
3c5
100
AcDbEntity
8
1
100
AcDbVertex
100
AcDb2dVertex
62
5
10
112.812500
20
45.125000
0
VERTEX
5
3c6
100
AcDbEntity
8
1
100
AcDbVertex
100
AcDb2dVertex
62
5
10
113.437500
20
45.750000
0
VERTEX
5
3c7
100
AcDbEntity
8
1
100
AcDbVertex
100
AcDb2dVertex
62
5
10
114.375000
20
45.750000
0
VERTEX
5
3c8
100
AcDbEntity
8
1
100
AcDbVertex
100
AcDb2dVertex
62
5
10
115.000000
20
45.437500
0
VERTEX
5
3c9
100
AcDbEntity
8
1
100
AcDbVertex
100
AcDb2dVertex
62
5
10
115.312500
20
44.500000
0
VERTEX
5
3ca
100
AcDbEntity
8
1
100
AcDbVertex
100
AcDb2dVertex
62
5
10
115.312500
20
43.250000
0
VERTEX
5
3cb
100
AcDbEntity
8
1
100
AcDbVertex
100
AcDb2dVertex
62
5
10
115.000000
20
42.625000
0
VERTEX
5
3cc
100
AcDbEntity
8
1
100
AcDbVertex
100
AcDb2dVertex
62
5
10
114.375000
20
42.000000
0
VERTEX
5
3cd
100
AcDbEntity
8
1
100
AcDbVertex
100
AcDb2dVertex
62
5
10
113.437500
20
42.000000
0
SEQEND
5
3ce
100
AcDbEntity
8
1
0
POLYLINE
5
3cf
100
AcDbEntity
8
1
6
CONTINUOUS
62
5
100
AcDb2dPolyline
66
1
10
0.0
20
0.0
30
0.0
70
0
0
VERTEX
5
3d0
100
AcDbEntity
8
1
100
AcDbVertex
100
AcDb2dVertex
62
5
10
114.375000
20
42.000000
0
VERTEX
5
3d1
100
AcDbEntity
8
1
100
AcDbVertex
100
AcDb2dVertex
62
5
10
115.312500
20
41.375000
0
VERTEX
5
3d2
100
AcDbEntity
8
1
100
AcDbVertex
100
AcDb2dVertex
62
5
10
115.625000
20
40.437500
0
VERTEX
5
3d3
100
AcDbEntity
8
1
100
AcDbVertex
100
AcDb2dVertex
62
5
10
115.625000
20
39.500000
0
VERTEX
5
3d4
100
AcDbEntity
8
1
100
AcDbVertex
100
AcDb2dVertex
62
5
10
115.312500
20
38.875000
0
VERTEX
5
3d5
100
AcDbEntity
8
1
100
AcDbVertex
100
AcDb2dVertex
62
5
10
114.375000
20
38.250000
0
VERTEX
5
3d6
100
AcDbEntity
8
1
100
AcDbVertex
100
AcDb2dVertex
62
5
10
113.437500
20
38.250000
0
VERTEX
5
3d7
100
AcDbEntity
8
1
100
AcDbVertex
100
AcDb2dVertex
62
5
10
112.812500
20
38.562500
0
VERTEX
5
3d8
100
AcDbEntity
8
1
100
AcDbVertex
100
AcDb2dVertex
62
5
10
112.187500
20
39.500000
0
SEQEND
5
3d9
100
AcDbEntity
8
1
0
POLYLINE
5
3da
100
AcDbEntity
8
1
6
CONTINUOUS
62
5
100
AcDb2dPolyline
66
1
10
0.0
20
0.0
30
0.0
70
1
0
VERTEX
5
3db
100
AcDbEntity
8
1
100
AcDbVertex
100
AcDb2dVertex
62
5
10
118.750000
20
45.750000
0
VERTEX
5
3dc
100
AcDbEntity
8
1
100
AcDbVertex
100
AcDb2dVertex
62
5
10
119.375000
20
45.750000
0
VERTEX
5
3dd
100
AcDbEntity
8
1
100
AcDbVertex
100
AcDb2dVertex
62
5
10
119.687500
20
45.437500
0
VERTEX
5
3de
100
AcDbEntity
8
1
100
AcDbVertex
100
AcDb2dVertex
62
5
10
120.312500
20
44.187500
0
VERTEX
5
3df
100
AcDbEntity
8
1
100
AcDbVertex
100
AcDb2dVertex
62
5
10
120.625000
20
42.937500
0
VERTEX
5
3e0
100
AcDbEntity
8
1
100
AcDbVertex
100
AcDb2dVertex
62
5
10
120.625000
20
41.062500
0
VERTEX
5
3e1
100
AcDbEntity
8
1
100
AcDbVertex
100
AcDb2dVertex
62
5
10
120.312500
20
39.812500
0
VERTEX
5
3e2
100
AcDbEntity
8
1
100
AcDbVertex
100
AcDb2dVertex
62
5
10
119.687500
20
38.562500
0
VERTEX
5
3e3
100
AcDbEntity
8
1
100
AcDbVertex
100
AcDb2dVertex
62
5
10
119.375000
20
38.250000
0
VERTEX
5
3e4
100
AcDbEntity
8
1
100
AcDbVertex
100
AcDb2dVertex
62
5
10
118.750000
20
38.250000
0
VERTEX
5
3e5
100
AcDbEntity
8
1
100
AcDbVertex
100
AcDb2dVertex
62
5
10
118.437500
20
38.562500
0
VERTEX
5
3e6
100
AcDbEntity
8
1
100
AcDbVertex
100
AcDb2dVertex
62
5
10
117.812500
20
39.812500
0
VERTEX
5
3e7
100
AcDbEntity
8
1
100
AcDbVertex
100
AcDb2dVertex
62
5
10
117.500000
20
41.062500
0
VERTEX
5
3e8
100
AcDbEntity
8
1
100
AcDbVertex
100
AcDb2dVertex
62
5
10
117.500000
20
42.937500
0
VERTEX
5
3e9
100
AcDbEntity
8
1
100
AcDbVertex
100
AcDb2dVertex
62
5
10
117.812500
20
44.187500
0
VERTEX
5
3ea
100
AcDbEntity
8
1
100
AcDbVertex
100
AcDb2dVertex
62
5
10
118.437500
20
45.437500
0
VERTEX
5
3eb
100
AcDbEntity
8
1
100
AcDbVertex
100
AcDb2dVertex
62
5
10
118.750000
20
45.750000
0
SEQEND
5
3ec
100
AcDbEntity
8
1
0
POLYLINE
5
3ed
100
AcDbEntity
8
1
6
CONTINUOUS
62
5
100
AcDb2dPolyline
66
1
10
0.0
20
0.0
30
0.0
70
0
0
VERTEX
5
3ee
100
AcDbEntity
8
1
100
AcDbVertex
100
AcDb2dVertex
62
5
10
122.500000
20
38.250000
0
VERTEX
5
3ef
100
AcDbEntity
8
1
100
AcDbVertex
100
AcDb2dVertex
62
5
10
124.062500
20
45.750000
0
VERTEX
5
3f0
100
AcDbEntity
8
1
100
AcDbVertex
100
AcDb2dVertex
62
5
10
125.625000
20
38.250000
0
SEQEND
5
3f1
100
AcDbEntity
8
1
0
LINE
5
3f2
100
AcDbEntity
8
1
100
AcDbLine
6
CONTINUOUS
62
5
10
123.125000
20
40.750000
11
125.000000
21
40.750000
0
POLYLINE
5
3f3
100
AcDbEntity
8
1
6
CONTINUOUS
62
5
100
AcDb2dPolyline
66
1
10
0.0
20
0.0
30
0.0
70
0
0
VERTEX
5
3f4
100
AcDbEntity
8
1
100
AcDbVertex
100
AcDb2dVertex
62
5
10
132.500000
20
43.562500
0
VERTEX
5
3f5
100
AcDbEntity
8
1
100
AcDbVertex
100
AcDb2dVertex
62
5
10
132.812500
20
45.125000
0
VERTEX
5
3f6
100
AcDbEntity
8
1
100
AcDbVertex
100
AcDb2dVertex
62
5
10
133.750000
20
45.750000
0
VERTEX
5
3f7
100
AcDbEntity
8
1
100
AcDbVertex
100
AcDb2dVertex
62
5
10
134.687500
20
45.750000
0
VERTEX
5
3f8
100
AcDbEntity
8
1
100
AcDbVertex
100
AcDb2dVertex
62
5
10
135.312500
20
45.437500
0
VERTEX
5
3f9
100
AcDbEntity
8
1
100
AcDbVertex
100
AcDb2dVertex
62
5
10
135.625000
20
44.500000
0
VERTEX
5
3fa
100
AcDbEntity
8
1
100
AcDbVertex
100
AcDb2dVertex
62
5
10
135.625000
20
43.562500
0
VERTEX
5
3fb
100
AcDbEntity
8
1
100
AcDbVertex
100
AcDb2dVertex
62
5
10
135.312500
20
42.625000
0
VERTEX
5
3fc
100
AcDbEntity
8
1
100
AcDbVertex
100
AcDb2dVertex
62
5
10
132.500000
20
38.250000
0
VERTEX
5
3fd
100
AcDbEntity
8
1
100
AcDbVertex
100
AcDb2dVertex
62
5
10
135.625000
20
38.250000
0
VERTEX
5
3fe
100
AcDbEntity
8
1
100
AcDbVertex
100
AcDb2dVertex
62
5
10
135.625000
20
39.187500
0
SEQEND
5
3ff
100
AcDbEntity
8
1
0
LINE
5
400
100
AcDbEntity
8
1
100
AcDbLine
6
CONTINUOUS
62
5
10
137.500000
20
45.750000
11
140.312500
21
45.750000
0
POLYLINE
5
401
100
AcDbEntity
8
1
6
CONTINUOUS
62
5
100
AcDb2dPolyline
66
1
10
0.0
20
0.0
30
0.0
70
0
0
VERTEX
5
402
100
AcDbEntity
8
1
100
AcDbVertex
100
AcDb2dVertex
62
5
10
137.500000
20
45.750000
0
VERTEX
5
403
100
AcDbEntity
8
1
100
AcDbVertex
100
AcDb2dVertex
62
5
10
137.500000
20
42.000000
0
VERTEX
5
404
100
AcDbEntity
8
1
100
AcDbVertex
100
AcDb2dVertex
62
5
10
138.125000
20
42.625000
0
VERTEX
5
405
100
AcDbEntity
8
1
100
AcDbVertex
100
AcDb2dVertex
62
5
10
138.750000
20
42.937500
0
VERTEX
5
406
100
AcDbEntity
8
1
100
AcDbVertex
100
AcDb2dVertex
62
5
10
139.687500
20
42.937500
0
VERTEX
5
407
100
AcDbEntity
8
1
100
AcDbVertex
100
AcDb2dVertex
62
5
10
140.312500
20
42.625000
0
VERTEX
5
408
100
AcDbEntity
8
1
100
AcDbVertex
100
AcDb2dVertex
62
5
10
140.625000
20
41.687500
0
VERTEX
5
409
100
AcDbEntity
8
1
100
AcDbVertex
100
AcDb2dVertex
62
5
10
140.625000
20
39.812500
0
VERTEX
5
40a
100
AcDbEntity
8
1
100
AcDbVertex
100
AcDb2dVertex
62
5
10
140.000000
20
38.875000
0
VERTEX
5
40b
100
AcDbEntity
8
1
100
AcDbVertex
100
AcDb2dVertex
62
5
10
139.062500
20
38.250000
0
VERTEX
5
40c
100
AcDbEntity
8
1
100
AcDbVertex
100
AcDb2dVertex
62
5
10
137.500000
20
38.250000
0
SEQEND
5
40d
100
AcDbEntity
8
1
0
POLYLINE
5
40e
100
AcDbEntity
8
1
6
CONTINUOUS
62
5
100
AcDb2dPolyline
66
1
10
0.0
20
0.0
30
0.0
70
1
0
VERTEX
5
40f
100
AcDbEntity
8
1
100
AcDbVertex
100
AcDb2dVertex
62
5
10
143.750000
20
45.750000
0
VERTEX
5
410
100
AcDbEntity
8
1
100
AcDbVertex
100
AcDb2dVertex
62
5
10
144.375000
20
45.750000
0
VERTEX
5
411
100
AcDbEntity
8
1
100
AcDbVertex
100
AcDb2dVertex
62
5
10
144.687500
20
45.437500
0
VERTEX
5
412
100
AcDbEntity
8
1
100
AcDbVertex
100
AcDb2dVertex
62
5
10
145.312500
20
44.187500
0
VERTEX
5
413
100
AcDbEntity
8
1
100
AcDbVertex
100
AcDb2dVertex
62
5
10
145.625000
20
42.937500
0
VERTEX
5
414
100
AcDbEntity
8
1
100
AcDbVertex
100
AcDb2dVertex
62
5
10
145.625000
20
41.062500
0
VERTEX
5
415
100
AcDbEntity
8
1
100
AcDbVertex
100
AcDb2dVertex
62
5
10
145.312500
20
39.812500
0
VERTEX
5
416
100
AcDbEntity
8
1
100
AcDbVertex
100
AcDb2dVertex
62
5
10
144.687500
20
38.562500
0
VERTEX
5
417
100
AcDbEntity
8
1
100
AcDbVertex
100
AcDb2dVertex
62
5
10
144.375000
20
38.250000
0
VERTEX
5
418
100
AcDbEntity
8
1
100
AcDbVertex
100
AcDb2dVertex
62
5
10
143.750000
20
38.250000
0
VERTEX
5
419
100
AcDbEntity
8
1
100
AcDbVertex
100
AcDb2dVertex
62
5
10
143.437500
20
38.562500
0
VERTEX
5
41a
100
AcDbEntity
8
1
100
AcDbVertex
100
AcDb2dVertex
62
5
10
142.812500
20
39.812500
0
VERTEX
5
41b
100
AcDbEntity
8
1
100
AcDbVertex
100
AcDb2dVertex
62
5
10
142.500000
20
41.062500
0
VERTEX
5
41c
100
AcDbEntity
8
1
100
AcDbVertex
100
AcDb2dVertex
62
5
10
142.500000
20
42.937500
0
VERTEX
5
41d
100
AcDbEntity
8
1
100
AcDbVertex
100
AcDb2dVertex
62
5
10
142.812500
20
44.187500
0
VERTEX
5
41e
100
AcDbEntity
8
1
100
AcDbVertex
100
AcDb2dVertex
62
5
10
143.437500
20
45.437500
0
VERTEX
5
41f
100
AcDbEntity
8
1
100
AcDbVertex
100
AcDb2dVertex
62
5
10
143.750000
20
45.750000
0
SEQEND
5
420
100
AcDbEntity
8
1
0
POLYLINE
5
421
100
AcDbEntity
8
1
6
CONTINUOUS
62
5
100
AcDb2dPolyline
66
1
10
0.0
20
0.0
30
0.0
70
0
0
VERTEX
5
422
100
AcDbEntity
8
1
100
AcDbVertex
100
AcDb2dVertex
62
5
10
147.500000
20
45.750000
0
VERTEX
5
423
100
AcDbEntity
8
1
100
AcDbVertex
100
AcDb2dVertex
62
5
10
149.062500
20
38.250000
0
VERTEX
5
424
100
AcDbEntity
8
1
100
AcDbVertex
100
AcDb2dVertex
62
5
10
150.625000
20
45.750000
0
SEQEND
5
425
100
AcDbEntity
8
1
0
POLYLINE
5
426
100
AcDbEntity
8
1
6
CONTINUOUS
62
5
100
AcDb2dPolyline
66
1
10
0.0
20
0.0
30
0.0
70
0
0
VERTEX
5
427
100
AcDbEntity
8
1
100
AcDbVertex
100
AcDb2dVertex
62
5
10
157.500000
20
38.250000
0
VERTEX
5
428
100
AcDbEntity
8
1
100
AcDbVertex
100
AcDb2dVertex
62
5
10
159.062500
20
45.750000
0
VERTEX
5
429
100
AcDbEntity
8
1
100
AcDbVertex
100
AcDb2dVertex
62
5
10
160.625000
20
38.250000
0
SEQEND
5
42a
100
AcDbEntity
8
1
0
LINE
5
42b
100
AcDbEntity
8
1
100
AcDbLine
6
CONTINUOUS
62
5
10
158.125000
20
40.750000
11
160.000000
21
40.750000
0
POLYLINE
5
42c
100
AcDbEntity
8
1
6
CONTINUOUS
62
5
100
AcDb2dPolyline
66
1
10
0.0
20
0.0
30
0.0
70
0
0
VERTEX
5
42d
100
AcDbEntity
8
1
100
AcDbVertex
100
AcDb2dVertex
62
5
10
165.625000
20
44.187500
0
VERTEX
5
42e
100
AcDbEntity
8
1
100
AcDbVertex
100
AcDb2dVertex
62
5
10
165.312500
20
45.125000
0
VERTEX
5
42f
100
AcDbEntity
8
1
100
AcDbVertex
100
AcDb2dVertex
62
5
10
164.687500
20
45.750000
0
VERTEX
5
430
100
AcDbEntity
8
1
100
AcDbVertex
100
AcDb2dVertex
62
5
10
163.750000
20
45.750000
0
VERTEX
5
431
100
AcDbEntity
8
1
100
AcDbVertex
100
AcDb2dVertex
62
5
10
162.812500
20
44.812500
0
VERTEX
5
432
100
AcDbEntity
8
1
100
AcDbVertex
100
AcDb2dVertex
62
5
10
162.500000
20
43.250000
0
VERTEX
5
433
100
AcDbEntity
8
1
100
AcDbVertex
100
AcDb2dVertex
62
5
10
162.500000
20
40.750000
0
VERTEX
5
434
100
AcDbEntity
8
1
100
AcDbVertex
100
AcDb2dVertex
62
5
10
162.812500
20
39.187500
0
VERTEX
5
435
100
AcDbEntity
8
1
100
AcDbVertex
100
AcDb2dVertex
62
5
10
163.750000
20
38.250000
0
VERTEX
5
436
100
AcDbEntity
8
1
100
AcDbVertex
100
AcDb2dVertex
62
5
10
164.687500
20
38.250000
0
VERTEX
5
437
100
AcDbEntity
8
1
100
AcDbVertex
100
AcDb2dVertex
62
5
10
165.312500
20
38.875000
0
VERTEX
5
438
100
AcDbEntity
8
1
100
AcDbVertex
100
AcDb2dVertex
62
5
10
165.937500
20
40.437500
0
SEQEND
5
439
100
AcDbEntity
8
1
0
LINE
5
43a
100
AcDbEntity
8
1
100
AcDbLine
6
CONTINUOUS
62
5
10
100.000000
20
54.000000
11
100.000000
21
30.000000
0
LINE
5
43b
100
AcDbEntity
8
1
100
AcDbLine
6
CONTINUOUS
62
5
10
64.687500
20
46.375000
11
64.687500
21
45.437500
0
POLYLINE
5
43c
100
AcDbEntity
8
1
6
CONTINUOUS
62
5
100
AcDb2dPolyline
66
1
10
0.0
20
0.0
30
0.0
70
0
0
VERTEX
5
43d
100
AcDbEntity
8
1
100
AcDbVertex
100
AcDb2dVertex
62
5
10
60.937500
20
43.250000
0
VERTEX
5
43e
100
AcDbEntity
8
1
100
AcDbVertex
100
AcDb2dVertex
62
5
10
60.937500
20
45.437500
0
VERTEX
5
43f
100
AcDbEntity
8
1
100
AcDbVertex
100
AcDb2dVertex
62
5
10
68.437500
20
45.437500
0
VERTEX
5
440
100
AcDbEntity
8
1
100
AcDbVertex
100
AcDb2dVertex
62
5
10
68.437500
20
43.250000
0
SEQEND
5
441
100
AcDbEntity
8
1
0
LINE
5
442
100
AcDbEntity
8
1
100
AcDbLine
6
CONTINUOUS
62
5
10
61.875000
20
43.562500
11
67.500000
21
43.562500
0
LINE
5
443
100
AcDbEntity
8
1
100
AcDbLine
6
CONTINUOUS
62
5
10
64.687500
20
43.562500
11
64.687500
21
38.250000
0
LINE
5
444
100
AcDbEntity
8
1
100
AcDbLine
6
CONTINUOUS
62
5
10
64.687500
20
41.062500
11
67.500000
21
41.062500
0
POLYLINE
5
445
100
AcDbEntity
8
1
6
CONTINUOUS
62
5
100
AcDb2dPolyline
66
1
10
0.0
20
0.0
30
0.0
70
0
0
VERTEX
5
446
100
AcDbEntity
8
1
100
AcDbVertex
100
AcDb2dVertex
62
5
10
62.500000
20
41.687500
0
VERTEX
5
447
100
AcDbEntity
8
1
100
AcDbVertex
100
AcDb2dVertex
62
5
10
62.187500
20
39.812500
0
VERTEX
5
448
100
AcDbEntity
8
1
100
AcDbVertex
100
AcDb2dVertex
62
5
10
61.562500
20
38.562500
0
VERTEX
5
449
100
AcDbEntity
8
1
100
AcDbVertex
100
AcDb2dVertex
62
5
10
60.625000
20
37.625000
0
SEQEND
5
44a
100
AcDbEntity
8
1
0
POLYLINE
5
44b
100
AcDbEntity
8
1
6
CONTINUOUS
62
5
100
AcDb2dPolyline
66
1
10
0.0
20
0.0
30
0.0
70
0
0
VERTEX
5
44c
100
AcDbEntity
8
1
100
AcDbVertex
100
AcDb2dVertex
62
5
10
62.187500
20
39.812500
0
VERTEX
5
44d
100
AcDbEntity
8
1
100
AcDbVertex
100
AcDb2dVertex
62
5
10
64.687500
20
38.250000
0
VERTEX
5
44e
100
AcDbEntity
8
1
100
AcDbVertex
100
AcDb2dVertex
62
5
10
65.937500
20
37.937500
0
VERTEX
5
44f
100
AcDbEntity
8
1
100
AcDbVertex
100
AcDb2dVertex
62
5
10
69.062500
20
37.625000
0
SEQEND
5
450
100
AcDbEntity
8
1
0
LINE
5
451
100
AcDbEntity
8
1
100
AcDbLine
6
CONTINUOUS
62
5
10
80.625000
20
44.187500
11
83.750000
21
44.187500
0
LINE
5
452
100
AcDbEntity
8
1
100
AcDbLine
6
CONTINUOUS
62
5
10
82.500000
20
46.375000
11
82.500000
21
37.625000
0
POLYLINE
5
453
100
AcDbEntity
8
1
6
CONTINUOUS
62
5
100
AcDb2dPolyline
66
1
10
0.0
20
0.0
30
0.0
70
0
0
VERTEX
5
454
100
AcDbEntity
8
1
100
AcDbVertex
100
AcDb2dVertex
62
5
10
82.500000
20
44.187500
0
VERTEX
5
455
100
AcDbEntity
8
1
100
AcDbVertex
100
AcDb2dVertex
62
5
10
81.562500
20
42.000000
0
VERTEX
5
456
100
AcDbEntity
8
1
100
AcDbVertex
100
AcDb2dVertex
62
5
10
80.625000
20
40.750000
0
SEQEND
5
457
100
AcDbEntity
8
1
0
LINE
5
458
100
AcDbEntity
8
1
100
AcDbLine
6
CONTINUOUS
62
5
10
82.500000
20
43.250000
11
83.437500
21
42.000000
0
POLYLINE
5
459
100
AcDbEntity
8
1
6
CONTINUOUS
62
5
100
AcDb2dPolyline
66
1
10
0.0
20
0.0
30
0.0
70
0
0
VERTEX
5
45a
100
AcDbEntity
8
1
100
AcDbVertex
100
AcDb2dVertex
62
5
10
85.937500
20
46.375000
0
VERTEX
5
45b
100
AcDbEntity
8
1
100
AcDbVertex
100
AcDb2dVertex
62
5
10
85.312500
20
45.125000
0
VERTEX
5
45c
100
AcDbEntity
8
1
100
AcDbVertex
100
AcDb2dVertex
62
5
10
83.750000
20
43.250000
0
SEQEND
5
45d
100
AcDbEntity
8
1
0
POLYLINE
5
45e
100
AcDbEntity
8
1
6
CONTINUOUS
62
5
100
AcDb2dPolyline
66
1
10
0.0
20
0.0
30
0.0
70
0
0
VERTEX
5
45f
100
AcDbEntity
8
1
100
AcDbVertex
100
AcDb2dVertex
62
5
10
85.312500
20
45.125000
0
VERTEX
5
460
100
AcDbEntity
8
1
100
AcDbVertex
100
AcDb2dVertex
62
5
10
88.437500
20
45.125000
0
VERTEX
5
461
100
AcDbEntity
8
1
100
AcDbVertex
100
AcDb2dVertex
62
5
10
87.500000
20
43.562500
0
VERTEX
5
462
100
AcDbEntity
8
1
100
AcDbVertex
100
AcDb2dVertex
62
5
10
85.937500
20
42.000000
0
VERTEX
5
463
100
AcDbEntity
8
1
100
AcDbVertex
100
AcDb2dVertex
62
5
10
83.750000
20
40.750000
0
SEQEND
5
464
100
AcDbEntity
8
1
0
POLYLINE
5
465
100
AcDbEntity
8
1
6
CONTINUOUS
62
5
100
AcDb2dPolyline
66
1
10
0.0
20
0.0
30
0.0
70
0
0
VERTEX
5
466
100
AcDbEntity
8
1
100
AcDbVertex
100
AcDb2dVertex
62
5
10
85.312500
20
45.125000
0
VERTEX
5
467
100
AcDbEntity
8
1
100
AcDbVertex
100
AcDb2dVertex
62
5
10
85.937500
20
43.562500
0
VERTEX
5
468
100
AcDbEntity
8
1
100
AcDbVertex
100
AcDb2dVertex
62
5
10
87.187500
20
42.000000
0
VERTEX
5
469
100
AcDbEntity
8
1
100
AcDbVertex
100
AcDb2dVertex
62
5
10
88.125000
20
41.375000
0
VERTEX
5
46a
100
AcDbEntity
8
1
100
AcDbVertex
100
AcDb2dVertex
62
5
10
89.375000
20
40.750000
0
SEQEND
5
46b
100
AcDbEntity
8
1
0
POLYLINE
5
46c
100
AcDbEntity
8
1
6
CONTINUOUS
62
5
100
AcDb2dPolyline
66
1
10
0.0
20
0.0
30
0.0
70
1
0
VERTEX
5
46d
100
AcDbEntity
8
1
100
AcDbVertex
100
AcDb2dVertex
62
5
10
85.000000
20
40.750000
0
VERTEX
5
46e
100
AcDbEntity
8
1
100
AcDbVertex
100
AcDb2dVertex
62
5
10
85.000000
20
37.937500
0
VERTEX
5
46f
100
AcDbEntity
8
1
100
AcDbVertex
100
AcDb2dVertex
62
5
10
88.437500
20
37.937500
0
VERTEX
5
470
100
AcDbEntity
8
1
100
AcDbVertex
100
AcDb2dVertex
62
5
10
88.437500
20
40.750000
0
VERTEX
5
471
100
AcDbEntity
8
1
100
AcDbVertex
100
AcDb2dVertex
62
5
10
85.000000
20
40.750000
0
SEQEND
5
472
100
AcDbEntity
8
1
0
POLYLINE
5
473
100
AcDbEntity
8
1
6
CONTINUOUS
62
5
100
AcDb2dPolyline
66
1
10
0.0
20
0.0
30
0.0
70
1
0
VERTEX
5
474
100
AcDbEntity
8
1
100
AcDbVertex
100
AcDb2dVertex
62
5
10
290.000000
20
30.000000
0
VERTEX
5
475
100
AcDbEntity
8
1
100
AcDbVertex
100
AcDb2dVertex
62
5
10
290.000000
20
54.000000
0
VERTEX
5
476
100
AcDbEntity
8
1
100
AcDbVertex
100
AcDb2dVertex
62
5
10
50.000000
20
54.000000
0
VERTEX
5
477
100
AcDbEntity
8
1
100
AcDbVertex
100
AcDb2dVertex
62
5
10
50.000000
20
30.000000
0
VERTEX
5
478
100
AcDbEntity
8
1
100
AcDbVertex
100
AcDb2dVertex
62
5
10
290.000000
20
30.000000
0
SEQEND
5
479
100
AcDbEntity
8
1
0
LINE
5
47a
100
AcDbEntity
8
0
100
AcDbLine
6
CONTINUOUS
62
5
10
87.500000
20
205.000000
11
48.000000
21
205.000000
0
LINE
5
47b
100
AcDbEntity
8
0
100
AcDbLine
6
CONTINUOUS
62
5
10
87.500000
20
115.000000
11
48.000000
21
115.000000
0
POLYLINE
5
47c
100
AcDbEntity
8
0
6
CONTINUOUS
62
5
100
AcDb2dPolyline
66
1
10
0.0
20
0.0
30
0.0
70
0
0
VERTEX
5
47d
100
AcDbEntity
8
0
100
AcDbVertex
100
AcDb2dVertex
62
5
10
50.000000
20
160.000000
0
VERTEX
5
47e
100
AcDbEntity
8
0
100
AcDbVertex
100
AcDb2dVertex
62
5
10
50.000000
20
115.000000
0
VERTEX
5
47f
100
AcDbEntity
8
0
100
AcDbVertex
100
AcDb2dVertex
62
5
10
49.000000
20
121.000000
0
VERTEX
5
480
100
AcDbEntity
8
0
100
AcDbVertex
100
AcDb2dVertex
62
5
10
51.000000
20
121.000000
0
VERTEX
5
481
100
AcDbEntity
8
0
100
AcDbVertex
100
AcDb2dVertex
62
5
10
50.000000
20
115.000000
0
VERTEX
5
482
100
AcDbEntity
8
0
100
AcDbVertex
100
AcDb2dVertex
62
5
10
49.500000
20
121.000000
0
VERTEX
5
483
100
AcDbEntity
8
0
100
AcDbVertex
100
AcDb2dVertex
62
5
10
50.500000
20
121.000000
0
VERTEX
5
484
100
AcDbEntity
8
0
100
AcDbVertex
100
AcDb2dVertex
62
5
10
50.000000
20
115.000000
0
SEQEND
5
485
100
AcDbEntity
8
0
0
POLYLINE
5
486
100
AcDbEntity
8
0
6
CONTINUOUS
62
5
100
AcDb2dPolyline
66
1
10
0.0
20
0.0
30
0.0
70
0
0
VERTEX
5
487
100
AcDbEntity
8
0
100
AcDbVertex
100
AcDb2dVertex
62
5
10
50.000000
20
160.000000
0
VERTEX
5
488
100
AcDbEntity
8
0
100
AcDbVertex
100
AcDb2dVertex
62
5
10
50.000000
20
205.000000
0
VERTEX
5
489
100
AcDbEntity
8
0
100
AcDbVertex
100
AcDb2dVertex
62
5
10
51.000000
20
199.000000
0
VERTEX
5
48a
100
AcDbEntity
8
0
100
AcDbVertex
100
AcDb2dVertex
62
5
10
49.000000
20
199.000000
0
VERTEX
5
48b
100
AcDbEntity
8
0
100
AcDbVertex
100
AcDb2dVertex
62
5
10
50.000000
20
205.000000
0
VERTEX
5
48c
100
AcDbEntity
8
0
100
AcDbVertex
100
AcDb2dVertex
62
5
10
50.500000
20
199.000000
0
VERTEX
5
48d
100
AcDbEntity
8
0
100
AcDbVertex
100
AcDb2dVertex
62
5
10
49.500000
20
199.000000
0
VERTEX
5
48e
100
AcDbEntity
8
0
100
AcDbVertex
100
AcDb2dVertex
62
5
10
50.000000
20
205.000000
0
SEQEND
5
48f
100
AcDbEntity
8
0
0
LINE
5
490
100
AcDbEntity
8
0
100
AcDbLine
6
CONTINUOUS
62
5
10
126.499995
20
181.058825
11
127.447496
21
176.599998
0
LINE
5
491
100
AcDbEntity
8
0
100
AcDbLine
6
CONTINUOUS
62
5
10
125.552502
20
176.599995
11
126.500003
21
181.058826
0
ARC
5
492
100
AcDbEntity
8
0
100
AcDbCircle
6
CONTINUOUS
62
5
10
102.199997
20
178.000000
40
19.100000
100
AcDbArc
50
-7.583244
51
7.583244
0
ARC
5
493
100
AcDbEntity
8
0
100
AcDbCircle
6
CONTINUOUS
62
5
10
102.199997
20
178.000000
40
19.200001
100
AcDbArc
50
-7.583244
51
7.583244
0
ARC
5
494
100
AcDbEntity
8
0
100
AcDbCircle
6
CONTINUOUS
62
5
10
102.199997
20
178.000000
40
19.000000
100
AcDbArc
50
-7.583244
51
7.583244
0
ARC
5
495
100
AcDbEntity
8
0
100
AcDbCircle
6
CONTINUOUS
62
5
10
102.199997
20
178.000000
40
19.299999
100
AcDbArc
50
-7.583244
51
7.583244
0
ARC
5
496
100
AcDbEntity
8
0
100
AcDbCircle
6
CONTINUOUS
62
5
10
102.199997
20
178.000000
40
19.400000
100
AcDbArc
50
-7.583244
51
7.583244
0
ARC
5
497
100
AcDbEntity
8
0
100
AcDbCircle
6
CONTINUOUS
62
5
10
102.199997
20
178.000000
40
19.600000
100
AcDbArc
50
-7.583244
51
7.583244
0
ARC
5
498
100
AcDbEntity
8
0
100
AcDbCircle
6
CONTINUOUS
62
5
10
102.199997
20
178.000000
40
19.500000
100
AcDbArc
50
-7.583244
51
7.583244
0
ARC
5
499
100
AcDbEntity
8
0
100
AcDbCircle
6
CONTINUOUS
62
5
10
102.199997
20
178.000000
40
19.700001
100
AcDbArc
50
-7.583244
51
7.583244
0
ARC
5
49a
100
AcDbEntity
8
0
100
AcDbCircle
6
CONTINUOUS
62
5
10
102.199997
20
178.000000
40
19.799999
100
AcDbArc
50
-7.583244
51
7.583244
0
ARC
5
49b
100
AcDbEntity
8
0
100
AcDbCircle
6
CONTINUOUS
62
5
10
102.199997
20
178.000000
40
19.900000
100
AcDbArc
50
-7.583244
51
7.583244
0
ARC
5
49c
100
AcDbEntity
8
0
100
AcDbCircle
6
CONTINUOUS
62
5
10
102.199997
20
178.000000
40
20.000000
100
AcDbArc
50
-7.583244
51
7.583244
0
LINE
5
49d
100
AcDbEntity
8
0
100
AcDbLine
6
CONTINUOUS
62
5
10
127.300000
20
182.000003
11
129.000001
21
174.000000
0
LINE
5
49e
100
AcDbEntity
8
0
100
AcDbLine
6
CONTINUOUS
62
5
10
127.197769
20
182.000002
11
128.897770
21
173.999998
0
LINE
5
49f
100
AcDbEntity
8
0
100
AcDbLine
6
CONTINUOUS
62
5
10
126.993308
20
181.999998
11
128.693307
21
174.000002
0
LINE
5
4a0
100
AcDbEntity
8
0
100
AcDbLine
6
CONTINUOUS
62
5
10
127.095538
20
182.000000
11
128.795539
21
173.999996
0
LINE
5
4a1
100
AcDbEntity
8
0
100
AcDbLine
6
CONTINUOUS
62
5
10
126.686606
20
181.999999
11
128.386606
21
173.999995
0
LINE
5
4a2
100
AcDbEntity
8
0
100
AcDbLine
6
CONTINUOUS
62
5
10
126.788837
20
182.000000
11
128.488837
21
173.999997
0
LINE
5
4a3
100
AcDbEntity
8
0
100
AcDbLine
6
CONTINUOUS
62
5
10
126.891077
20
181.999996
11
128.591076
21
174.000000
0
LINE
5
4a4
100
AcDbEntity
8
0
100
AcDbLine
6
CONTINUOUS
62
5
10
126.500005
20
181.915942
11
128.182143
21
173.999999
0
LINE
5
4a5
100
AcDbEntity
8
0
100
AcDbLine
6
CONTINUOUS
62
5
10
126.448889
20
181.675401
11
128.079912
21
173.999997
0
LINE
5
4a6
100
AcDbEntity
8
0
100
AcDbLine
6
CONTINUOUS
62
5
10
126.584375
20
181.999997
11
128.284374
21
174.000001
0
LINE
5
4a7
100
AcDbEntity
8
0
100
AcDbLine
6
CONTINUOUS
62
5
10
124.102235
20
173.999997
11
125.797820
21
181.979217
0
LINE
5
4a8
100
AcDbEntity
8
0
100
AcDbLine
6
CONTINUOUS
62
5
10
124.306698
20
173.999998
11
126.006698
21
181.999998
0
LINE
5
4a9
100
AcDbEntity
8
0
100
AcDbLine
6
CONTINUOUS
62
5
10
124.204475
20
173.999998
11
125.904475
21
181.999998
0
LINE
5
4aa
100
AcDbEntity
8
0
100
AcDbLine
6
CONTINUOUS
62
5
10
123.999996
20
173.999997
11
125.699998
21
182.000004
0
LINE
5
4ab
100
AcDbEntity
8
0
100
AcDbLine
6
CONTINUOUS
62
5
10
124.613400
20
173.999998
11
126.313400
21
181.999998
0
LINE
5
4ac
100
AcDbEntity
8
0
100
AcDbLine
6
CONTINUOUS
62
5
10
124.511161
20
173.999998
11
126.211162
21
182.000001
0
LINE
5
4ad
100
AcDbEntity
8
0
100
AcDbLine
6
CONTINUOUS
62
5
10
124.408937
20
173.999998
11
126.108937
21
181.999994
0
LINE
5
4ae
100
AcDbEntity
8
0
100
AcDbLine
6
CONTINUOUS
62
5
10
124.920102
20
173.999999
11
126.620102
21
181.999999
0
LINE
5
4af
100
AcDbEntity
8
0
100
AcDbLine
6
CONTINUOUS
62
5
10
124.817863
20
173.999998
11
126.517863
21
182.000002
0
LINE
5
4b0
100
AcDbEntity
8
0
100
AcDbLine
6
CONTINUOUS
62
5
10
124.715639
20
173.999999
11
126.415638
21
181.999995
0
ARC
5
4b1
100
AcDbEntity
8
0
100
AcDbCircle
6
CONTINUOUS
62
5
10
137.800003
20
178.000000
40
19.400000
100
AcDbArc
50
172.416759
51
-172.416749
0
ARC
5
4b2
100
AcDbEntity
8
0
100
AcDbCircle
6
CONTINUOUS
62
5
10
137.800003
20
178.000000
40
19.500000
100
AcDbArc
50
172.416759
51
-172.416749
0
ARC
5
4b3
100
AcDbEntity
8
0
100
AcDbCircle
6
CONTINUOUS
62
5
10
137.800003
20
178.000000
40
19.600000
100
AcDbArc
50
172.416759
51
-172.416749
0
ARC
5
4b4
100
AcDbEntity
8
0
100
AcDbCircle
6
CONTINUOUS
62
5
10
105.199997
20
180.000000
40
10.000000
100
AcDbArc
50
-6.379370
51
3.047638
0
ARC
5
4b5
100
AcDbEntity
8
0
100
AcDbCircle
6
CONTINUOUS
62
5
10
137.800003
20
178.000000
40
20.000000
100
AcDbArc
50
172.416759
51
-172.416749
0
ARC
5
4b6
100
AcDbEntity
8
0
100
AcDbCircle
6
CONTINUOUS
62
5
10
137.800003
20
178.000000
40
19.700001
100
AcDbArc
50
172.416759
51
-172.416749
0
ARC
5
4b7
100
AcDbEntity
8
0
100
AcDbCircle
6
CONTINUOUS
62
5
10
137.800003
20
178.000000
40
19.799999
100
AcDbArc
50
172.416759
51
-172.416749
0
ARC
5
4b8
100
AcDbEntity
8
0
100
AcDbCircle
6
CONTINUOUS
62
5
10
137.800003
20
178.000000
40
19.900000
100
AcDbArc
50
172.416759
51
-172.416749
0
LINE
5
4b9
100
AcDbEntity
8
0
100
AcDbLine
6
CONTINUOUS
62
5
10
111.500000
20
180.400002
11
111.500000
21
179.250000
0
LINE
5
4ba
100
AcDbEntity
8
0
100
AcDbLine
6
CONTINUOUS
62
5
10
111.399994
20
180.400002
11
111.399994
21
179.250000
0
LINE
5
4bb
100
AcDbEntity
8
0
100
AcDbLine
6
CONTINUOUS
62
5
10
111.300003
20
180.400002
11
111.300003
21
179.250000
0
LINE
5
4bc
100
AcDbEntity
8
0
100
AcDbLine
6
CONTINUOUS
62
5
10
111.199997
20
180.400002
11
111.199997
21
179.250000
0
LINE
5
4bd
100
AcDbEntity
8
0
100
AcDbLine
6
CONTINUOUS
62
5
10
111.100006
20
180.400002
11
111.100006
21
179.250000
0
LINE
5
4be
100
AcDbEntity
8
0
100
AcDbLine
6
CONTINUOUS
62
5
10
111.000000
20
180.400002
11
111.000000
21
179.250000
0
LINE
5
4bf
100
AcDbEntity
8
0
100
AcDbLine
6
CONTINUOUS
62
5
10
111.699997
20
180.400002
11
111.699997
21
179.250000
0
LINE
5
4c0
100
AcDbEntity
8
0
100
AcDbLine
6
CONTINUOUS
62
5
10
111.600006
20
180.400002
11
111.600006
21
179.250000
0
LINE
5
4c1
100
AcDbEntity
8
0
100
AcDbLine
6
CONTINUOUS
62
5
10
111.800003
20
180.400002
11
111.800003
21
179.250000
0
ARC
5
4c2
100
AcDbEntity
8
0
100
AcDbCircle
6
CONTINUOUS
62
5
10
113.397766
20
180.191093
40
1.000000
100
AcDbArc
50
1.335339
51
84.842328
0
ARC
5
4c3
100
AcDbEntity
8
0
100
AcDbCircle
6
CONTINUOUS
62
5
10
105.199997
20
180.000000
40
9.700000
100
AcDbArc
50
-6.379370
51
3.047638
0
ARC
5
4c4
100
AcDbEntity
8
0
100
AcDbCircle
6
CONTINUOUS
62
5
10
105.199997
20
180.000000
40
9.800000
100
AcDbArc
50
-6.379370
51
3.047638
0
ARC
5
4c5
100
AcDbEntity
8
0
100
AcDbCircle
6
CONTINUOUS
62
5
10
105.199997
20
180.000000
40
9.500000
100
AcDbArc
50
-6.379370
51
3.047638
0
ARC
5
4c6
100
AcDbEntity
8
0
100
AcDbCircle
6
CONTINUOUS
62
5
10
105.199997
20
180.000000
40
9.600000
100
AcDbArc
50
-6.379370
51
3.047638
0
ARC
5
4c7
100
AcDbEntity
8
0
100
AcDbCircle
6
CONTINUOUS
62
5
10
105.199997
20
180.000000
40
9.300000
100
AcDbArc
50
-6.379370
51
3.047638
0
ARC
5
4c8
100
AcDbEntity
8
0
100
AcDbCircle
6
CONTINUOUS
62
5
10
105.199997
20
180.000000
40
9.400000
100
AcDbArc
50
-6.379370
51
3.047638
0
ARC
5
4c9
100
AcDbEntity
8
0
100
AcDbCircle
6
CONTINUOUS
62
5
10
105.199997
20
180.000000
40
9.200000
100
AcDbArc
50
-4.196124
51
1.335339
0
ARC
5
4ca
100
AcDbEntity
8
0
100
AcDbCircle
6
CONTINUOUS
62
5
10
105.199997
20
180.000000
40
9.900000
100
AcDbArc
50
-6.379370
51
3.047638
0
ARC
5
4cb
100
AcDbEntity
8
0
100
AcDbCircle
6
CONTINUOUS
62
5
10
137.800003
20
178.000000
40
19.000000
100
AcDbArc
50
172.416759
51
-172.416749
0
ARC
5
4cc
100
AcDbEntity
8
0
100
AcDbCircle
6
CONTINUOUS
62
5
10
137.800003
20
178.000000
40
19.100000
100
AcDbArc
50
172.416759
51
-172.416749
0
ARC
5
4cd
100
AcDbEntity
8
0
100
AcDbCircle
6
CONTINUOUS
62
5
10
137.800003
20
178.000000
40
19.200001
100
AcDbArc
50
172.416759
51
-172.416749
0
ARC
5
4ce
100
AcDbEntity
8
0
100
AcDbCircle
6
CONTINUOUS
62
5
10
137.800003
20
178.000000
40
19.299999
100
AcDbArc
50
172.416759
51
-172.416749
0
ARC
5
4cf
100
AcDbEntity
8
0
100
AcDbCircle
6
CONTINUOUS
62
5
10
98.000006
20
181.000002
40
3.400000
100
AcDbArc
50
89.999999
51
179.999998
0
LINE
5
4d0
100
AcDbEntity
8
0
100
AcDbLine
6
CONTINUOUS
62
5
10
94.600006
20
181.000002
11
94.600006
21
138.999998
0
ARC
5
4d1
100
AcDbEntity
8
0
100
AcDbCircle
6
CONTINUOUS
62
5
10
98.000006
20
138.999998
40
3.400000
100
AcDbArc
50
179.999998
51
-89.999999
0
LINE
5
4d2
100
AcDbEntity
8
0
100
AcDbLine
6
CONTINUOUS
62
5
10
98.000006
20
135.599998
11
142.000002
21
135.599998
0
ARC
5
4d3
100
AcDbEntity
8
0
100
AcDbCircle
6
CONTINUOUS
62
5
10
142.000002
20
138.999998
40
3.400000
100
AcDbArc
50
-89.999999
51
0.000000
0
LINE
5
4d4
100
AcDbEntity
8
0
100
AcDbLine
6
CONTINUOUS
62
5
10
145.400002
20
138.999998
11
145.400002
21
181.000002
0
ARC
5
4d5
100
AcDbEntity
8
0
100
AcDbCircle
6
CONTINUOUS
62
5
10
142.000002
20
181.000002
40
3.400000
100
AcDbArc
50
0.000000
51
89.999999
0
LINE
5
4d6
100
AcDbEntity
8
0
100
AcDbLine
6
CONTINUOUS
62
5
10
142.000002
20
184.400002
11
98.000006
21
184.400002
0
ARC
5
4d7
100
AcDbEntity
8
0
100
AcDbCircle
6
CONTINUOUS
62
5
10
142.000000
20
139.000000
40
4.000000
100
AcDbArc
50
-89.999999
51
0.000000
0
LINE
5
4d8
100
AcDbEntity
8
0
100
AcDbLine
6
CONTINUOUS
62
5
10
146.000000
20
139.000000
11
146.000000
21
181.000000
0
ARC
5
4d9
100
AcDbEntity
8
0
100
AcDbCircle
6
CONTINUOUS
62
5
10
142.000000
20
181.000000
40
4.000000
100
AcDbArc
50
0.000000
51
89.999999
0
LINE
5
4da
100
AcDbEntity
8
0
100
AcDbLine
6
CONTINUOUS
62
5
10
142.000000
20
185.000000
11
98.000000
21
185.000000
0
ARC
5
4db
100
AcDbEntity
8
0
100
AcDbCircle
6
CONTINUOUS
62
5
10
98.000000
20
181.000000
40
4.000000
100
AcDbArc
50
89.999999
51
179.999998
0
LINE
5
4dc
100
AcDbEntity
8
0
100
AcDbLine
6
CONTINUOUS
62
5
10
94.000000
20
181.000000
11
94.000000
21
139.000000
0
ARC
5
4dd
100
AcDbEntity
8
0
100
AcDbCircle
6
CONTINUOUS
62
5
10
98.000000
20
139.000000
40
4.000000
100
AcDbArc
50
179.999998
51
-89.999999
0
LINE
5
4de
100
AcDbEntity
8
0
100
AcDbLine
6
CONTINUOUS
62
5
10
98.000000
20
135.000000
11
142.000000
21
135.000000
0
LINE
5
4df
100
AcDbEntity
8
0
100
AcDbLine
6
CONTINUOUS
62
5
10
265.000000
20
205.000008
11
252.000001
21
204.500008
0
LINE
5
4e0
100
AcDbEntity
8
0
100
AcDbLine
6
CONTINUOUS
62
5
10
252.000000
20
204.500000
11
252.000000
21
115.500000
0
LINE
5
4e1
100
AcDbEntity
8
0
100
AcDbLine
6
CONTINUOUS
62
5
10
252.000001
20
115.499992
11
265.000000
21
114.999992
0
LINE
5
4e2
100
AcDbEntity
8
0
100
AcDbLine
6
CONTINUOUS
62
5
10
265.000000
20
115.000000
11
265.000000
21
205.000000
0
LINE
5
4e3
100
AcDbEntity
8
0
100
AcDbLine
6
CONTINUOUS
62
5
10
243.000000
20
115.816467
11
243.000000
21
204.183533
0
ARC
5
4e4
100
AcDbEntity
8
0
100
AcDbCircle
6
CONTINUOUS
62
5
10
88.852341
20
128.852348
40
9.000000
100
AcDbArc
50
179.999998
51
-89.999999
0
LINE
5
4e5
100
AcDbEntity
8
0
100
AcDbLine
6
CONTINUOUS
62
5
10
79.852341
20
128.852348
11
79.852341
21
191.147652
0
ARC
5
4e6
100
AcDbEntity
8
0
100
AcDbCircle
6
CONTINUOUS
62
5
10
88.852341
20
191.147652
40
9.000000
100
AcDbArc
50
89.999999
51
179.999998
0
LINE
5
4e7
100
AcDbEntity
8
0
100
AcDbLine
6
CONTINUOUS
62
5
10
88.852341
20
200.147652
11
151.147652
21
200.147652
0
ARC
5
4e8
100
AcDbEntity
8
0
100
AcDbCircle
6
CONTINUOUS
62
5
10
151.147652
20
191.147652
40
9.000000
100
AcDbArc
50
0.000000
51
89.999999
0
LINE
5
4e9
100
AcDbEntity
8
0
100
AcDbLine
6
CONTINUOUS
62
5
10
160.147652
20
191.147652
11
160.147652
21
128.852348
0
ARC
5
4ea
100
AcDbEntity
8
0
100
AcDbCircle
6
CONTINUOUS
62
5
10
151.147652
20
128.852348
40
9.000000
100
AcDbArc
50
-89.999999
51
0.000000
0
LINE
5
4eb
100
AcDbEntity
8
0
100
AcDbLine
6
CONTINUOUS
62
5
10
151.147652
20
119.852348
11
88.852341
21
119.852348
0
ARC
5
4ec
100
AcDbEntity
8
0
100
AcDbCircle
6
CONTINUOUS
62
5
10
151.000000
20
129.000000
40
14.000000
100
AcDbArc
50
-89.999999
51
0.000000
0
LINE
5
4ed
100
AcDbEntity
8
0
100
AcDbLine
6
CONTINUOUS
62
5
10
151.000000
20
115.000000
11
89.000000
21
115.000000
0
ARC
5
4ee
100
AcDbEntity
8
0
100
AcDbCircle
6
CONTINUOUS
62
5
10
89.000000
20
129.000000
40
14.000000
100
AcDbArc
50
179.999998
51
-89.999999
0
LINE
5
4ef
100
AcDbEntity
8
0
100
AcDbLine
6
CONTINUOUS
62
5
10
75.000000
20
129.000000
11
75.000000
21
191.000000
0
ARC
5
4f0
100
AcDbEntity
8
0
100
AcDbCircle
6
CONTINUOUS
62
5
10
89.000000
20
191.000000
40
14.000000
100
AcDbArc
50
89.999999
51
179.999998
0
LINE
5
4f1
100
AcDbEntity
8
0
100
AcDbLine
6
CONTINUOUS
62
5
10
89.000000
20
205.000000
11
151.000000
21
205.000000
0
ARC
5
4f2
100
AcDbEntity
8
0
100
AcDbCircle
6
CONTINUOUS
62
5
10
151.000000
20
191.000000
40
14.000000
100
AcDbArc
50
0.000000
51
89.999999
0
LINE
5
4f3
100
AcDbEntity
8
0
100
AcDbLine
6
CONTINUOUS
62
5
10
165.000000
20
191.000000
11
165.000000
21
129.000000
0
ARC
5
4f4
100
AcDbEntity
8
0
100
AcDbCircle
6
CONTINUOUS
62
5
10
89.000000
20
129.000000
40
13.750000
100
AcDbArc
50
179.999998
51
-89.999999
0
LINE
5
4f5
100
AcDbEntity
8
0
100
AcDbLine
6
CONTINUOUS
62
5
10
75.250000
20
129.000000
11
75.250000
21
191.000000
0
ARC
5
4f6
100
AcDbEntity
8
0
100
AcDbCircle
6
CONTINUOUS
62
5
10
89.000000
20
191.000000
40
13.750000
100
AcDbArc
50
89.999999
51
179.999998
0
LINE
5
4f7
100
AcDbEntity
8
0
100
AcDbLine
6
CONTINUOUS
62
5
10
89.000000
20
204.750000
11
151.000000
21
204.750000
0
ARC
5
4f8
100
AcDbEntity
8
0
100
AcDbCircle
6
CONTINUOUS
62
5
10
151.000000
20
191.000000
40
13.750000
100
AcDbArc
50
0.000000
51
89.999999
0
LINE
5
4f9
100
AcDbEntity
8
0
100
AcDbLine
6
CONTINUOUS
62
5
10
164.750000
20
191.000000
11
164.750000
21
129.000000
0
ARC
5
4fa
100
AcDbEntity
8
0
100
AcDbCircle
6
CONTINUOUS
62
5
10
151.000000
20
129.000000
40
13.750000
100
AcDbArc
50
-89.999999
51
0.000000
0
LINE
5
4fb
100
AcDbEntity
8
0
100
AcDbLine
6
CONTINUOUS
62
5
10
151.000000
20
115.250000
11
89.000000
21
115.250000
0
ARC
5
4fc
100
AcDbEntity
8
0
100
AcDbCircle
6
CONTINUOUS
62
5
10
222.000000
20
121.530548
40
2.000000
100
AcDbArc
50
179.999990
51
-99.999996
0
LINE
5
4fd
100
AcDbEntity
8
0
100
AcDbLine
6
CONTINUOUS
62
5
10
220.000000
20
121.530548
11
220.000000
21
198.469452
0
ARC
5
4fe
100
AcDbEntity
8
0
100
AcDbCircle
6
CONTINUOUS
62
5
10
222.000000
20
198.469452
40
2.000000
100
AcDbArc
50
99.999996
51
-179.999990
0
LINE
5
4ff
100
AcDbEntity
8
0
100
AcDbLine
6
CONTINUOUS
62
5
10
221.652705
20
200.439054
11
242.449086
21
204.106017
0
ARC
5
500
100
AcDbEntity
8
0
100
AcDbCircle
6
CONTINUOUS
62
5
10
243.838268
20
196.227570
40
8.000000
100
AcDbArc
50
91.999997
51
100.000000
0
LINE
5
501
100
AcDbEntity
8
0
100
AcDbLine
6
CONTINUOUS
62
5
10
243.559074
20
204.222705
11
251.499998
21
204.500009
0
LINE
5
502
100
AcDbEntity
8
0
100
AcDbLine
6
CONTINUOUS
62
5
10
251.500000
20
204.500000
11
251.500000
21
115.500000
0
LINE
5
503
100
AcDbEntity
8
0
100
AcDbLine
6
CONTINUOUS
62
5
10
251.499998
20
115.499991
11
243.559074
21
115.777295
0
ARC
5
504
100
AcDbEntity
8
0
100
AcDbCircle
6
CONTINUOUS
62
5
10
243.838268
20
123.772430
40
8.000000
100
AcDbArc
50
-100.000000
51
-91.999997
0
LINE
5
505
100
AcDbEntity
8
0
100
AcDbLine
6
CONTINUOUS
62
5
10
242.449086
20
115.893983
11
221.652705
21
119.560946
0
POLYLINE
5
506
100
AcDbEntity
8
1
6
CONTINUOUS
62
5
100
AcDb2dPolyline
66
1
10
0.0
20
0.0
30
0.0
70
1
0
VERTEX
5
507
100
AcDbEntity
8
1
100
AcDbVertex
100
AcDb2dVertex
62
5
10
10.000000
20
10.000000
0
VERTEX
5
508
100
AcDbEntity
8
1
100
AcDbVertex
100
AcDb2dVertex
62
5
10
10.000000
20
350.000000
0
VERTEX
5
509
100
AcDbEntity
8
1
100
AcDbVertex
100
AcDb2dVertex
62
5
10
330.000000
20
350.000000
0
VERTEX
5
50a
100
AcDbEntity
8
1
100
AcDbVertex
100
AcDb2dVertex
62
5
10
330.000000
20
10.000000
0
VERTEX
5
50b
100
AcDbEntity
8
1
100
AcDbVertex
100
AcDb2dVertex
62
5
10
10.000000
20
10.000000
0
SEQEND
5
50c
100
AcDbEntity
8
1
0
POLYLINE
5
50d
100
AcDbEntity
8
1
6
CONTINUOUS
62
5
100
AcDb2dPolyline
66
1
10
0.0
20
0.0
30
0.0
70
1
0
VERTEX
5
50e
100
AcDbEntity
8
1
100
AcDbVertex
100
AcDb2dVertex
62
5
10
10.000000
20
10.000000
0
VERTEX
5
50f
100
AcDbEntity
8
1
100
AcDbVertex
100
AcDb2dVertex
62
5
10
10.000000
20
350.000000
0
VERTEX
5
510
100
AcDbEntity
8
1
100
AcDbVertex
100
AcDb2dVertex
62
5
10
330.000000
20
350.000000
0
VERTEX
5
511
100
AcDbEntity
8
1
100
AcDbVertex
100
AcDb2dVertex
62
5
10
330.000000
20
10.000000
0
VERTEX
5
512
100
AcDbEntity
8
1
100
AcDbVertex
100
AcDb2dVertex
62
5
10
10.000000
20
10.000000
0
SEQEND
5
513
100
AcDbEntity
8
1
0
POLYLINE
5
514
100
AcDbEntity
8
1
6
DOT2
62
5
100
AcDb2dPolyline
66
1
10
0.0
20
0.0
30
0.0
70
0
0
VERTEX
5
515
100
AcDbEntity
8
1
100
AcDbVertex
100
AcDb2dVertex
62
5
10
340.000000
20
10.000000
0
VERTEX
5
516
100
AcDbEntity
8
1
100
AcDbVertex
100
AcDb2dVertex
62
5
10
340.000000
20
0.000000
0
VERTEX
5
517
100
AcDbEntity
8
1
100
AcDbVertex
100
AcDb2dVertex
62
5
10
330.000000
20
0.000000
0
SEQEND
5
518
100
AcDbEntity
8
1
0
POLYLINE
5
519
100
AcDbEntity
8
1
6
DOT2
62
5
100
AcDb2dPolyline
66
1
10
0.0
20
0.0
30
0.0
70
0
0
VERTEX
5
51a
100
AcDbEntity
8
1
100
AcDbVertex
100
AcDb2dVertex
62
5
10
10.000000
20
0.000000
0
VERTEX
5
51b
100
AcDbEntity
8
1
100
AcDbVertex
100
AcDb2dVertex
62
5
10
0.000000
20
0.000000
0
VERTEX
5
51c
100
AcDbEntity
8
1
100
AcDbVertex
100
AcDb2dVertex
62
5
10
0.000000
20
10.000000
0
SEQEND
5
51d
100
AcDbEntity
8
1
0
POLYLINE
5
51e
100
AcDbEntity
8
1
6
DOT2
62
5
100
AcDb2dPolyline
66
1
10
0.0
20
0.0
30
0.0
70
0
0
VERTEX
5
51f
100
AcDbEntity
8
1
100
AcDbVertex
100
AcDb2dVertex
62
5
10
0.000000
20
350.000000
0
VERTEX
5
520
100
AcDbEntity
8
1
100
AcDbVertex
100
AcDb2dVertex
62
5
10
0.000000
20
360.000000
0
VERTEX
5
521
100
AcDbEntity
8
1
100
AcDbVertex
100
AcDb2dVertex
62
5
10
10.000000
20
360.000000
0
SEQEND
5
522
100
AcDbEntity
8
1
0
POLYLINE
5
523
100
AcDbEntity
8
1
6
DOT2
62
5
100
AcDb2dPolyline
66
1
10
0.0
20
0.0
30
0.0
70
0
0
VERTEX
5
524
100
AcDbEntity
8
1
100
AcDbVertex
100
AcDb2dVertex
62
5
10
330.000000
20
360.000000
0
VERTEX
5
525
100
AcDbEntity
8
1
100
AcDbVertex
100
AcDb2dVertex
62
5
10
340.000000
20
360.000000
0
VERTEX
5
526
100
AcDbEntity
8
1
100
AcDbVertex
100
AcDb2dVertex
62
5
10
340.000000
20
350.000000
0
SEQEND
5
527
100
AcDbEntity
8
1
0
ENDSEC
0
SECTION
2
OBJECTS
0
DICTIONARY
5
528
100
AcDbDictionary
3
ACAD_GROUP
350
529
3
ACAD_MLINESTYLE
350
52a
0
DICTIONARY
5
529
102
{ACAD_REACTORS
330
528
102
}
100
AcDbDictionary
0
DICTIONARY
5
52a
102
{ACAD_REACTORS
330
528
102
}
100
AcDbDictionary
3
STANDARD
350
52b
0
MLINESTYLE
5
52b
102
{ACAD_REACTORS
330
52a
102
}
100
AcDbMlineStyle
2
STANDARD
70
0
3

62
0
51
90.0
52
90.0
71
2
49
0.5
62
256
6
BYLAYER
49
-0.5
62
256
6
BYLAYER
0
ENDSEC
0
EOF
