0
SECTION
2
HEADER
9
$ACADVER
1
AC1012
9
$EXTMIN
10
-0.010000
20
-0.010000
30
0.0
9
$EXTMAX
10
13.390000
20
14.180000
30
0.0
9
$LIMMIN
10
-0.254000
20
-0.254000
9
$LIMMAX
10
340.106000
20
360.172000
9
$DIMSCALE
40
1.000000
9
$PDMODE
70
2
9
$PDSIZE
40
0.0
  9
$HANDSEED
  5
705
0
ENDSEC
0
SECTION
2
CLASSES
0
ENDSEC
0
SECTION
2
TABLES
0
TABLE
2
LTYPE
5
1e
100
AcDbSymbolTable
70
12
0
LTYPE
5
1f
100
AcDbSymbolTableRecord
100
AcDbLinetypeTableRecord
2
BYBLOCK
70
0
3

72
65
73
0
40
0.0
0
LTYPE
5
20
100
AcDbSymbolTableRecord
100
AcDbLinetypeTableRecord
2
BYLAYER
70
0
3

72
65
73
0
40
0.0
0
LTYPE
5
21
100
AcDbSymbolTableRecord
100
AcDbLinetypeTableRecord
2
CONTINUOUS
70
64
3
Solid line
72
65
73
0
40
0.0
0
LTYPE
5
22
100
AcDbSymbolTableRecord
100
AcDbLinetypeTableRecord
2
DASHED
70
64
3
__ __ __ __ __ __ __ __ __ __ __ __ __ __ __
72
65
73
2
40
0.75
49
0.5
74
0
49
-0.25
74
0
0
LTYPE
5
23
100
AcDbSymbolTableRecord
100
AcDbLinetypeTableRecord
2
DOT
70
64
3
...............................................
72
65
73
2
40
0.25
49
0.0
74
0
49
-0.25
74
0
0
LTYPE
5
24
100
AcDbSymbolTableRecord
100
AcDbLinetypeTableRecord
2
DASHDOT
70
64
3
__ . __ . __ . __ . __ . __ . __ . __ . __ . --
72
65
73
4
40
1.0
49
0.5
74
0
49
-0.25
74
0
49
0.0
74
0
49
-0.25
74
0
0
LTYPE
5
25
100
AcDbSymbolTableRecord
100
AcDbLinetypeTableRecord
2
CENTER
70
64
3
____ _ ____ _ ____ _ ____ _ ____ _ ____ _ ____
72
65
73
4
40
2.0
49
1.25
74
0
49
-0.25
74
0
49
0.25
74
0
49
-0.25
74
0
0
LTYPE
5
26
100
AcDbSymbolTableRecord
100
AcDbLinetypeTableRecord
2
PHANTOM
70
64
3
_____ _ _ _____ _ _ _____ _ _ _____ _ _ ____
72
65
73
6
40
2.5
49
1.25
74
0
49
-0.25
74
0
49
0.25
74
0
49
-0.25
74
0
49
0.25
74
0
49
-0.25
74
0
0
LTYPE
5
27
100
AcDbSymbolTableRecord
100
AcDbLinetypeTableRecord
2
HIDDEN
70
64
3
_ _ _ _ _ _ _ _ _ _ _ _ _ _ _ _ _ _ _ _ _ _ _
72
65
73
2
40
0.375
49
0.25
74
0
49
-0.125
74
0
0
LTYPE
5
28
100
AcDbSymbolTableRecord
100
AcDbLinetypeTableRecord
2
BORDER
70
64
3
__ __ . __ __ . __ __ . __ __ . __ __ . __ __
72
65
73
6
40
1.75
49
0.5
74
0
49
-0.25
74
0
49
0.5
74
0
49
-0.25
74
0
49
0.0
74
0
49
-0.25
74
0
0
LTYPE
5
29
100
AcDbSymbolTableRecord
100
AcDbLinetypeTableRecord
2
DIVIDE
70
64
3
__ . . __ . . __ . . __ . . __ . . __ . . __
72
65
73
6
40
1.25
49
0.5
74
0
49
-0.25
74
0
49
0.0
74
0
49
-0.25
74
0
49
0.0
74
0
49
-0.25
74
0
0
LTYPE
5
2a
100
AcDbSymbolTableRecord
100
AcDbLinetypeTableRecord
2
DOT2
70
64
3
...............................................
72
65
73
2
40
0.125
49
0.0
74
0
49
-0.125
74
0
0
ENDTAB
0
TABLE
2
STYLE
5
2b
100
AcDbSymbolTable
70
1
0
STYLE
5
2c
100
AcDbSymbolTableRecord
100
AcDbTextStyleTableRecord
2
STANDARD
70
64
40
0.0
41
1.0
50
0.0
71
0
42
5.0
3
txt
4
bigfont
0
ENDTAB
0
TABLE
2
LAYER
5
2d
100
AcDbSymbolTable
70
3
0
LAYER
5
2e
100
AcDbSymbolTableRecord
100
AcDbLayerTableRecord
2
0
70
0
62
7
6
CONTINUOUS
0
LAYER
5
2f
100
AcDbSymbolTableRecord
100
AcDbLayerTableRecord
2
1
70
0
62
7
6
CONTINUOUS
0
LAYER
5
30
100
AcDbSymbolTableRecord
100
AcDbLayerTableRecord
2
0
70
0
62
7
6
CONTINUOUS
0
ENDTAB
0
TABLE
2
APPID
5
31
100
AcDbSymbolTable
70
1
0
APPID
5
32
100
AcDbSymbolTableRecord
100
AcDbRegAppTableRecord
2
ACAD
70
64
0
ENDTAB
0
TABLE
2
DIMSTYLE
5
33
100
AcDbSymbolTable
70
0
0
ENDTAB
0
TABLE
2
UCS
5
34
100
AcDbSymbolTable
70
0
0
ENDTAB
0
TABLE
2
VIEW
5
35
100
AcDbSymbolTable
70
0
0
ENDTAB
0
TABLE
2
VPORT
5
36
100
AcDbSymbolTable
70
0
0
ENDTAB
0
TABLE
2
BLOCK_RECORD
5
37
100
AcDbSymbolTable
70
0
0
BLOCK_RECORD
5
38
100
AcDbSymbolTableRecord
100
AcDbBlockTableRecord
2
*MODEL_SPACE
0
BLOCK_RECORD
5
39
100
AcDbSymbolTableRecord
100
AcDbBlockTableRecord
2
*PAPER_SPACE
0
BLOCK_RECORD
5
3a
100
AcDbSymbolTableRecord
100
AcDbBlockTableRecord
2
OPEN
0
BLOCK_RECORD
5
3b
100
AcDbSymbolTableRecord
100
AcDbBlockTableRecord
2
HALF
0
BLOCK_RECORD
5
3c
100
AcDbSymbolTableRecord
100
AcDbBlockTableRecord
2
CLOSEDBLANK
0
BLOCK_RECORD
5
3d
100
AcDbSymbolTableRecord
100
AcDbBlockTableRecord
2
HALFCLOSE_R
0
BLOCK_RECORD
5
3e
100
AcDbSymbolTableRecord
100
AcDbBlockTableRecord
2
DOT
0
BLOCK_RECORD
5
3f
100
AcDbSymbolTableRecord
100
AcDbBlockTableRecord
2
HALFOPEN_R
0
BLOCK_RECORD
5
40
100
AcDbSymbolTableRecord
100
AcDbBlockTableRecord
2
CLOSEDF
0
BLOCK_RECORD
5
41
100
AcDbSymbolTableRecord
100
AcDbBlockTableRecord
2
HALF_R
0
ENDTAB
0
ENDSEC
0
SECTION
2
BLOCKS
0
BLOCK
5
42
100
AcDbEntity
8
0
100
AcDbBlockBegin
2
*MODEL_SPACE
70
0
10
0.0
20
0.0
30
0.0
3
*MODEL_SPACE
1

0
ENDBLK
5
43
100
AcDbEntity
8
0
100
AcDbBlockEnd
0
BLOCK
5
44
100
AcDbEntity
67
1
8
0
100
AcDbBlockBegin
2
*PAPER_SPACE
70
0
10
0.0
20
0.0
30
0.0
3
*PAPER_SPACE
1

0
ENDBLK
5
45
100
AcDbEntity
67
1
8
0
100
AcDbBlockEnd
0
BLOCK
5
46
100
AcDbEntity
8
0
100
AcDbBlockBegin
2
OPEN
70
0
10
0.0
20
0.0
30
0.0
3
OPEN
1

0
LINE
5
47
100
AcDbEntity
8
0
6
BYBLOCK
62
0
100
AcDbLine
10
0.000000
20
0.000000
11
-1.000000
21
0.000000
0
LINE
5
48
100
AcDbEntity
8
0
6
BYBLOCK
62
0
100
AcDbLine
10
-1.000000
20
-0.166667
11
0.000000
21
0.000000
0
LINE
5
49
100
AcDbEntity
8
0
6
BYBLOCK
62
0
100
AcDbLine
10
-1.000000
20
0.166667
11
0.000000
21
0.000000
0
ENDBLK
5
4a
100
AcDbEntity
8
0
100
AcDbBlockEnd
0
BLOCK
5
4b
100
AcDbEntity
8
0
100
AcDbBlockBegin
2
HALF
70
0
10
0.0
20
0.0
30
0.0
3
HALF
1

0
SOLID
5
4c
100
AcDbEntity
8
0
6
BYBLOCK
62
0
100
AcDbTrace
10
-1.000000
20
0.166667
11
-1.000000
21
-0.166667
12
0.000000
22
0.000000
13
0.000000
23
0.000000
0
ENDBLK
5
4d
100
AcDbEntity
8
0
100
AcDbBlockEnd
0
BLOCK
5
4e
100
AcDbEntity
8
0
100
AcDbBlockBegin
2
CLOSEDBLANK
70
0
10
0.0
20
0.0
30
0.0
3
CLOSEDBLANK
1

0
LINE
5
4f
100
AcDbEntity
8
0
6
BYBLOCK
62
0
100
AcDbLine
10
-1.000000
20
0.166667
11
-1.000000
21
-0.166667
0
LINE
5
50
100
AcDbEntity
8
0
6
BYBLOCK
62
0
100
AcDbLine
10
0.000000
20
0.000000
11
-1.000000
21
-0.166667
0
LINE
5
51
100
AcDbEntity
8
0
6
BYBLOCK
62
0
100
AcDbLine
10
-1.000000
20
0.166667
11
0.000000
21
0.000000
0
ENDBLK
5
52
100
AcDbEntity
8
0
100
AcDbBlockEnd
0
BLOCK
5
53
100
AcDbEntity
8
0
100
AcDbBlockBegin
2
HALFCLOSE_R
70
0
10
0.0
20
0.0
30
0.0
3
HALFCLOSE_R
1

0
LINE
5
54
100
AcDbEntity
8
0
6
BYBLOCK
62
0
100
AcDbLine
10
-1.000000
20
-0.166667
11
-1.000000
21
0.000000
0
LINE
5
55
100
AcDbEntity
8
0
6
BYBLOCK
62
0
100
AcDbLine
10
-1.000000
20
-0.166667
11
0.000000
21
0.000000
0
LINE
5
56
100
AcDbEntity
8
0
6
BYBLOCK
62
0
100
AcDbLine
10
0.000000
20
0.000000
11
-1.000000
21
0.000000
0
ENDBLK
5
57
100
AcDbEntity
8
0
100
AcDbBlockEnd
0
BLOCK
5
58
100
AcDbEntity
8
0
100
AcDbBlockBegin
2
DOT
70
0
10
0.0
20
0.0
30
0.0
3
DOT
1

0
LINE
5
59
100
AcDbEntity
8
0
6
BYBLOCK
62
0
100
AcDbLine
10
0.000000
20
0.000000
11
-1.000000
21
0.000000
0
POLYLINE
5
5a
100
AcDbEntity
8
0
6
BYBLOCK
62
0
100
AcDb2dPolyline
66
1
10
0.0
20
0.0
30
0.0
70
1
40
0.166667
41
0.166667
0
VERTEX
5
5b
100
AcDbEntity
8
0
100
AcDbVertex
100
AcDb2dVertex
62
10
10
-0.083333
20
0.000000
42
1.000000
0
VERTEX
5
5c
100
AcDbEntity
8
0
100
AcDbVertex
100
AcDb2dVertex
62
10
10
0.083333
20
0.000000
42
1.000000
0
SEQEND
5
5d
100
AcDbEntity
8
0
0
ENDBLK
5
5e
100
AcDbEntity
8
0
100
AcDbBlockEnd
0
BLOCK
5
5f
100
AcDbEntity
8
0
100
AcDbBlockBegin
2
HALFOPEN_R
70
0
10
0.0
20
0.0
30
0.0
3
HALFOPEN_R
1

0
LINE
5
60
100
AcDbEntity
8
0
6
BYBLOCK
62
0
100
AcDbLine
10
-1.000000
20
-0.166667
11
0.000000
21
0.000000
0
LINE
5
61
100
AcDbEntity
8
0
6
BYBLOCK
62
0
100
AcDbLine
10
0.000000
20
0.000000
11
-1.000000
21
0.000000
0
ENDBLK
5
62
100
AcDbEntity
8
0
100
AcDbBlockEnd
0
BLOCK
5
63
100
AcDbEntity
8
0
100
AcDbBlockBegin
2
CLOSEDF
70
0
10
0.0
20
0.0
30
0.0
3
CLOSEDF
1

0
SOLID
5
64
100
AcDbEntity
8
0
6
BYBLOCK
62
0
100
AcDbTrace
10
-1.000000
20
0.166667
11
-1.000000
21
-0.166667
12
0.000000
22
0.000000
13
0.000000
23
0.000000
0
ENDBLK
5
65
100
AcDbEntity
8
0
100
AcDbBlockEnd
0
BLOCK
5
66
100
AcDbEntity
8
0
100
AcDbBlockBegin
2
HALF_R
70
0
10
0.0
20
0.0
30
0.0
3
HALF_R
1

0
SOLID
5
67
100
AcDbEntity
8
0
6
BYBLOCK
62
0
100
AcDbTrace
10
-1.000000
20
-0.166667
11
-1.000000
21
0.000000
12
0.000000
22
0.000000
13
0.000000
23
0.000000
0
ENDBLK
5
68
100
AcDbEntity
8
0
100
AcDbBlockEnd
0
ENDSEC
0
SECTION
2
ENTITIES
0
POLYLINE
5
69
100
AcDbEntity
8
1
6
CONTINUOUS
62
5
100
AcDb2dPolyline
66
1
10
0.0
20
0.0
30
0.0
70
0
0
VERTEX
5
6a
100
AcDbEntity
8
1
100
AcDbVertex
100
AcDb2dVertex
62
5
10
181.562500
20
331.500000
0
VERTEX
5
6b
100
AcDbEntity
8
1
100
AcDbVertex
100
AcDb2dVertex
62
5
10
182.500000
20
332.437500
0
VERTEX
5
6c
100
AcDbEntity
8
1
100
AcDbVertex
100
AcDb2dVertex
62
5
10
183.437500
20
334.312500
0
SEQEND
5
6d
100
AcDbEntity
8
1
0
LINE
5
6e
100
AcDbEntity
8
1
100
AcDbLine
6
CONTINUOUS
62
5
10
181.562500
20
336.500000
11
183.125000
21
335.875000
0
LINE
5
6f
100
AcDbEntity
8
1
100
AcDbLine
6
CONTINUOUS
62
5
10
183.437500
20
338.375000
11
182.187500
21
339.000000
0
LINE
5
70
100
AcDbEntity
8
1
100
AcDbLine
6
CONTINUOUS
62
5
10
183.750000
20
337.437500
11
189.687500
21
338.375000
0
LINE
5
71
100
AcDbEntity
8
1
100
AcDbLine
6
CONTINUOUS
62
5
10
184.375000
20
336.187500
11
189.062500
21
337.125000
0
LINE
5
72
100
AcDbEntity
8
1
100
AcDbLine
6
CONTINUOUS
62
5
10
184.062500
20
334.625000
11
190.000000
21
335.562500
0
POLYLINE
5
73
100
AcDbEntity
8
1
6
CONTINUOUS
62
5
100
AcDb2dPolyline
66
1
10
0.0
20
0.0
30
0.0
70
0
0
VERTEX
5
74
100
AcDbEntity
8
1
100
AcDbVertex
100
AcDb2dVertex
62
5
10
186.250000
20
339.625000
0
VERTEX
5
75
100
AcDbEntity
8
1
100
AcDbVertex
100
AcDb2dVertex
62
5
10
186.875000
20
334.312500
0
VERTEX
5
76
100
AcDbEntity
8
1
100
AcDbVertex
100
AcDb2dVertex
62
5
10
187.500000
20
332.750000
0
VERTEX
5
77
100
AcDbEntity
8
1
100
AcDbVertex
100
AcDb2dVertex
62
5
10
188.437500
20
331.812500
0
VERTEX
5
78
100
AcDbEntity
8
1
100
AcDbVertex
100
AcDb2dVertex
62
5
10
189.375000
20
330.875000
0
VERTEX
5
79
100
AcDbEntity
8
1
100
AcDbVertex
100
AcDb2dVertex
62
5
10
190.312500
20
330.875000
0
VERTEX
5
7a
100
AcDbEntity
8
1
100
AcDbVertex
100
AcDb2dVertex
62
5
10
190.625000
20
332.125000
0
SEQEND
5
7b
100
AcDbEntity
8
1
0
POLYLINE
5
7c
100
AcDbEntity
8
1
6
CONTINUOUS
62
5
100
AcDb2dPolyline
66
1
10
0.0
20
0.0
30
0.0
70
0
0
VERTEX
5
7d
100
AcDbEntity
8
1
100
AcDbVertex
100
AcDb2dVertex
62
5
10
189.375000
20
334.000000
0
VERTEX
5
7e
100
AcDbEntity
8
1
100
AcDbVertex
100
AcDb2dVertex
62
5
10
187.500000
20
332.750000
0
VERTEX
5
7f
100
AcDbEntity
8
1
100
AcDbVertex
100
AcDb2dVertex
62
5
10
184.062500
20
331.187500
0
SEQEND
5
80
100
AcDbEntity
8
1
0
LINE
5
81
100
AcDbEntity
8
1
100
AcDbLine
6
CONTINUOUS
62
5
10
187.812500
20
339.625000
11
188.750000
21
339.000000
0
LINE
5
82
100
AcDbEntity
8
1
100
AcDbLine
6
CONTINUOUS
62
5
10
192.187500
20
339.000000
11
196.562500
21
339.000000
0
LINE
5
83
100
AcDbEntity
8
1
100
AcDbLine
6
CONTINUOUS
62
5
10
191.875000
20
336.812500
11
196.875000
21
336.812500
0
POLYLINE
5
84
100
AcDbEntity
8
1
6
CONTINUOUS
62
5
100
AcDb2dPolyline
66
1
10
0.0
20
0.0
30
0.0
70
0
0
VERTEX
5
85
100
AcDbEntity
8
1
100
AcDbVertex
100
AcDb2dVertex
62
5
10
193.750000
20
339.000000
0
VERTEX
5
86
100
AcDbEntity
8
1
100
AcDbVertex
100
AcDb2dVertex
62
5
10
193.750000
20
336.187500
0
VERTEX
5
87
100
AcDbEntity
8
1
100
AcDbVertex
100
AcDb2dVertex
62
5
10
193.125000
20
335.250000
0
VERTEX
5
88
100
AcDbEntity
8
1
100
AcDbVertex
100
AcDb2dVertex
62
5
10
192.187500
20
334.312500
0
SEQEND
5
89
100
AcDbEntity
8
1
0
POLYLINE
5
8a
100
AcDbEntity
8
1
6
CONTINUOUS
62
5
100
AcDb2dPolyline
66
1
10
0.0
20
0.0
30
0.0
70
0
0
VERTEX
5
8b
100
AcDbEntity
8
1
100
AcDbVertex
100
AcDb2dVertex
62
5
10
195.000000
20
339.000000
0
VERTEX
5
8c
100
AcDbEntity
8
1
100
AcDbVertex
100
AcDb2dVertex
62
5
10
195.000000
20
334.625000
0
VERTEX
5
8d
100
AcDbEntity
8
1
100
AcDbVertex
100
AcDb2dVertex
62
5
10
195.000000
20
334.312500
0
SEQEND
5
8e
100
AcDbEntity
8
1
0
LINE
5
8f
100
AcDbEntity
8
1
100
AcDbLine
6
CONTINUOUS
62
5
10
199.375000
20
334.312500
11
198.750000
21
334.312500
0
LINE
5
90
100
AcDbEntity
8
1
100
AcDbLine
6
CONTINUOUS
62
5
10
197.812500
20
338.687500
11
197.812500
21
335.562500
0
POLYLINE
5
91
100
AcDbEntity
8
1
6
CONTINUOUS
62
5
100
AcDb2dPolyline
66
1
10
0.0
20
0.0
30
0.0
70
0
0
VERTEX
5
92
100
AcDbEntity
8
1
100
AcDbVertex
100
AcDb2dVertex
62
5
10
200.000000
20
339.312500
0
VERTEX
5
93
100
AcDbEntity
8
1
100
AcDbVertex
100
AcDb2dVertex
62
5
10
200.000000
20
334.937500
0
VERTEX
5
94
100
AcDbEntity
8
1
100
AcDbVertex
100
AcDb2dVertex
62
5
10
199.375000
20
334.312500
0
SEQEND
5
95
100
AcDbEntity
8
1
0
LINE
5
96
100
AcDbEntity
8
1
100
AcDbLine
6
CONTINUOUS
62
5
10
193.125000
20
333.375000
11
198.750000
21
333.375000
0
LINE
5
97
100
AcDbEntity
8
1
100
AcDbLine
6
CONTINUOUS
62
5
10
191.875000
20
331.187500
11
200.000000
21
331.187500
0
LINE
5
98
100
AcDbEntity
8
1
100
AcDbLine
6
CONTINUOUS
62
5
10
195.937500
20
334.312500
11
195.937500
21
331.187500
0
POLYLINE
5
99
100
AcDbEntity
8
1
6
DOT2
62
5
100
AcDb2dPolyline
66
1
10
0.0
20
0.0
30
0.0
70
0
0
VERTEX
5
9a
100
AcDbEntity
8
1
100
AcDbVertex
100
AcDb2dVertex
62
5
10
259.326017
20
252.451017
0
VERTEX
5
9b
100
AcDbEntity
8
1
100
AcDbVertex
100
AcDb2dVertex
62
5
10
259.638517
20
253.701017
0
VERTEX
5
9c
100
AcDbEntity
8
1
100
AcDbVertex
100
AcDb2dVertex
62
5
10
260.263517
20
254.326017
0
VERTEX
5
9d
100
AcDbEntity
8
1
100
AcDbVertex
100
AcDb2dVertex
62
5
10
261.201017
20
254.326017
0
VERTEX
5
9e
100
AcDbEntity
8
1
100
AcDbVertex
100
AcDb2dVertex
62
5
10
261.826017
20
254.013517
0
VERTEX
5
9f
100
AcDbEntity
8
1
100
AcDbVertex
100
AcDb2dVertex
62
5
10
262.138517
20
253.076017
0
VERTEX
5
a0
100
AcDbEntity
8
1
100
AcDbVertex
100
AcDb2dVertex
62
5
10
262.138517
20
251.826017
0
VERTEX
5
a1
100
AcDbEntity
8
1
100
AcDbVertex
100
AcDb2dVertex
62
5
10
261.826017
20
251.201017
0
VERTEX
5
a2
100
AcDbEntity
8
1
100
AcDbVertex
100
AcDb2dVertex
62
5
10
261.201017
20
250.576017
0
VERTEX
5
a3
100
AcDbEntity
8
1
100
AcDbVertex
100
AcDb2dVertex
62
5
10
260.263517
20
250.576017
0
SEQEND
5
a4
100
AcDbEntity
8
1
0
POLYLINE
5
a5
100
AcDbEntity
8
1
6
DOT2
62
5
100
AcDb2dPolyline
66
1
10
0.0
20
0.0
30
0.0
70
0
0
VERTEX
5
a6
100
AcDbEntity
8
1
100
AcDbVertex
100
AcDb2dVertex
62
5
10
261.201017
20
250.576017
0
VERTEX
5
a7
100
AcDbEntity
8
1
100
AcDbVertex
100
AcDb2dVertex
62
5
10
262.138517
20
249.951017
0
VERTEX
5
a8
100
AcDbEntity
8
1
100
AcDbVertex
100
AcDb2dVertex
62
5
10
262.451017
20
249.013517
0
VERTEX
5
a9
100
AcDbEntity
8
1
100
AcDbVertex
100
AcDb2dVertex
62
5
10
262.451017
20
248.076017
0
VERTEX
5
aa
100
AcDbEntity
8
1
100
AcDbVertex
100
AcDb2dVertex
62
5
10
262.138517
20
247.451017
0
VERTEX
5
ab
100
AcDbEntity
8
1
100
AcDbVertex
100
AcDb2dVertex
62
5
10
261.201017
20
246.826017
0
VERTEX
5
ac
100
AcDbEntity
8
1
100
AcDbVertex
100
AcDb2dVertex
62
5
10
260.263517
20
246.826017
0
VERTEX
5
ad
100
AcDbEntity
8
1
100
AcDbVertex
100
AcDb2dVertex
62
5
10
259.638517
20
247.138517
0
VERTEX
5
ae
100
AcDbEntity
8
1
100
AcDbVertex
100
AcDb2dVertex
62
5
10
259.013517
20
248.076017
0
SEQEND
5
af
100
AcDbEntity
8
1
0
ARC
5
b0
100
AcDbEntity
8
0
100
AcDbCircle
6
CONTINUOUS
62
5
10
239.876017
20
209.650000
40
0.500000
100
AcDbArc
50
179.999998
51
-89.999999
0
LINE
5
b1
100
AcDbEntity
8
0
100
AcDbLine
6
CONTINUOUS
62
5
10
239.376017
20
209.650000
11
239.376017
21
211.350000
0
ARC
5
b2
100
AcDbEntity
8
0
100
AcDbCircle
6
CONTINUOUS
62
5
10
239.876017
20
211.350000
40
0.500000
100
AcDbArc
50
89.999999
51
-179.999998
0
LINE
5
b3
100
AcDbEntity
8
0
100
AcDbLine
6
CONTINUOUS
62
5
10
239.876017
20
211.850000
11
241.576017
21
211.850000
0
LINE
5
b4
100
AcDbEntity
8
0
100
AcDbLine
6
CONTINUOUS
62
5
10
241.576017
20
209.150000
11
239.876017
21
209.150000
0
ARC
5
b5
100
AcDbEntity
8
0
100
AcDbCircle
6
CONTINUOUS
62
5
10
238.076017
20
208.000000
40
0.500000
100
AcDbArc
50
89.999999
51
179.999998
0
LINE
5
b6
100
AcDbEntity
8
0
100
AcDbLine
6
CONTINUOUS
62
5
10
238.076017
20
208.500000
11
241.576017
21
208.500000
0
LINE
5
b7
100
AcDbEntity
8
0
100
AcDbLine
6
CONTINUOUS
62
5
10
241.576017
20
204.000000
11
238.076017
21
204.000000
0
ARC
5
b8
100
AcDbEntity
8
0
100
AcDbCircle
6
CONTINUOUS
62
5
10
238.076017
20
204.500000
40
0.500000
100
AcDbArc
50
179.999998
51
-89.999999
0
LINE
5
b9
100
AcDbEntity
8
0
100
AcDbLine
6
CONTINUOUS
62
5
10
237.576017
20
204.500000
11
237.576017
21
208.000000
0
LINE
5
ba
100
AcDbEntity
8
0
100
AcDbLine
6
CONTINUOUS
62
5
10
170.500000
20
199.750000
11
170.500000
21
199.250000
0
LINE
5
bb
100
AcDbEntity
8
0
100
AcDbLine
6
CONTINUOUS
62
5
10
170.500000
20
194.250000
11
170.500000
21
194.750000
0
POLYLINE
5
bc
100
AcDbEntity
8
1
6
DOT2
62
5
100
AcDb2dPolyline
66
1
10
0.0
20
0.0
30
0.0
70
0
0
VERTEX
5
bd
100
AcDbEntity
8
1
100
AcDbVertex
100
AcDb2dVertex
62
5
10
254.326017
20
252.451017
0
VERTEX
5
be
100
AcDbEntity
8
1
100
AcDbVertex
100
AcDb2dVertex
62
5
10
254.638517
20
253.701017
0
VERTEX
5
bf
100
AcDbEntity
8
1
100
AcDbVertex
100
AcDb2dVertex
62
5
10
255.263517
20
254.326017
0
VERTEX
5
c0
100
AcDbEntity
8
1
100
AcDbVertex
100
AcDb2dVertex
62
5
10
256.201017
20
254.326017
0
VERTEX
5
c1
100
AcDbEntity
8
1
100
AcDbVertex
100
AcDb2dVertex
62
5
10
256.826017
20
254.013517
0
VERTEX
5
c2
100
AcDbEntity
8
1
100
AcDbVertex
100
AcDb2dVertex
62
5
10
257.138517
20
253.076017
0
VERTEX
5
c3
100
AcDbEntity
8
1
100
AcDbVertex
100
AcDb2dVertex
62
5
10
257.138517
20
251.826017
0
VERTEX
5
c4
100
AcDbEntity
8
1
100
AcDbVertex
100
AcDb2dVertex
62
5
10
256.826017
20
251.201017
0
VERTEX
5
c5
100
AcDbEntity
8
1
100
AcDbVertex
100
AcDb2dVertex
62
5
10
256.201017
20
250.576017
0
VERTEX
5
c6
100
AcDbEntity
8
1
100
AcDbVertex
100
AcDb2dVertex
62
5
10
255.263517
20
250.576017
0
SEQEND
5
c7
100
AcDbEntity
8
1
0
POLYLINE
5
c8
100
AcDbEntity
8
1
6
DOT2
62
5
100
AcDb2dPolyline
66
1
10
0.0
20
0.0
30
0.0
70
0
0
VERTEX
5
c9
100
AcDbEntity
8
1
100
AcDbVertex
100
AcDb2dVertex
62
5
10
256.201017
20
250.576017
0
VERTEX
5
ca
100
AcDbEntity
8
1
100
AcDbVertex
100
AcDb2dVertex
62
5
10
257.138517
20
249.951017
0
VERTEX
5
cb
100
AcDbEntity
8
1
100
AcDbVertex
100
AcDb2dVertex
62
5
10
257.451017
20
249.013517
0
VERTEX
5
cc
100
AcDbEntity
8
1
100
AcDbVertex
100
AcDb2dVertex
62
5
10
257.451017
20
248.076017
0
VERTEX
5
cd
100
AcDbEntity
8
1
100
AcDbVertex
100
AcDb2dVertex
62
5
10
257.138517
20
247.451017
0
VERTEX
5
ce
100
AcDbEntity
8
1
100
AcDbVertex
100
AcDb2dVertex
62
5
10
256.201017
20
246.826017
0
VERTEX
5
cf
100
AcDbEntity
8
1
100
AcDbVertex
100
AcDb2dVertex
62
5
10
255.263517
20
246.826017
0
VERTEX
5
d0
100
AcDbEntity
8
1
100
AcDbVertex
100
AcDb2dVertex
62
5
10
254.638517
20
247.138517
0
VERTEX
5
d1
100
AcDbEntity
8
1
100
AcDbVertex
100
AcDb2dVertex
62
5
10
254.013517
20
248.076017
0
SEQEND
5
d2
100
AcDbEntity
8
1
0
LINE
5
d3
100
AcDbEntity
8
1
100
AcDbLine
6
CONTINUOUS
62
5
10
241.576017
20
221.500000
11
241.576017
21
247.576017
0
LINE
5
d4
100
AcDbEntity
8
1
100
AcDbLine
6
CONTINUOUS
62
5
10
274.576017
20
222.076017
11
274.576017
21
247.576017
0
POLYLINE
5
d5
100
AcDbEntity
8
1
6
CONTINUOUS
62
5
100
AcDb2dPolyline
66
1
10
0.0
20
0.0
30
0.0
70
0
0
VERTEX
5
d6
100
AcDbEntity
8
1
100
AcDbVertex
100
AcDb2dVertex
62
5
10
258.076017
20
245.576017
0
VERTEX
5
d7
100
AcDbEntity
8
1
100
AcDbVertex
100
AcDb2dVertex
62
5
10
241.576017
20
245.576017
0
VERTEX
5
d8
100
AcDbEntity
8
1
100
AcDbVertex
100
AcDb2dVertex
62
5
10
247.576017
20
246.576017
0
VERTEX
5
d9
100
AcDbEntity
8
1
100
AcDbVertex
100
AcDb2dVertex
62
5
10
247.576017
20
244.576017
0
VERTEX
5
da
100
AcDbEntity
8
1
100
AcDbVertex
100
AcDb2dVertex
62
5
10
241.576017
20
245.576017
0
VERTEX
5
db
100
AcDbEntity
8
1
100
AcDbVertex
100
AcDb2dVertex
62
5
10
247.576017
20
246.076017
0
VERTEX
5
dc
100
AcDbEntity
8
1
100
AcDbVertex
100
AcDb2dVertex
62
5
10
247.576017
20
245.076017
0
VERTEX
5
dd
100
AcDbEntity
8
1
100
AcDbVertex
100
AcDb2dVertex
62
5
10
241.576017
20
245.576017
0
SEQEND
5
de
100
AcDbEntity
8
1
0
POLYLINE
5
df
100
AcDbEntity
8
1
6
CONTINUOUS
62
5
100
AcDb2dPolyline
66
1
10
0.0
20
0.0
30
0.0
70
0
0
VERTEX
5
e0
100
AcDbEntity
8
1
100
AcDbVertex
100
AcDb2dVertex
62
5
10
258.076017
20
245.576017
0
VERTEX
5
e1
100
AcDbEntity
8
1
100
AcDbVertex
100
AcDb2dVertex
62
5
10
274.576017
20
245.576017
0
VERTEX
5
e2
100
AcDbEntity
8
1
100
AcDbVertex
100
AcDb2dVertex
62
5
10
268.576017
20
244.576017
0
VERTEX
5
e3
100
AcDbEntity
8
1
100
AcDbVertex
100
AcDb2dVertex
62
5
10
268.576017
20
246.576017
0
VERTEX
5
e4
100
AcDbEntity
8
1
100
AcDbVertex
100
AcDb2dVertex
62
5
10
274.576017
20
245.576017
0
VERTEX
5
e5
100
AcDbEntity
8
1
100
AcDbVertex
100
AcDb2dVertex
62
5
10
268.576017
20
245.076017
0
VERTEX
5
e6
100
AcDbEntity
8
1
100
AcDbVertex
100
AcDb2dVertex
62
5
10
268.576017
20
246.076017
0
VERTEX
5
e7
100
AcDbEntity
8
1
100
AcDbVertex
100
AcDb2dVertex
62
5
10
274.576017
20
245.576017
0
SEQEND
5
e8
100
AcDbEntity
8
1
0
POLYLINE
5
e9
100
AcDbEntity
8
1
6
CONTINUOUS
62
5
100
AcDb2dPolyline
66
1
10
0.0
20
0.0
30
0.0
70
0
0
VERTEX
5
ea
100
AcDbEntity
8
1
100
AcDbVertex
100
AcDb2dVertex
62
5
10
128.750000
20
337.125000
0
VERTEX
5
eb
100
AcDbEntity
8
1
100
AcDbVertex
100
AcDb2dVertex
62
5
10
132.812500
20
337.125000
0
VERTEX
5
ec
100
AcDbEntity
8
1
100
AcDbVertex
100
AcDb2dVertex
62
5
10
132.812500
20
336.812500
0
VERTEX
5
ed
100
AcDbEntity
8
1
100
AcDbVertex
100
AcDb2dVertex
62
5
10
132.187500
20
335.562500
0
VERTEX
5
ee
100
AcDbEntity
8
1
100
AcDbVertex
100
AcDb2dVertex
62
5
10
131.562500
20
334.625000
0
VERTEX
5
ef
100
AcDbEntity
8
1
100
AcDbVertex
100
AcDb2dVertex
62
5
10
130.312500
20
333.375000
0
VERTEX
5
f0
100
AcDbEntity
8
1
100
AcDbVertex
100
AcDb2dVertex
62
5
10
128.125000
20
331.812500
0
SEQEND
5
f1
100
AcDbEntity
8
1
0
LINE
5
f2
100
AcDbEntity
8
1
100
AcDbLine
6
CONTINUOUS
62
5
10
131.562500
20
334.625000
11
134.062500
21
331.812500
0
POLYLINE
5
f3
100
AcDbEntity
8
1
6
CONTINUOUS
62
5
100
AcDb2dPolyline
66
1
10
0.0
20
0.0
30
0.0
70
0
0
VERTEX
5
f4
100
AcDbEntity
8
1
100
AcDbVertex
100
AcDb2dVertex
62
5
10
133.437500
20
328.687500
0
VERTEX
5
f5
100
AcDbEntity
8
1
100
AcDbVertex
100
AcDb2dVertex
62
5
10
130.937500
20
326.187500
0
VERTEX
5
f6
100
AcDbEntity
8
1
100
AcDbVertex
100
AcDb2dVertex
62
5
10
128.125000
20
324.625000
0
SEQEND
5
f7
100
AcDbEntity
8
1
0
LINE
5
f8
100
AcDbEntity
8
1
100
AcDbLine
6
CONTINUOUS
62
5
10
131.562500
20
326.812500
11
131.562500
21
321.500000
0
POLYLINE
5
f9
100
AcDbEntity
8
1
6
CONTINUOUS
62
5
100
AcDb2dPolyline
66
1
10
0.0
20
0.0
30
0.0
70
0
0
VERTEX
5
fa
100
AcDbEntity
8
1
100
AcDbVertex
100
AcDb2dVertex
62
5
10
140.312500
20
326.187500
0
VERTEX
5
fb
100
AcDbEntity
8
1
100
AcDbVertex
100
AcDb2dVertex
62
5
10
140.625000
20
326.187500
0
VERTEX
5
fc
100
AcDbEntity
8
1
100
AcDbVertex
100
AcDb2dVertex
62
5
10
142.812500
20
324.937500
0
SEQEND
5
fd
100
AcDbEntity
8
1
0
LINE
5
fe
100
AcDbEntity
8
1
100
AcDbLine
6
CONTINUOUS
62
5
10
140.312500
20
329.000000
11
140.312500
21
321.500000
0
POLYLINE
5
ff
100
AcDbEntity
8
1
6
CONTINUOUS
62
5
100
AcDb2dPolyline
66
1
10
0.0
20
0.0
30
0.0
70
0
0
VERTEX
5
100
100
AcDbEntity
8
1
100
AcDbVertex
100
AcDb2dVertex
62
5
10
150.312500
20
329.625000
0
VERTEX
5
101
100
AcDbEntity
8
1
100
AcDbVertex
100
AcDb2dVertex
62
5
10
149.375000
20
328.375000
0
VERTEX
5
102
100
AcDbEntity
8
1
100
AcDbVertex
100
AcDb2dVertex
62
5
10
148.437500
20
327.437500
0
VERTEX
5
103
100
AcDbEntity
8
1
100
AcDbVertex
100
AcDb2dVertex
62
5
10
147.187500
20
326.500000
0
SEQEND
5
104
100
AcDbEntity
8
1
0
POLYLINE
5
105
100
AcDbEntity
8
1
6
CONTINUOUS
62
5
100
AcDb2dPolyline
66
1
10
0.0
20
0.0
30
0.0
70
0
0
VERTEX
5
106
100
AcDbEntity
8
1
100
AcDbVertex
100
AcDb2dVertex
62
5
10
150.000000
20
329.000000
0
VERTEX
5
107
100
AcDbEntity
8
1
100
AcDbVertex
100
AcDb2dVertex
62
5
10
152.812500
20
329.000000
0
VERTEX
5
108
100
AcDbEntity
8
1
100
AcDbVertex
100
AcDb2dVertex
62
5
10
151.250000
20
327.125000
0
SEQEND
5
109
100
AcDbEntity
8
1
0
POLYLINE
5
10a
100
AcDbEntity
8
1
6
CONTINUOUS
62
5
100
AcDb2dPolyline
66
1
10
0.0
20
0.0
30
0.0
70
0
0
VERTEX
5
10b
100
AcDbEntity
8
1
100
AcDbVertex
100
AcDb2dVertex
62
5
10
148.437500
20
327.125000
0
VERTEX
5
10c
100
AcDbEntity
8
1
100
AcDbVertex
100
AcDb2dVertex
62
5
10
154.062500
20
327.125000
0
VERTEX
5
10d
100
AcDbEntity
8
1
100
AcDbVertex
100
AcDb2dVertex
62
5
10
154.062500
20
324.312500
0
VERTEX
5
10e
100
AcDbEntity
8
1
100
AcDbVertex
100
AcDb2dVertex
62
5
10
148.437500
20
324.312500
0
SEQEND
5
10f
100
AcDbEntity
8
1
0
LINE
5
110
100
AcDbEntity
8
1
100
AcDbLine
6
CONTINUOUS
62
5
10
151.250000
20
327.125000
11
151.250000
21
324.312500
0
POLYLINE
5
111
100
AcDbEntity
8
1
6
CONTINUOUS
62
5
100
AcDb2dPolyline
66
1
10
0.0
20
0.0
30
0.0
70
0
0
VERTEX
5
112
100
AcDbEntity
8
1
100
AcDbVertex
100
AcDb2dVertex
62
5
10
148.437500
20
327.125000
0
VERTEX
5
113
100
AcDbEntity
8
1
100
AcDbVertex
100
AcDb2dVertex
62
5
10
148.437500
20
321.812500
0
VERTEX
5
114
100
AcDbEntity
8
1
100
AcDbVertex
100
AcDb2dVertex
62
5
10
149.062500
20
321.187500
0
VERTEX
5
115
100
AcDbEntity
8
1
100
AcDbVertex
100
AcDb2dVertex
62
5
10
155.312500
20
321.187500
0
VERTEX
5
116
100
AcDbEntity
8
1
100
AcDbVertex
100
AcDb2dVertex
62
5
10
155.312500
20
322.437500
0
SEQEND
5
117
100
AcDbEntity
8
1
0
POLYLINE
5
118
100
AcDbEntity
8
1
6
CONTINUOUS
62
5
100
AcDb2dPolyline
66
1
10
0.0
20
0.0
30
0.0
70
0
0
VERTEX
5
119
100
AcDbEntity
8
1
100
AcDbVertex
100
AcDb2dVertex
62
5
10
147.500000
20
336.812500
0
VERTEX
5
11a
100
AcDbEntity
8
1
100
AcDbVertex
100
AcDb2dVertex
62
5
10
147.812500
20
338.375000
0
VERTEX
5
11b
100
AcDbEntity
8
1
100
AcDbVertex
100
AcDb2dVertex
62
5
10
148.750000
20
339.000000
0
VERTEX
5
11c
100
AcDbEntity
8
1
100
AcDbVertex
100
AcDb2dVertex
62
5
10
149.687500
20
339.000000
0
VERTEX
5
11d
100
AcDbEntity
8
1
100
AcDbVertex
100
AcDb2dVertex
62
5
10
150.312500
20
338.687500
0
VERTEX
5
11e
100
AcDbEntity
8
1
100
AcDbVertex
100
AcDb2dVertex
62
5
10
150.625000
20
337.750000
0
VERTEX
5
11f
100
AcDbEntity
8
1
100
AcDbVertex
100
AcDb2dVertex
62
5
10
150.625000
20
336.812500
0
VERTEX
5
120
100
AcDbEntity
8
1
100
AcDbVertex
100
AcDb2dVertex
62
5
10
150.312500
20
335.875000
0
VERTEX
5
121
100
AcDbEntity
8
1
100
AcDbVertex
100
AcDb2dVertex
62
5
10
147.500000
20
331.500000
0
VERTEX
5
122
100
AcDbEntity
8
1
100
AcDbVertex
100
AcDb2dVertex
62
5
10
150.625000
20
331.500000
0
VERTEX
5
123
100
AcDbEntity
8
1
100
AcDbVertex
100
AcDb2dVertex
62
5
10
150.625000
20
332.437500
0
SEQEND
5
124
100
AcDbEntity
8
1
0
LINE
5
125
100
AcDbEntity
8
1
100
AcDbLine
6
CONTINUOUS
62
5
10
152.187500
20
339.000000
11
153.437500
21
338.062500
0
POLYLINE
5
126
100
AcDbEntity
8
1
6
CONTINUOUS
62
5
100
AcDb2dPolyline
66
1
10
0.0
20
0.0
30
0.0
70
0
0
VERTEX
5
127
100
AcDbEntity
8
1
100
AcDbVertex
100
AcDb2dVertex
62
5
10
151.562500
20
335.250000
0
VERTEX
5
128
100
AcDbEntity
8
1
100
AcDbVertex
100
AcDb2dVertex
62
5
10
153.125000
20
335.250000
0
VERTEX
5
129
100
AcDbEntity
8
1
100
AcDbVertex
100
AcDb2dVertex
62
5
10
153.125000
20
332.125000
0
VERTEX
5
12a
100
AcDbEntity
8
1
100
AcDbVertex
100
AcDb2dVertex
62
5
10
151.562500
20
331.187500
0
SEQEND
5
12b
100
AcDbEntity
8
1
0
POLYLINE
5
12c
100
AcDbEntity
8
1
6
CONTINUOUS
62
5
100
AcDb2dPolyline
66
1
10
0.0
20
0.0
30
0.0
70
0
0
VERTEX
5
12d
100
AcDbEntity
8
1
100
AcDbVertex
100
AcDb2dVertex
62
5
10
153.125000
20
332.125000
0
VERTEX
5
12e
100
AcDbEntity
8
1
100
AcDbVertex
100
AcDb2dVertex
62
5
10
154.375000
20
331.500000
0
VERTEX
5
12f
100
AcDbEntity
8
1
100
AcDbVertex
100
AcDb2dVertex
62
5
10
160.312500
20
330.875000
0
SEQEND
5
130
100
AcDbEntity
8
1
0
LINE
5
131
100
AcDbEntity
8
1
100
AcDbLine
6
CONTINUOUS
62
5
10
154.375000
20
338.375000
11
160.312500
21
338.375000
0
LINE
5
132
100
AcDbEntity
8
1
100
AcDbLine
6
CONTINUOUS
62
5
10
157.500000
20
339.625000
11
157.500000
21
332.125000
0
POLYLINE
5
133
100
AcDbEntity
8
1
6
CONTINUOUS
62
5
100
AcDb2dPolyline
66
1
10
0.0
20
0.0
30
0.0
70
1
0
VERTEX
5
134
100
AcDbEntity
8
1
100
AcDbVertex
100
AcDb2dVertex
62
5
10
155.000000
20
337.125000
0
VERTEX
5
135
100
AcDbEntity
8
1
100
AcDbVertex
100
AcDb2dVertex
62
5
10
155.000000
20
334.625000
0
VERTEX
5
136
100
AcDbEntity
8
1
100
AcDbVertex
100
AcDb2dVertex
62
5
10
159.687500
20
334.625000
0
VERTEX
5
137
100
AcDbEntity
8
1
100
AcDbVertex
100
AcDb2dVertex
62
5
10
159.687500
20
337.125000
0
VERTEX
5
138
100
AcDbEntity
8
1
100
AcDbVertex
100
AcDb2dVertex
62
5
10
155.000000
20
337.125000
0
SEQEND
5
139
100
AcDbEntity
8
1
0
LINE
5
13a
100
AcDbEntity
8
1
100
AcDbLine
6
CONTINUOUS
62
5
10
155.000000
20
335.875000
11
159.687500
21
335.875000
0
LINE
5
13b
100
AcDbEntity
8
1
100
AcDbLine
6
CONTINUOUS
62
5
10
153.750000
20
333.375000
11
160.625000
21
333.375000
0
POLYLINE
5
13c
100
AcDbEntity
8
1
6
CONTINUOUS
62
5
100
AcDb2dPolyline
66
1
10
0.0
20
0.0
30
0.0
70
0
0
VERTEX
5
13d
100
AcDbEntity
8
1
100
AcDbVertex
100
AcDb2dVertex
62
5
10
163.125000
20
339.000000
0
VERTEX
5
13e
100
AcDbEntity
8
1
100
AcDbVertex
100
AcDb2dVertex
62
5
10
163.125000
20
333.375000
0
VERTEX
5
13f
100
AcDbEntity
8
1
100
AcDbVertex
100
AcDb2dVertex
62
5
10
162.500000
20
332.125000
0
VERTEX
5
140
100
AcDbEntity
8
1
100
AcDbVertex
100
AcDb2dVertex
62
5
10
161.875000
20
331.187500
0
SEQEND
5
141
100
AcDbEntity
8
1
0
POLYLINE
5
142
100
AcDbEntity
8
1
6
CONTINUOUS
62
5
100
AcDb2dPolyline
66
1
10
0.0
20
0.0
30
0.0
70
0
0
VERTEX
5
143
100
AcDbEntity
8
1
100
AcDbVertex
100
AcDb2dVertex
62
5
10
168.125000
20
331.500000
0
VERTEX
5
144
100
AcDbEntity
8
1
100
AcDbVertex
100
AcDb2dVertex
62
5
10
169.375000
20
330.875000
0
VERTEX
5
145
100
AcDbEntity
8
1
100
AcDbVertex
100
AcDb2dVertex
62
5
10
169.375000
20
339.000000
0
VERTEX
5
146
100
AcDbEntity
8
1
100
AcDbVertex
100
AcDb2dVertex
62
5
10
163.125000
20
339.000000
0
SEQEND
5
147
100
AcDbEntity
8
1
0
LINE
5
148
100
AcDbEntity
8
1
100
AcDbLine
6
CONTINUOUS
62
5
10
163.125000
20
336.500000
11
169.375000
21
336.500000
0
LINE
5
149
100
AcDbEntity
8
1
100
AcDbLine
6
CONTINUOUS
62
5
10
166.250000
20
339.000000
11
166.250000
21
330.875000
0
LINE
5
14a
100
AcDbEntity
8
1
100
AcDbLine
6
CONTINUOUS
62
5
10
163.125000
20
334.000000
11
169.375000
21
334.000000
0
LINE
5
14b
100
AcDbEntity
8
1
100
AcDbLine
6
CONTINUOUS
62
5
10
109.062500
20
335.562500
11
109.375000
21
334.312500
0
LINE
5
14c
100
AcDbEntity
8
1
100
AcDbLine
6
CONTINUOUS
62
5
10
110.937500
20
335.875000
11
111.250000
21
334.625000
0
POLYLINE
5
14d
100
AcDbEntity
8
1
6
CONTINUOUS
62
5
100
AcDb2dPolyline
66
1
10
0.0
20
0.0
30
0.0
70
0
0
VERTEX
5
14e
100
AcDbEntity
8
1
100
AcDbVertex
100
AcDb2dVertex
62
5
10
113.437500
20
335.875000
0
VERTEX
5
14f
100
AcDbEntity
8
1
100
AcDbVertex
100
AcDb2dVertex
62
5
10
113.125000
20
334.312500
0
VERTEX
5
150
100
AcDbEntity
8
1
100
AcDbVertex
100
AcDb2dVertex
62
5
10
111.562500
20
332.437500
0
VERTEX
5
151
100
AcDbEntity
8
1
100
AcDbVertex
100
AcDb2dVertex
62
5
10
110.312500
20
331.500000
0
SEQEND
5
152
100
AcDbEntity
8
1
0
POLYLINE
5
153
100
AcDbEntity
8
1
6
CONTINUOUS
62
5
100
AcDb2dPolyline
66
1
10
0.0
20
0.0
30
0.0
70
0
0
VERTEX
5
154
100
AcDbEntity
8
1
100
AcDbVertex
100
AcDb2dVertex
62
5
10
118.437500
20
335.250000
0
VERTEX
5
155
100
AcDbEntity
8
1
100
AcDbVertex
100
AcDb2dVertex
62
5
10
119.687500
20
336.500000
0
VERTEX
5
156
100
AcDbEntity
8
1
100
AcDbVertex
100
AcDb2dVertex
62
5
10
120.312500
20
337.437500
0
VERTEX
5
157
100
AcDbEntity
8
1
100
AcDbVertex
100
AcDb2dVertex
62
5
10
123.437500
20
337.437500
0
VERTEX
5
158
100
AcDbEntity
8
1
100
AcDbVertex
100
AcDb2dVertex
62
5
10
123.437500
20
337.125000
0
VERTEX
5
159
100
AcDbEntity
8
1
100
AcDbVertex
100
AcDb2dVertex
62
5
10
122.500000
20
335.250000
0
VERTEX
5
15a
100
AcDbEntity
8
1
100
AcDbVertex
100
AcDb2dVertex
62
5
10
120.937500
20
333.375000
0
VERTEX
5
15b
100
AcDbEntity
8
1
100
AcDbVertex
100
AcDb2dVertex
62
5
10
119.062500
20
331.812500
0
SEQEND
5
15c
100
AcDbEntity
8
1
0
LINE
5
15d
100
AcDbEntity
8
1
100
AcDbLine
6
CONTINUOUS
62
5
10
107.812500
20
326.187500
11
114.062500
21
326.187500
0
POLYLINE
5
15e
100
AcDbEntity
8
1
6
CONTINUOUS
62
5
100
AcDb2dPolyline
66
1
10
0.0
20
0.0
30
0.0
70
0
0
VERTEX
5
15f
100
AcDbEntity
8
1
100
AcDbVertex
100
AcDb2dVertex
62
5
10
110.937500
20
328.062500
0
VERTEX
5
160
100
AcDbEntity
8
1
100
AcDbVertex
100
AcDb2dVertex
62
5
10
110.937500
20
321.812500
0
VERTEX
5
161
100
AcDbEntity
8
1
100
AcDbVertex
100
AcDb2dVertex
62
5
10
110.312500
20
321.812500
0
SEQEND
5
162
100
AcDbEntity
8
1
0
LINE
5
163
100
AcDbEntity
8
1
100
AcDbLine
6
CONTINUOUS
62
5
10
109.375000
20
324.625000
11
107.812500
21
322.750000
0
LINE
5
164
100
AcDbEntity
8
1
100
AcDbLine
6
CONTINUOUS
62
5
10
112.812500
20
324.625000
11
114.375000
21
323.062500
0
POLYLINE
5
165
100
AcDbEntity
8
1
6
CONTINUOUS
62
5
100
AcDb2dPolyline
66
1
10
0.0
20
0.0
30
0.0
70
0
0
VERTEX
5
166
100
AcDbEntity
8
1
100
AcDbVertex
100
AcDb2dVertex
62
5
10
118.437500
20
325.562500
0
VERTEX
5
167
100
AcDbEntity
8
1
100
AcDbVertex
100
AcDb2dVertex
62
5
10
118.437500
20
327.750000
0
VERTEX
5
168
100
AcDbEntity
8
1
100
AcDbVertex
100
AcDb2dVertex
62
5
10
123.437500
20
327.750000
0
VERTEX
5
169
100
AcDbEntity
8
1
100
AcDbVertex
100
AcDb2dVertex
62
5
10
123.437500
20
326.812500
0
VERTEX
5
16a
100
AcDbEntity
8
1
100
AcDbVertex
100
AcDb2dVertex
62
5
10
123.125000
20
325.250000
0
VERTEX
5
16b
100
AcDbEntity
8
1
100
AcDbVertex
100
AcDb2dVertex
62
5
10
122.500000
20
324.000000
0
VERTEX
5
16c
100
AcDbEntity
8
1
100
AcDbVertex
100
AcDb2dVertex
62
5
10
121.875000
20
323.062500
0
VERTEX
5
16d
100
AcDbEntity
8
1
100
AcDbVertex
100
AcDb2dVertex
62
5
10
120.625000
20
321.812500
0
SEQEND
5
16e
100
AcDbEntity
8
1
0
POLYLINE
5
16f
100
AcDbEntity
8
1
6
CONTINUOUS
62
5
100
AcDb2dPolyline
66
1
10
0.0
20
0.0
30
0.0
70
0
0
VERTEX
5
170
100
AcDbEntity
8
1
100
AcDbVertex
100
AcDb2dVertex
62
5
10
89.375000
20
325.562500
0
VERTEX
5
171
100
AcDbEntity
8
1
100
AcDbVertex
100
AcDb2dVertex
62
5
10
91.875000
20
325.562500
0
VERTEX
5
172
100
AcDbEntity
8
1
100
AcDbVertex
100
AcDb2dVertex
62
5
10
91.562500
20
322.437500
0
SEQEND
5
173
100
AcDbEntity
8
1
0
LINE
5
174
100
AcDbEntity
8
1
100
AcDbLine
6
CONTINUOUS
62
5
10
88.437500
20
322.437500
11
93.750000
21
322.437500
0
POLYLINE
5
175
100
AcDbEntity
8
1
6
CONTINUOUS
62
5
100
AcDb2dPolyline
66
1
10
0.0
20
0.0
30
0.0
70
0
0
VERTEX
5
176
100
AcDbEntity
8
1
100
AcDbVertex
100
AcDb2dVertex
62
5
10
97.500000
20
327.437500
0
VERTEX
5
177
100
AcDbEntity
8
1
100
AcDbVertex
100
AcDb2dVertex
62
5
10
104.062500
20
327.437500
0
VERTEX
5
178
100
AcDbEntity
8
1
100
AcDbVertex
100
AcDb2dVertex
62
5
10
104.062500
20
327.125000
0
VERTEX
5
179
100
AcDbEntity
8
1
100
AcDbVertex
100
AcDb2dVertex
62
5
10
101.875000
20
325.250000
0
VERTEX
5
17a
100
AcDbEntity
8
1
100
AcDbVertex
100
AcDb2dVertex
62
5
10
100.937500
20
325.250000
0
SEQEND
5
17b
100
AcDbEntity
8
1
0
POLYLINE
5
17c
100
AcDbEntity
8
1
6
CONTINUOUS
62
5
100
AcDb2dPolyline
66
1
10
0.0
20
0.0
30
0.0
70
0
0
VERTEX
5
17d
100
AcDbEntity
8
1
100
AcDbVertex
100
AcDb2dVertex
62
5
10
100.937500
20
326.187500
0
VERTEX
5
17e
100
AcDbEntity
8
1
100
AcDbVertex
100
AcDb2dVertex
62
5
10
100.937500
20
324.625000
0
VERTEX
5
17f
100
AcDbEntity
8
1
100
AcDbVertex
100
AcDb2dVertex
62
5
10
100.000000
20
322.750000
0
VERTEX
5
180
100
AcDbEntity
8
1
100
AcDbVertex
100
AcDb2dVertex
62
5
10
98.750000
20
321.500000
0
SEQEND
5
181
100
AcDbEntity
8
1
0
POLYLINE
5
182
100
AcDbEntity
8
1
6
CONTINUOUS
62
5
100
AcDb2dPolyline
66
1
10
0.0
20
0.0
30
0.0
70
0
0
VERTEX
5
183
100
AcDbEntity
8
1
100
AcDbVertex
100
AcDb2dVertex
62
5
10
88.125000
20
338.375000
0
VERTEX
5
184
100
AcDbEntity
8
1
100
AcDbVertex
100
AcDb2dVertex
62
5
10
88.125000
20
335.562500
0
VERTEX
5
185
100
AcDbEntity
8
1
100
AcDbVertex
100
AcDb2dVertex
62
5
10
93.750000
20
335.562500
0
VERTEX
5
186
100
AcDbEntity
8
1
100
AcDbVertex
100
AcDb2dVertex
62
5
10
93.750000
20
338.375000
0
SEQEND
5
187
100
AcDbEntity
8
1
0
LINE
5
188
100
AcDbEntity
8
1
100
AcDbLine
6
CONTINUOUS
62
5
10
90.937500
20
339.625000
11
90.937500
21
330.875000
0
POLYLINE
5
189
100
AcDbEntity
8
1
6
CONTINUOUS
62
5
100
AcDb2dPolyline
66
1
10
0.0
20
0.0
30
0.0
70
0
0
VERTEX
5
18a
100
AcDbEntity
8
1
100
AcDbVertex
100
AcDb2dVertex
62
5
10
87.500000
20
334.000000
0
VERTEX
5
18b
100
AcDbEntity
8
1
100
AcDbVertex
100
AcDb2dVertex
62
5
10
87.500000
20
330.875000
0
VERTEX
5
18c
100
AcDbEntity
8
1
100
AcDbVertex
100
AcDb2dVertex
62
5
10
94.375000
20
330.875000
0
VERTEX
5
18d
100
AcDbEntity
8
1
100
AcDbVertex
100
AcDb2dVertex
62
5
10
94.375000
20
334.000000
0
SEQEND
5
18e
100
AcDbEntity
8
1
0
LINE
5
18f
100
AcDbEntity
8
1
100
AcDbLine
6
CONTINUOUS
62
5
10
97.812500
20
336.187500
11
104.062500
21
336.187500
0
POLYLINE
5
190
100
AcDbEntity
8
1
6
CONTINUOUS
62
5
100
AcDb2dPolyline
66
1
10
0.0
20
0.0
30
0.0
70
0
0
VERTEX
5
191
100
AcDbEntity
8
1
100
AcDbVertex
100
AcDb2dVertex
62
5
10
100.937500
20
338.062500
0
VERTEX
5
192
100
AcDbEntity
8
1
100
AcDbVertex
100
AcDb2dVertex
62
5
10
100.937500
20
331.812500
0
VERTEX
5
193
100
AcDbEntity
8
1
100
AcDbVertex
100
AcDb2dVertex
62
5
10
100.312500
20
331.812500
0
SEQEND
5
194
100
AcDbEntity
8
1
0
LINE
5
195
100
AcDbEntity
8
1
100
AcDbLine
6
CONTINUOUS
62
5
10
99.062500
20
334.625000
11
97.812500
21
332.750000
0
LINE
5
196
100
AcDbEntity
8
1
100
AcDbLine
6
CONTINUOUS
62
5
10
102.812500
20
334.625000
11
104.375000
21
333.062500
0
LINE
5
197
100
AcDbEntity
8
1
100
AcDbLine
6
CONTINUOUS
62
5
10
102.812500
20
338.062500
11
103.750000
21
337.125000
0
LINE
5
198
100
AcDbEntity
8
1
100
AcDbLine
6
CONTINUOUS
62
5
10
103.750000
20
339.000000
11
104.687500
21
338.062500
0
LINE
5
199
100
AcDbEntity
8
1
100
AcDbLine
6
CONTINUOUS
62
5
10
87.500000
20
296.750000
11
90.625000
21
296.750000
0
POLYLINE
5
19a
100
AcDbEntity
8
1
6
CONTINUOUS
62
5
100
AcDb2dPolyline
66
1
10
0.0
20
0.0
30
0.0
70
0
0
VERTEX
5
19b
100
AcDbEntity
8
1
100
AcDbVertex
100
AcDb2dVertex
62
5
10
95.625000
20
300.500000
0
VERTEX
5
19c
100
AcDbEntity
8
1
100
AcDbVertex
100
AcDb2dVertex
62
5
10
92.500000
20
300.500000
0
VERTEX
5
19d
100
AcDbEntity
8
1
100
AcDbVertex
100
AcDb2dVertex
62
5
10
92.500000
20
293.000000
0
SEQEND
5
19e
100
AcDbEntity
8
1
0
LINE
5
19f
100
AcDbEntity
8
1
100
AcDbLine
6
CONTINUOUS
62
5
10
92.500000
20
296.750000
11
95.000000
21
296.750000
0
POLYLINE
5
1a0
100
AcDbEntity
8
1
6
CONTINUOUS
62
5
100
AcDb2dPolyline
66
1
10
0.0
20
0.0
30
0.0
70
0
0
VERTEX
5
1a1
100
AcDbEntity
8
1
100
AcDbVertex
100
AcDb2dVertex
62
5
10
97.500000
20
298.312500
0
VERTEX
5
1a2
100
AcDbEntity
8
1
100
AcDbVertex
100
AcDb2dVertex
62
5
10
97.812500
20
299.875000
0
VERTEX
5
1a3
100
AcDbEntity
8
1
100
AcDbVertex
100
AcDb2dVertex
62
5
10
98.750000
20
300.500000
0
VERTEX
5
1a4
100
AcDbEntity
8
1
100
AcDbVertex
100
AcDb2dVertex
62
5
10
99.687500
20
300.500000
0
VERTEX
5
1a5
100
AcDbEntity
8
1
100
AcDbVertex
100
AcDb2dVertex
62
5
10
100.312500
20
300.187500
0
VERTEX
5
1a6
100
AcDbEntity
8
1
100
AcDbVertex
100
AcDb2dVertex
62
5
10
100.625000
20
299.250000
0
VERTEX
5
1a7
100
AcDbEntity
8
1
100
AcDbVertex
100
AcDb2dVertex
62
5
10
100.625000
20
298.312500
0
VERTEX
5
1a8
100
AcDbEntity
8
1
100
AcDbVertex
100
AcDb2dVertex
62
5
10
100.312500
20
297.375000
0
VERTEX
5
1a9
100
AcDbEntity
8
1
100
AcDbVertex
100
AcDb2dVertex
62
5
10
97.500000
20
293.000000
0
VERTEX
5
1aa
100
AcDbEntity
8
1
100
AcDbVertex
100
AcDb2dVertex
62
5
10
100.625000
20
293.000000
0
VERTEX
5
1ab
100
AcDbEntity
8
1
100
AcDbVertex
100
AcDb2dVertex
62
5
10
100.625000
20
293.937500
0
SEQEND
5
1ac
100
AcDbEntity
8
1
0
POLYLINE
5
1ad
100
AcDbEntity
8
1
6
CONTINUOUS
62
5
100
AcDb2dPolyline
66
1
10
0.0
20
0.0
30
0.0
70
0
0
VERTEX
5
1ae
100
AcDbEntity
8
1
100
AcDbVertex
100
AcDb2dVertex
62
5
10
105.625000
20
298.937500
0
VERTEX
5
1af
100
AcDbEntity
8
1
100
AcDbVertex
100
AcDb2dVertex
62
5
10
105.000000
20
300.187500
0
VERTEX
5
1b0
100
AcDbEntity
8
1
100
AcDbVertex
100
AcDb2dVertex
62
5
10
104.062500
20
300.500000
0
VERTEX
5
1b1
100
AcDbEntity
8
1
100
AcDbVertex
100
AcDb2dVertex
62
5
10
103.437500
20
300.500000
0
VERTEX
5
1b2
100
AcDbEntity
8
1
100
AcDbVertex
100
AcDb2dVertex
62
5
10
102.812500
20
300.187500
0
VERTEX
5
1b3
100
AcDbEntity
8
1
100
AcDbVertex
100
AcDb2dVertex
62
5
10
102.187500
20
299.250000
0
VERTEX
5
1b4
100
AcDbEntity
8
1
100
AcDbVertex
100
AcDb2dVertex
62
5
10
102.187500
20
298.312500
0
VERTEX
5
1b5
100
AcDbEntity
8
1
100
AcDbVertex
100
AcDb2dVertex
62
5
10
102.812500
20
297.375000
0
VERTEX
5
1b6
100
AcDbEntity
8
1
100
AcDbVertex
100
AcDb2dVertex
62
5
10
105.000000
20
296.125000
0
VERTEX
5
1b7
100
AcDbEntity
8
1
100
AcDbVertex
100
AcDb2dVertex
62
5
10
105.625000
20
295.187500
0
VERTEX
5
1b8
100
AcDbEntity
8
1
100
AcDbVertex
100
AcDb2dVertex
62
5
10
105.625000
20
294.250000
0
VERTEX
5
1b9
100
AcDbEntity
8
1
100
AcDbVertex
100
AcDb2dVertex
62
5
10
105.000000
20
293.312500
0
VERTEX
5
1ba
100
AcDbEntity
8
1
100
AcDbVertex
100
AcDb2dVertex
62
5
10
104.062500
20
293.000000
0
VERTEX
5
1bb
100
AcDbEntity
8
1
100
AcDbVertex
100
AcDb2dVertex
62
5
10
103.437500
20
293.000000
0
VERTEX
5
1bc
100
AcDbEntity
8
1
100
AcDbVertex
100
AcDb2dVertex
62
5
10
102.500000
20
293.625000
0
VERTEX
5
1bd
100
AcDbEntity
8
1
100
AcDbVertex
100
AcDb2dVertex
62
5
10
102.187500
20
294.875000
0
SEQEND
5
1be
100
AcDbEntity
8
1
0
LINE
5
1bf
100
AcDbEntity
8
1
100
AcDbLine
6
CONTINUOUS
62
5
10
112.500000
20
300.500000
11
112.500000
21
293.000000
0
POLYLINE
5
1c0
100
AcDbEntity
8
1
6
CONTINUOUS
62
5
100
AcDb2dPolyline
66
1
10
0.0
20
0.0
30
0.0
70
0
0
VERTEX
5
1c1
100
AcDbEntity
8
1
100
AcDbVertex
100
AcDb2dVertex
62
5
10
112.500000
20
300.500000
0
VERTEX
5
1c2
100
AcDbEntity
8
1
100
AcDbVertex
100
AcDb2dVertex
62
5
10
113.750000
20
300.500000
0
VERTEX
5
1c3
100
AcDbEntity
8
1
100
AcDbVertex
100
AcDb2dVertex
62
5
10
114.687500
20
300.187500
0
VERTEX
5
1c4
100
AcDbEntity
8
1
100
AcDbVertex
100
AcDb2dVertex
62
5
10
115.312500
20
299.562500
0
VERTEX
5
1c5
100
AcDbEntity
8
1
100
AcDbVertex
100
AcDb2dVertex
62
5
10
115.625000
20
298.937500
0
VERTEX
5
1c6
100
AcDbEntity
8
1
100
AcDbVertex
100
AcDb2dVertex
62
5
10
115.625000
20
298.000000
0
VERTEX
5
1c7
100
AcDbEntity
8
1
100
AcDbVertex
100
AcDb2dVertex
62
5
10
115.312500
20
297.375000
0
VERTEX
5
1c8
100
AcDbEntity
8
1
100
AcDbVertex
100
AcDb2dVertex
62
5
10
114.687500
20
296.750000
0
VERTEX
5
1c9
100
AcDbEntity
8
1
100
AcDbVertex
100
AcDb2dVertex
62
5
10
113.750000
20
296.437500
0
VERTEX
5
1ca
100
AcDbEntity
8
1
100
AcDbVertex
100
AcDb2dVertex
62
5
10
112.500000
20
296.437500
0
SEQEND
5
1cb
100
AcDbEntity
8
1
0
POLYLINE
5
1cc
100
AcDbEntity
8
1
6
CONTINUOUS
62
5
100
AcDb2dPolyline
66
1
10
0.0
20
0.0
30
0.0
70
0
0
VERTEX
5
1cd
100
AcDbEntity
8
1
100
AcDbVertex
100
AcDb2dVertex
62
5
10
117.187500
20
300.500000
0
VERTEX
5
1ce
100
AcDbEntity
8
1
100
AcDbVertex
100
AcDb2dVertex
62
5
10
118.125000
20
293.000000
0
VERTEX
5
1cf
100
AcDbEntity
8
1
100
AcDbVertex
100
AcDb2dVertex
62
5
10
119.062500
20
300.500000
0
VERTEX
5
1d0
100
AcDbEntity
8
1
100
AcDbVertex
100
AcDb2dVertex
62
5
10
120.000000
20
293.000000
0
VERTEX
5
1d1
100
AcDbEntity
8
1
100
AcDbVertex
100
AcDb2dVertex
62
5
10
120.937500
20
300.500000
0
SEQEND
5
1d2
100
AcDbEntity
8
1
0
LINE
5
1d3
100
AcDbEntity
8
1
100
AcDbLine
6
CONTINUOUS
62
5
10
50.000000
20
350.000000
11
50.000000
21
318.000000
0
LINE
5
1d4
100
AcDbEntity
8
1
100
AcDbLine
6
CONTINUOUS
62
5
10
67.500000
20
296.750000
11
70.625000
21
296.750000
0
POLYLINE
5
1d5
100
AcDbEntity
8
1
6
CONTINUOUS
62
5
100
AcDb2dPolyline
66
1
10
0.0
20
0.0
30
0.0
70
0
0
VERTEX
5
1d6
100
AcDbEntity
8
1
100
AcDbVertex
100
AcDb2dVertex
62
5
10
65.312500
20
300.500000
0
VERTEX
5
1d7
100
AcDbEntity
8
1
100
AcDbVertex
100
AcDb2dVertex
62
5
10
65.312500
20
294.875000
0
VERTEX
5
1d8
100
AcDbEntity
8
1
100
AcDbVertex
100
AcDb2dVertex
62
5
10
65.000000
20
293.625000
0
VERTEX
5
1d9
100
AcDbEntity
8
1
100
AcDbVertex
100
AcDb2dVertex
62
5
10
64.375000
20
293.000000
0
VERTEX
5
1da
100
AcDbEntity
8
1
100
AcDbVertex
100
AcDb2dVertex
62
5
10
63.437500
20
293.000000
0
VERTEX
5
1db
100
AcDbEntity
8
1
100
AcDbVertex
100
AcDb2dVertex
62
5
10
62.812500
20
293.625000
0
VERTEX
5
1dc
100
AcDbEntity
8
1
100
AcDbVertex
100
AcDb2dVertex
62
5
10
62.500000
20
294.875000
0
SEQEND
5
1dd
100
AcDbEntity
8
1
0
LINE
5
1de
100
AcDbEntity
8
1
100
AcDbLine
6
CONTINUOUS
62
5
10
72.500000
20
300.500000
11
72.500000
21
293.000000
0
POLYLINE
5
1df
100
AcDbEntity
8
1
6
CONTINUOUS
62
5
100
AcDb2dPolyline
66
1
10
0.0
20
0.0
30
0.0
70
0
0
VERTEX
5
1e0
100
AcDbEntity
8
1
100
AcDbVertex
100
AcDb2dVertex
62
5
10
72.500000
20
300.500000
0
VERTEX
5
1e1
100
AcDbEntity
8
1
100
AcDbVertex
100
AcDb2dVertex
62
5
10
74.062500
20
300.500000
0
VERTEX
5
1e2
100
AcDbEntity
8
1
100
AcDbVertex
100
AcDb2dVertex
62
5
10
74.687500
20
300.187500
0
VERTEX
5
1e3
100
AcDbEntity
8
1
100
AcDbVertex
100
AcDb2dVertex
62
5
10
75.000000
20
299.875000
0
VERTEX
5
1e4
100
AcDbEntity
8
1
100
AcDbVertex
100
AcDb2dVertex
62
5
10
75.312500
20
299.250000
0
VERTEX
5
1e5
100
AcDbEntity
8
1
100
AcDbVertex
100
AcDb2dVertex
62
5
10
75.312500
20
298.312500
0
VERTEX
5
1e6
100
AcDbEntity
8
1
100
AcDbVertex
100
AcDb2dVertex
62
5
10
75.000000
20
297.687500
0
VERTEX
5
1e7
100
AcDbEntity
8
1
100
AcDbVertex
100
AcDb2dVertex
62
5
10
74.687500
20
297.375000
0
VERTEX
5
1e8
100
AcDbEntity
8
1
100
AcDbVertex
100
AcDb2dVertex
62
5
10
74.062500
20
297.062500
0
VERTEX
5
1e9
100
AcDbEntity
8
1
100
AcDbVertex
100
AcDb2dVertex
62
5
10
72.500000
20
297.062500
0
SEQEND
5
1ea
100
AcDbEntity
8
1
0
POLYLINE
5
1eb
100
AcDbEntity
8
1
6
CONTINUOUS
62
5
100
AcDb2dPolyline
66
1
10
0.0
20
0.0
30
0.0
70
0
0
VERTEX
5
1ec
100
AcDbEntity
8
1
100
AcDbVertex
100
AcDb2dVertex
62
5
10
74.062500
20
297.062500
0
VERTEX
5
1ed
100
AcDbEntity
8
1
100
AcDbVertex
100
AcDb2dVertex
62
5
10
74.687500
20
296.750000
0
VERTEX
5
1ee
100
AcDbEntity
8
1
100
AcDbVertex
100
AcDb2dVertex
62
5
10
75.312500
20
296.125000
0
VERTEX
5
1ef
100
AcDbEntity
8
1
100
AcDbVertex
100
AcDb2dVertex
62
5
10
75.625000
20
295.500000
0
VERTEX
5
1f0
100
AcDbEntity
8
1
100
AcDbVertex
100
AcDb2dVertex
62
5
10
75.625000
20
294.250000
0
VERTEX
5
1f1
100
AcDbEntity
8
1
100
AcDbVertex
100
AcDb2dVertex
62
5
10
75.312500
20
293.625000
0
VERTEX
5
1f2
100
AcDbEntity
8
1
100
AcDbVertex
100
AcDb2dVertex
62
5
10
75.000000
20
293.312500
0
VERTEX
5
1f3
100
AcDbEntity
8
1
100
AcDbVertex
100
AcDb2dVertex
62
5
10
74.375000
20
293.000000
0
VERTEX
5
1f4
100
AcDbEntity
8
1
100
AcDbVertex
100
AcDb2dVertex
62
5
10
72.500000
20
293.000000
0
SEQEND
5
1f5
100
AcDbEntity
8
1
0
POLYLINE
5
1f6
100
AcDbEntity
8
1
6
CONTINUOUS
62
5
100
AcDb2dPolyline
66
1
10
0.0
20
0.0
30
0.0
70
1
0
VERTEX
5
1f7
100
AcDbEntity
8
1
100
AcDbVertex
100
AcDb2dVertex
62
5
10
78.750000
20
300.500000
0
VERTEX
5
1f8
100
AcDbEntity
8
1
100
AcDbVertex
100
AcDb2dVertex
62
5
10
79.375000
20
300.500000
0
VERTEX
5
1f9
100
AcDbEntity
8
1
100
AcDbVertex
100
AcDb2dVertex
62
5
10
80.000000
20
300.187500
0
VERTEX
5
1fa
100
AcDbEntity
8
1
100
AcDbVertex
100
AcDb2dVertex
62
5
10
80.312500
20
299.875000
0
VERTEX
5
1fb
100
AcDbEntity
8
1
100
AcDbVertex
100
AcDb2dVertex
62
5
10
80.625000
20
298.625000
0
VERTEX
5
1fc
100
AcDbEntity
8
1
100
AcDbVertex
100
AcDb2dVertex
62
5
10
80.625000
20
294.875000
0
VERTEX
5
1fd
100
AcDbEntity
8
1
100
AcDbVertex
100
AcDb2dVertex
62
5
10
80.312500
20
293.625000
0
VERTEX
5
1fe
100
AcDbEntity
8
1
100
AcDbVertex
100
AcDb2dVertex
62
5
10
80.000000
20
293.312500
0
VERTEX
5
1ff
100
AcDbEntity
8
1
100
AcDbVertex
100
AcDb2dVertex
62
5
10
79.375000
20
293.000000
0
VERTEX
5
200
100
AcDbEntity
8
1
100
AcDbVertex
100
AcDb2dVertex
62
5
10
78.750000
20
293.000000
0
VERTEX
5
201
100
AcDbEntity
8
1
100
AcDbVertex
100
AcDb2dVertex
62
5
10
78.125000
20
293.312500
0
VERTEX
5
202
100
AcDbEntity
8
1
100
AcDbVertex
100
AcDb2dVertex
62
5
10
77.812500
20
293.625000
0
VERTEX
5
203
100
AcDbEntity
8
1
100
AcDbVertex
100
AcDb2dVertex
62
5
10
77.500000
20
294.875000
0
VERTEX
5
204
100
AcDbEntity
8
1
100
AcDbVertex
100
AcDb2dVertex
62
5
10
77.500000
20
298.625000
0
VERTEX
5
205
100
AcDbEntity
8
1
100
AcDbVertex
100
AcDb2dVertex
62
5
10
77.812500
20
299.875000
0
VERTEX
5
206
100
AcDbEntity
8
1
100
AcDbVertex
100
AcDb2dVertex
62
5
10
78.125000
20
300.187500
0
VERTEX
5
207
100
AcDbEntity
8
1
100
AcDbVertex
100
AcDb2dVertex
62
5
10
78.750000
20
300.500000
0
SEQEND
5
208
100
AcDbEntity
8
1
0
LINE
5
209
100
AcDbEntity
8
1
100
AcDbLine
6
CONTINUOUS
62
5
10
77.500000
20
339.312500
11
84.687500
21
339.312500
0
POLYLINE
5
20a
100
AcDbEntity
8
1
6
CONTINUOUS
62
5
100
AcDb2dPolyline
66
1
10
0.0
20
0.0
30
0.0
70
0
0
VERTEX
5
20b
100
AcDbEntity
8
1
100
AcDbVertex
100
AcDb2dVertex
62
5
10
77.187500
20
336.500000
0
VERTEX
5
20c
100
AcDbEntity
8
1
100
AcDbVertex
100
AcDb2dVertex
62
5
10
77.187500
20
338.375000
0
VERTEX
5
20d
100
AcDbEntity
8
1
100
AcDbVertex
100
AcDb2dVertex
62
5
10
85.312500
20
338.375000
0
VERTEX
5
20e
100
AcDbEntity
8
1
100
AcDbVertex
100
AcDb2dVertex
62
5
10
85.312500
20
336.500000
0
SEQEND
5
20f
100
AcDbEntity
8
1
0
LINE
5
210
100
AcDbEntity
8
1
100
AcDbLine
6
CONTINUOUS
62
5
10
81.250000
20
339.312500
11
81.250000
21
335.875000
0
LINE
5
211
100
AcDbEntity
8
1
100
AcDbLine
6
CONTINUOUS
62
5
10
78.125000
20
337.437500
11
80.312500
21
337.437500
0
LINE
5
212
100
AcDbEntity
8
1
100
AcDbLine
6
CONTINUOUS
62
5
10
78.125000
20
336.500000
11
80.312500
21
336.500000
0
LINE
5
213
100
AcDbEntity
8
1
100
AcDbLine
6
CONTINUOUS
62
5
10
82.187500
20
337.437500
11
84.375000
21
337.437500
0
LINE
5
214
100
AcDbEntity
8
1
100
AcDbLine
6
CONTINUOUS
62
5
10
82.187500
20
336.500000
11
84.375000
21
336.500000
0
POLYLINE
5
215
100
AcDbEntity
8
1
6
CONTINUOUS
62
5
100
AcDb2dPolyline
66
1
10
0.0
20
0.0
30
0.0
70
1
0
VERTEX
5
216
100
AcDbEntity
8
1
100
AcDbVertex
100
AcDb2dVertex
62
5
10
77.500000
20
335.250000
0
VERTEX
5
217
100
AcDbEntity
8
1
100
AcDbVertex
100
AcDb2dVertex
62
5
10
77.500000
20
334.000000
0
VERTEX
5
218
100
AcDbEntity
8
1
100
AcDbVertex
100
AcDb2dVertex
62
5
10
80.000000
20
334.000000
0
VERTEX
5
219
100
AcDbEntity
8
1
100
AcDbVertex
100
AcDb2dVertex
62
5
10
80.000000
20
335.250000
0
VERTEX
5
21a
100
AcDbEntity
8
1
100
AcDbVertex
100
AcDb2dVertex
62
5
10
77.500000
20
335.250000
0
SEQEND
5
21b
100
AcDbEntity
8
1
0
LINE
5
21c
100
AcDbEntity
8
1
100
AcDbLine
6
CONTINUOUS
62
5
10
78.750000
20
334.000000
11
78.750000
21
331.500000
0
LINE
5
21d
100
AcDbEntity
8
1
100
AcDbLine
6
CONTINUOUS
62
5
10
78.750000
20
333.062500
11
80.000000
21
333.062500
0
LINE
5
21e
100
AcDbEntity
8
1
100
AcDbLine
6
CONTINUOUS
62
5
10
77.500000
20
333.375000
11
77.500000
21
331.187500
0
LINE
5
21f
100
AcDbEntity
8
1
100
AcDbLine
6
CONTINUOUS
62
5
10
76.875000
20
330.875000
11
80.000000
21
331.812500
0
POLYLINE
5
220
100
AcDbEntity
8
1
6
CONTINUOUS
62
5
100
AcDb2dPolyline
66
1
10
0.0
20
0.0
30
0.0
70
0
0
VERTEX
5
221
100
AcDbEntity
8
1
100
AcDbVertex
100
AcDb2dVertex
62
5
10
82.500000
20
335.562500
0
VERTEX
5
222
100
AcDbEntity
8
1
100
AcDbVertex
100
AcDb2dVertex
62
5
10
82.187500
20
334.937500
0
VERTEX
5
223
100
AcDbEntity
8
1
100
AcDbVertex
100
AcDb2dVertex
62
5
10
81.562500
20
334.312500
0
VERTEX
5
224
100
AcDbEntity
8
1
100
AcDbVertex
100
AcDb2dVertex
62
5
10
80.937500
20
334.000000
0
SEQEND
5
225
100
AcDbEntity
8
1
0
POLYLINE
5
226
100
AcDbEntity
8
1
6
CONTINUOUS
62
5
100
AcDb2dPolyline
66
1
10
0.0
20
0.0
30
0.0
70
0
0
VERTEX
5
227
100
AcDbEntity
8
1
100
AcDbVertex
100
AcDb2dVertex
62
5
10
82.187500
20
334.937500
0
VERTEX
5
228
100
AcDbEntity
8
1
100
AcDbVertex
100
AcDb2dVertex
62
5
10
84.687500
20
334.937500
0
VERTEX
5
229
100
AcDbEntity
8
1
100
AcDbVertex
100
AcDb2dVertex
62
5
10
83.750000
20
334.000000
0
VERTEX
5
22a
100
AcDbEntity
8
1
100
AcDbVertex
100
AcDb2dVertex
62
5
10
82.812500
20
333.375000
0
VERTEX
5
22b
100
AcDbEntity
8
1
100
AcDbVertex
100
AcDb2dVertex
62
5
10
80.625000
20
332.750000
0
SEQEND
5
22c
100
AcDbEntity
8
1
0
POLYLINE
5
22d
100
AcDbEntity
8
1
6
CONTINUOUS
62
5
100
AcDb2dPolyline
66
1
10
0.0
20
0.0
30
0.0
70
0
0
VERTEX
5
22e
100
AcDbEntity
8
1
100
AcDbVertex
100
AcDb2dVertex
62
5
10
81.875000
20
334.625000
0
VERTEX
5
22f
100
AcDbEntity
8
1
100
AcDbVertex
100
AcDb2dVertex
62
5
10
82.500000
20
334.000000
0
VERTEX
5
230
100
AcDbEntity
8
1
100
AcDbVertex
100
AcDb2dVertex
62
5
10
83.437500
20
333.375000
0
VERTEX
5
231
100
AcDbEntity
8
1
100
AcDbVertex
100
AcDb2dVertex
62
5
10
85.625000
20
332.750000
0
SEQEND
5
232
100
AcDbEntity
8
1
0
POLYLINE
5
233
100
AcDbEntity
8
1
6
CONTINUOUS
62
5
100
AcDb2dPolyline
66
1
10
0.0
20
0.0
30
0.0
70
1
0
VERTEX
5
234
100
AcDbEntity
8
1
100
AcDbVertex
100
AcDb2dVertex
62
5
10
81.562500
20
332.750000
0
VERTEX
5
235
100
AcDbEntity
8
1
100
AcDbVertex
100
AcDb2dVertex
62
5
10
81.562500
20
331.187500
0
VERTEX
5
236
100
AcDbEntity
8
1
100
AcDbVertex
100
AcDb2dVertex
62
5
10
84.687500
20
331.187500
0
VERTEX
5
237
100
AcDbEntity
8
1
100
AcDbVertex
100
AcDb2dVertex
62
5
10
84.687500
20
332.750000
0
VERTEX
5
238
100
AcDbEntity
8
1
100
AcDbVertex
100
AcDb2dVertex
62
5
10
81.562500
20
332.750000
0
SEQEND
5
239
100
AcDbEntity
8
1
0
LINE
5
23a
100
AcDbEntity
8
1
100
AcDbLine
6
CONTINUOUS
62
5
10
82.500000
20
300.500000
11
85.625000
21
293.000000
0
LINE
5
23b
100
AcDbEntity
8
1
100
AcDbLine
6
CONTINUOUS
62
5
10
85.625000
20
300.500000
11
82.500000
21
293.000000
0
POLYLINE
5
23c
100
AcDbEntity
8
1
6
CONTINUOUS
62
5
100
AcDb2dPolyline
66
1
10
0.0
20
0.0
30
0.0
70
0
0
VERTEX
5
23d
100
AcDbEntity
8
1
100
AcDbVertex
100
AcDb2dVertex
62
5
10
78.437500
20
327.750000
0
VERTEX
5
23e
100
AcDbEntity
8
1
100
AcDbVertex
100
AcDb2dVertex
62
5
10
78.437500
20
322.437500
0
VERTEX
5
23f
100
AcDbEntity
8
1
100
AcDbVertex
100
AcDb2dVertex
62
5
10
79.062500
20
321.812500
0
VERTEX
5
240
100
AcDbEntity
8
1
100
AcDbVertex
100
AcDb2dVertex
62
5
10
83.437500
20
321.812500
0
SEQEND
5
241
100
AcDbEntity
8
1
0
LINE
5
242
100
AcDbEntity
8
1
100
AcDbLine
6
CONTINUOUS
62
5
10
82.812500
20
325.875000
11
78.437500
21
324.937500
0
POLYLINE
5
243
100
AcDbEntity
8
1
6
CONTINUOUS
62
5
100
AcDb2dPolyline
66
1
10
0.0
20
0.0
30
0.0
70
1
0
VERTEX
5
244
100
AcDbEntity
8
1
100
AcDbVertex
100
AcDb2dVertex
62
5
10
82.812500
20
327.750000
0
VERTEX
5
245
100
AcDbEntity
8
1
100
AcDbVertex
100
AcDb2dVertex
62
5
10
83.437500
20
328.375000
0
VERTEX
5
246
100
AcDbEntity
8
1
100
AcDbVertex
100
AcDb2dVertex
62
5
10
83.750000
20
328.375000
0
VERTEX
5
247
100
AcDbEntity
8
1
100
AcDbVertex
100
AcDb2dVertex
62
5
10
84.375000
20
327.750000
0
VERTEX
5
248
100
AcDbEntity
8
1
100
AcDbVertex
100
AcDb2dVertex
62
5
10
84.375000
20
327.437500
0
VERTEX
5
249
100
AcDbEntity
8
1
100
AcDbVertex
100
AcDb2dVertex
62
5
10
83.750000
20
326.812500
0
VERTEX
5
24a
100
AcDbEntity
8
1
100
AcDbVertex
100
AcDb2dVertex
62
5
10
83.437500
20
326.812500
0
VERTEX
5
24b
100
AcDbEntity
8
1
100
AcDbVertex
100
AcDb2dVertex
62
5
10
82.812500
20
327.437500
0
VERTEX
5
24c
100
AcDbEntity
8
1
100
AcDbVertex
100
AcDb2dVertex
62
5
10
82.812500
20
327.750000
0
SEQEND
5
24d
100
AcDbEntity
8
1
0
POLYLINE
5
24e
100
AcDbEntity
8
1
6
DOT2
62
5
100
AcDb2dPolyline
66
1
10
0.0
20
0.0
30
0.0
70
0
0
VERTEX
5
24f
100
AcDbEntity
8
1
100
AcDbVertex
100
AcDb2dVertex
62
5
10
118.375000
20
253.701017
0
VERTEX
5
250
100
AcDbEntity
8
1
100
AcDbVertex
100
AcDb2dVertex
62
5
10
119.312500
20
254.326017
0
VERTEX
5
251
100
AcDbEntity
8
1
100
AcDbVertex
100
AcDb2dVertex
62
5
10
119.312500
20
246.826017
0
SEQEND
5
252
100
AcDbEntity
8
1
0
LINE
5
253
100
AcDbEntity
8
1
100
AcDbLine
6
DOT2
62
5
10
118.687500
20
246.826017
11
119.937500
21
246.826017
0
POLYLINE
5
254
100
AcDbEntity
8
1
6
DOT2
62
5
100
AcDb2dPolyline
66
1
10
0.0
20
0.0
30
0.0
70
0
0
VERTEX
5
255
100
AcDbEntity
8
1
100
AcDbVertex
100
AcDb2dVertex
62
5
10
123.375000
20
253.701017
0
VERTEX
5
256
100
AcDbEntity
8
1
100
AcDbVertex
100
AcDb2dVertex
62
5
10
124.312500
20
254.326017
0
VERTEX
5
257
100
AcDbEntity
8
1
100
AcDbVertex
100
AcDb2dVertex
62
5
10
124.312500
20
246.826017
0
SEQEND
5
258
100
AcDbEntity
8
1
0
LINE
5
259
100
AcDbEntity
8
1
100
AcDbLine
6
DOT2
62
5
10
123.687500
20
246.826017
11
124.937500
21
246.826017
0
POLYLINE
5
25a
100
AcDbEntity
8
1
6
DOT2
62
5
100
AcDb2dPolyline
66
1
10
0.0
20
0.0
30
0.0
70
0
0
VERTEX
5
25b
100
AcDbEntity
8
1
100
AcDbVertex
100
AcDb2dVertex
62
5
10
127.750000
20
253.388517
0
VERTEX
5
25c
100
AcDbEntity
8
1
100
AcDbVertex
100
AcDb2dVertex
62
5
10
127.750000
20
254.326017
0
VERTEX
5
25d
100
AcDbEntity
8
1
100
AcDbVertex
100
AcDb2dVertex
62
5
10
130.875000
20
254.326017
0
VERTEX
5
25e
100
AcDbEntity
8
1
100
AcDbVertex
100
AcDb2dVertex
62
5
10
130.875000
20
253.701017
0
VERTEX
5
25f
100
AcDbEntity
8
1
100
AcDbVertex
100
AcDb2dVertex
62
5
10
130.250000
20
252.138517
0
VERTEX
5
260
100
AcDbEntity
8
1
100
AcDbVertex
100
AcDb2dVertex
62
5
10
129.625000
20
249.951017
0
VERTEX
5
261
100
AcDbEntity
8
1
100
AcDbVertex
100
AcDb2dVertex
62
5
10
129.000000
20
246.826017
0
SEQEND
5
262
100
AcDbEntity
8
1
0
POLYLINE
5
263
100
AcDbEntity
8
0
6
CONTINUOUS
62
5
100
AcDb2dPolyline
66
1
10
0.0
20
0.0
30
0.0
70
1
0
VERTEX
5
264
100
AcDbEntity
8
0
100
AcDbVertex
100
AcDb2dVertex
62
5
10
145.096003
20
208.451632
0
VERTEX
5
265
100
AcDbEntity
8
0
100
AcDbVertex
100
AcDb2dVertex
62
5
10
142.851632
20
208.451632
0
VERTEX
5
266
100
AcDbEntity
8
0
100
AcDbVertex
100
AcDb2dVertex
62
5
10
142.851632
20
214.248368
0
VERTEX
5
267
100
AcDbEntity
8
0
100
AcDbVertex
100
AcDb2dVertex
62
5
10
145.096003
20
214.248368
0
SEQEND
5
268
100
AcDbEntity
8
0
0
CIRCLE
5
269
100
AcDbEntity
8
0
100
AcDbCircle
6
CONTINUOUS
62
5
10
147.000000
20
210.500000
40
1.350000
0
POLYLINE
5
26a
100
AcDbEntity
8
0
6
CONTINUOUS
62
5
100
AcDb2dPolyline
66
1
10
0.0
20
0.0
30
0.0
70
1
0
VERTEX
5
26b
100
AcDbEntity
8
0
100
AcDbVertex
100
AcDb2dVertex
62
5
10
148.903997
20
214.248368
0
VERTEX
5
26c
100
AcDbEntity
8
0
100
AcDbVertex
100
AcDb2dVertex
62
5
10
151.148368
20
214.248368
0
VERTEX
5
26d
100
AcDbEntity
8
0
100
AcDbVertex
100
AcDb2dVertex
62
5
10
151.148368
20
208.451632
0
VERTEX
5
26e
100
AcDbEntity
8
0
100
AcDbVertex
100
AcDb2dVertex
62
5
10
148.903997
20
208.451632
0
SEQEND
5
26f
100
AcDbEntity
8
0
0
LINE
5
270
100
AcDbEntity
8
0
100
AcDbLine
6
CONTINUOUS
62
5
10
168.500000
20
199.750000
11
168.500000
21
199.250000
0
LINE
5
271
100
AcDbEntity
8
0
100
AcDbLine
6
CONTINUOUS
62
5
10
168.500000
20
194.750000
11
168.500000
21
194.250000
0
POLYLINE
5
272
100
AcDbEntity
8
0
6
CONTINUOUS
62
5
100
AcDb2dPolyline
66
1
10
0.0
20
0.0
30
0.0
70
1
0
VERTEX
5
273
100
AcDbEntity
8
0
100
AcDbVertex
100
AcDb2dVertex
62
5
10
160.800000
20
193.000000
0
VERTEX
5
274
100
AcDbEntity
8
0
100
AcDbVertex
100
AcDb2dVertex
62
5
10
133.200000
20
193.000000
0
VERTEX
5
275
100
AcDbEntity
8
0
100
AcDbVertex
100
AcDb2dVertex
62
5
10
133.380000
20
192.000000
0
VERTEX
5
276
100
AcDbEntity
8
0
100
AcDbVertex
100
AcDb2dVertex
62
5
10
160.620000
20
192.000000
0
SEQEND
5
277
100
AcDbEntity
8
0
0
CIRCLE
5
278
100
AcDbEntity
8
0
100
AcDbCircle
6
CONTINUOUS
62
5
10
157.000000
20
201.750000
40
2.250000
0
CIRCLE
5
279
100
AcDbEntity
8
0
100
AcDbCircle
6
CONTINUOUS
62
5
10
147.000000
20
201.900000
40
1.650000
0
CIRCLE
5
27a
100
AcDbEntity
8
0
100
AcDbCircle
6
CONTINUOUS
62
5
10
147.000000
20
201.900000
40
2.500000
0
ARC
5
27b
100
AcDbEntity
8
0
100
AcDbCircle
6
CONTINUOUS
62
5
10
132.000000
20
201.750000
40
2.250000
100
AcDbArc
50
89.999999
51
-89.999999
0
LINE
5
27c
100
AcDbEntity
8
0
100
AcDbLine
6
CONTINUOUS
62
5
10
132.000000
20
199.500000
11
137.000000
21
199.500000
0
ARC
5
27d
100
AcDbEntity
8
0
100
AcDbCircle
6
CONTINUOUS
62
5
10
137.000000
20
201.750000
40
2.250000
100
AcDbArc
50
-89.999999
51
89.999999
0
LINE
5
27e
100
AcDbEntity
8
0
100
AcDbLine
6
CONTINUOUS
62
5
10
137.000000
20
204.000000
11
132.000000
21
204.000000
0
CIRCLE
5
27f
100
AcDbEntity
8
0
100
AcDbCircle
6
CONTINUOUS
62
5
10
147.000000
20
201.900000
40
4.000000
0
ARC
5
280
100
AcDbEntity
8
0
100
AcDbCircle
6
CONTINUOUS
62
5
10
147.000000
20
201.900000
40
6.000000
100
AcDbArc
50
-179.999998
51
-129.194968
0
ARC
5
281
100
AcDbEntity
8
0
100
AcDbCircle
6
CONTINUOUS
62
5
10
144.472155
20
198.800000
40
2.000000
100
AcDbArc
50
-129.194966
51
-89.999999
0
LINE
5
282
100
AcDbEntity
8
0
100
AcDbLine
6
CONTINUOUS
62
5
10
144.472155
20
196.800000
11
149.527845
21
196.800000
0
ARC
5
283
100
AcDbEntity
8
0
100
AcDbCircle
6
CONTINUOUS
62
5
10
149.527845
20
198.800000
40
2.000000
100
AcDbArc
50
-89.999999
51
-50.805033
0
ARC
5
284
100
AcDbEntity
8
0
100
AcDbCircle
6
CONTINUOUS
62
5
10
147.000000
20
201.900000
40
6.000000
100
AcDbArc
50
-50.805031
51
-0.000000
0
LINE
5
285
100
AcDbEntity
8
0
100
AcDbLine
6
CONTINUOUS
62
5
10
153.000000
20
201.900000
11
153.000000
21
206.500000
0
LINE
5
286
100
AcDbEntity
8
0
100
AcDbLine
6
CONTINUOUS
62
5
10
141.000000
20
206.500000
11
141.000000
21
201.900000
0
POLYLINE
5
287
100
AcDbEntity
8
0
6
CONTINUOUS
62
5
100
AcDb2dPolyline
66
1
10
0.0
20
0.0
30
0.0
70
1
0
VERTEX
5
288
100
AcDbEntity
8
0
100
AcDbVertex
100
AcDb2dVertex
62
5
10
102.903997
20
214.248368
0
VERTEX
5
289
100
AcDbEntity
8
0
100
AcDbVertex
100
AcDb2dVertex
62
5
10
105.148368
20
214.248368
0
VERTEX
5
28a
100
AcDbEntity
8
0
100
AcDbVertex
100
AcDb2dVertex
62
5
10
105.148368
20
208.451632
0
VERTEX
5
28b
100
AcDbEntity
8
0
100
AcDbVertex
100
AcDb2dVertex
62
5
10
102.903997
20
208.451632
0
SEQEND
5
28c
100
AcDbEntity
8
0
0
POLYLINE
5
28d
100
AcDbEntity
8
0
6
CONTINUOUS
62
5
100
AcDb2dPolyline
66
1
10
0.0
20
0.0
30
0.0
70
1
0
VERTEX
5
28e
100
AcDbEntity
8
0
100
AcDbVertex
100
AcDb2dVertex
62
5
10
99.096003
20
208.451632
0
VERTEX
5
28f
100
AcDbEntity
8
0
100
AcDbVertex
100
AcDb2dVertex
62
5
10
96.851632
20
208.451632
0
VERTEX
5
290
100
AcDbEntity
8
0
100
AcDbVertex
100
AcDb2dVertex
62
5
10
96.851632
20
214.248368
0
VERTEX
5
291
100
AcDbEntity
8
0
100
AcDbVertex
100
AcDb2dVertex
62
5
10
99.096003
20
214.248368
0
SEQEND
5
292
100
AcDbEntity
8
0
0
CIRCLE
5
293
100
AcDbEntity
8
0
100
AcDbCircle
6
CONTINUOUS
62
5
10
101.000000
20
210.500000
40
1.350000
0
LINE
5
294
100
AcDbEntity
8
0
100
AcDbLine
6
CONTINUOUS
62
5
10
123.000000
20
199.750000
11
123.000000
21
199.250000
0
LINE
5
295
100
AcDbEntity
8
0
100
AcDbLine
6
CONTINUOUS
62
5
10
123.000000
20
194.750000
11
123.000000
21
194.250000
0
LINE
5
296
100
AcDbEntity
8
0
100
AcDbLine
6
CONTINUOUS
62
5
10
125.000000
20
199.750000
11
125.000000
21
199.250000
0
LINE
5
297
100
AcDbEntity
8
0
100
AcDbLine
6
CONTINUOUS
62
5
10
125.000000
20
194.250000
11
125.000000
21
194.750000
0
POLYLINE
5
298
100
AcDbEntity
8
0
6
CONTINUOUS
62
5
100
AcDb2dPolyline
66
1
10
0.0
20
0.0
30
0.0
70
1
0
VERTEX
5
299
100
AcDbEntity
8
0
100
AcDbVertex
100
AcDb2dVertex
62
5
10
114.800000
20
193.000000
0
VERTEX
5
29a
100
AcDbEntity
8
0
100
AcDbVertex
100
AcDb2dVertex
62
5
10
87.200000
20
193.000000
0
VERTEX
5
29b
100
AcDbEntity
8
0
100
AcDbVertex
100
AcDb2dVertex
62
5
10
87.380000
20
192.000000
0
VERTEX
5
29c
100
AcDbEntity
8
0
100
AcDbVertex
100
AcDb2dVertex
62
5
10
114.620000
20
192.000000
0
SEQEND
5
29d
100
AcDbEntity
8
0
0
ARC
5
29e
100
AcDbEntity
8
0
100
AcDbCircle
6
CONTINUOUS
62
5
10
111.000000
20
201.750000
40
2.250000
100
AcDbArc
50
89.999999
51
-89.999999
0
LINE
5
29f
100
AcDbEntity
8
0
100
AcDbLine
6
CONTINUOUS
62
5
10
111.000000
20
199.500000
11
116.000000
21
199.500000
0
ARC
5
2a0
100
AcDbEntity
8
0
100
AcDbCircle
6
CONTINUOUS
62
5
10
116.000000
20
201.750000
40
2.250000
100
AcDbArc
50
-89.999999
51
89.999999
0
LINE
5
2a1
100
AcDbEntity
8
0
100
AcDbLine
6
CONTINUOUS
62
5
10
116.000000
20
204.000000
11
111.000000
21
204.000000
0
CIRCLE
5
2a2
100
AcDbEntity
8
0
100
AcDbCircle
6
CONTINUOUS
62
5
10
91.000000
20
201.750000
40
2.250000
0
CIRCLE
5
2a3
100
AcDbEntity
8
0
100
AcDbCircle
6
CONTINUOUS
62
5
10
101.000000
20
201.900000
40
1.650000
0
CIRCLE
5
2a4
100
AcDbEntity
8
0
100
AcDbCircle
6
CONTINUOUS
62
5
10
101.000000
20
201.900000
40
1.650000
0
CIRCLE
5
2a5
100
AcDbEntity
8
0
100
AcDbCircle
6
CONTINUOUS
62
5
10
101.000000
20
201.900000
40
2.500000
0
CIRCLE
5
2a6
100
AcDbEntity
8
0
100
AcDbCircle
6
CONTINUOUS
62
5
10
101.000000
20
201.900000
40
4.000000
0
ARC
5
2a7
100
AcDbEntity
8
0
100
AcDbCircle
6
CONTINUOUS
62
5
10
101.000000
20
201.900000
40
6.000000
100
AcDbArc
50
-179.999998
51
-129.194968
0
ARC
5
2a8
100
AcDbEntity
8
0
100
AcDbCircle
6
CONTINUOUS
62
5
10
98.472155
20
198.800000
40
2.000000
100
AcDbArc
50
-129.194966
51
-89.999999
0
LINE
5
2a9
100
AcDbEntity
8
0
100
AcDbLine
6
CONTINUOUS
62
5
10
98.472155
20
196.800000
11
103.527845
21
196.800000
0
ARC
5
2aa
100
AcDbEntity
8
0
100
AcDbCircle
6
CONTINUOUS
62
5
10
103.527845
20
198.800000
40
2.000000
100
AcDbArc
50
-89.999999
51
-50.805033
0
ARC
5
2ab
100
AcDbEntity
8
0
100
AcDbCircle
6
CONTINUOUS
62
5
10
101.000000
20
201.900000
40
6.000000
100
AcDbArc
50
-50.805031
51
-0.000000
0
LINE
5
2ac
100
AcDbEntity
8
0
100
AcDbLine
6
CONTINUOUS
62
5
10
107.000000
20
201.900000
11
107.000000
21
206.500000
0
LINE
5
2ad
100
AcDbEntity
8
0
100
AcDbLine
6
CONTINUOUS
62
5
10
95.000000
20
206.500000
11
95.000000
21
201.900000
0
ARC
5
2ae
100
AcDbEntity
8
0
100
AcDbCircle
6
CONTINUOUS
62
5
10
123.000000
20
197.000000
40
2.250000
100
AcDbArc
50
89.999999
51
-89.999999
0
LINE
5
2af
100
AcDbEntity
8
0
100
AcDbLine
6
CONTINUOUS
62
5
10
123.000000
20
194.750000
11
125.000000
21
194.750000
0
ARC
5
2b0
100
AcDbEntity
8
0
100
AcDbCircle
6
CONTINUOUS
62
5
10
125.000000
20
197.000000
40
2.250000
100
AcDbArc
50
-89.999999
51
89.999999
0
LINE
5
2b1
100
AcDbEntity
8
0
100
AcDbLine
6
CONTINUOUS
62
5
10
125.000000
20
199.250000
11
123.000000
21
199.250000
0
ARC
5
2b2
100
AcDbEntity
8
0
100
AcDbCircle
6
CONTINUOUS
62
5
10
123.000000
20
197.000000
40
2.750000
100
AcDbArc
50
89.999999
51
-89.999999
0
LINE
5
2b3
100
AcDbEntity
8
0
100
AcDbLine
6
CONTINUOUS
62
5
10
123.000000
20
199.750000
11
125.000000
21
199.750000
0
ARC
5
2b4
100
AcDbEntity
8
0
100
AcDbCircle
6
CONTINUOUS
62
5
10
125.000000
20
197.000000
40
2.750000
100
AcDbArc
50
-89.999999
51
89.999999
0
LINE
5
2b5
100
AcDbEntity
8
0
100
AcDbLine
6
CONTINUOUS
62
5
10
125.000000
20
194.250000
11
123.000000
21
194.250000
0
ARC
5
2b6
100
AcDbEntity
8
0
100
AcDbCircle
6
CONTINUOUS
62
5
10
125.000000
20
197.000000
40
4.000000
100
AcDbArc
50
-89.999999
51
89.999999
0
LINE
5
2b7
100
AcDbEntity
8
0
100
AcDbLine
6
CONTINUOUS
62
5
10
125.000000
20
193.000000
11
123.000000
21
193.000000
0
ARC
5
2b8
100
AcDbEntity
8
0
100
AcDbCircle
6
CONTINUOUS
62
5
10
123.000000
20
197.000000
40
4.000000
100
AcDbArc
50
89.999999
51
-89.999999
0
LINE
5
2b9
100
AcDbEntity
8
0
100
AcDbLine
6
CONTINUOUS
62
5
10
123.000000
20
201.000000
11
125.000000
21
201.000000
0
LINE
5
2ba
100
AcDbEntity
8
0
100
AcDbLine
6
CONTINUOUS
62
5
10
81.500000
20
206.000000
11
75.500000
21
206.000000
0
LINE
5
2bb
100
AcDbEntity
8
0
100
AcDbLine
6
CONTINUOUS
62
5
10
75.500000
20
205.913114
11
81.500000
21
205.913114
0
LINE
5
2bc
100
AcDbEntity
8
0
100
AcDbLine
6
CONTINUOUS
62
5
10
81.500000
20
205.398862
11
75.500000
21
205.398862
0
POLYLINE
5
2bd
100
AcDbEntity
8
0
6
CONTINUOUS
62
5
100
AcDb2dPolyline
66
1
10
0.0
20
0.0
30
0.0
70
0
0
VERTEX
5
2be
100
AcDbEntity
8
0
100
AcDbVertex
100
AcDb2dVertex
62
5
10
75.500000
20
208.500000
0
VERTEX
5
2bf
100
AcDbEntity
8
0
100
AcDbVertex
100
AcDb2dVertex
62
5
10
75.500000
20
204.985749
0
VERTEX
5
2c0
100
AcDbEntity
8
0
100
AcDbVertex
100
AcDb2dVertex
62
5
10
81.500000
20
204.985749
0
VERTEX
5
2c1
100
AcDbEntity
8
0
100
AcDbVertex
100
AcDb2dVertex
62
5
10
81.500000
20
208.500000
0
SEQEND
5
2c2
100
AcDbEntity
8
0
0
ARC
5
2c3
100
AcDbEntity
8
0
100
AcDbCircle
6
CONTINUOUS
62
5
10
82.000000
20
204.500000
40
0.500000
100
AcDbArc
50
-89.999999
51
0.000000
0
LINE
5
2c4
100
AcDbEntity
8
0
100
AcDbLine
6
CONTINUOUS
62
5
10
82.500000
20
204.500000
11
82.500000
21
208.000000
0
ARC
5
2c5
100
AcDbEntity
8
0
100
AcDbCircle
6
CONTINUOUS
62
5
10
82.000000
20
208.000000
40
0.500000
100
AcDbArc
50
0.000000
51
89.999999
0
LINE
5
2c6
100
AcDbEntity
8
0
100
AcDbLine
6
CONTINUOUS
62
5
10
82.000000
20
208.500000
11
75.000000
21
208.500000
0
ARC
5
2c7
100
AcDbEntity
8
0
100
AcDbCircle
6
CONTINUOUS
62
5
10
75.000000
20
208.000000
40
0.500000
100
AcDbArc
50
89.999999
51
179.999998
0
LINE
5
2c8
100
AcDbEntity
8
0
100
AcDbLine
6
CONTINUOUS
62
5
10
74.500000
20
208.000000
11
74.500000
21
204.500000
0
ARC
5
2c9
100
AcDbEntity
8
0
100
AcDbCircle
6
CONTINUOUS
62
5
10
75.000000
20
204.500000
40
0.500000
100
AcDbArc
50
179.999998
51
-89.999999
0
LINE
5
2ca
100
AcDbEntity
8
0
100
AcDbLine
6
CONTINUOUS
62
5
10
75.000000
20
204.000000
11
82.000000
21
204.000000
0
LINE
5
2cb
100
AcDbEntity
8
0
100
AcDbLine
6
CONTINUOUS
62
5
10
79.500000
20
199.750000
11
79.500000
21
199.250000
0
LINE
5
2cc
100
AcDbEntity
8
0
100
AcDbLine
6
CONTINUOUS
62
5
10
77.500000
20
199.750000
11
77.500000
21
199.250000
0
LINE
5
2cd
100
AcDbEntity
8
0
100
AcDbLine
6
CONTINUOUS
62
5
10
79.500000
20
194.250000
11
79.500000
21
194.750000
0
LINE
5
2ce
100
AcDbEntity
8
0
100
AcDbLine
6
CONTINUOUS
62
5
10
77.500000
20
194.750000
11
77.500000
21
194.250000
0
ARC
5
2cf
100
AcDbEntity
8
0
100
AcDbCircle
6
CONTINUOUS
62
5
10
77.500000
20
197.000000
40
2.250000
100
AcDbArc
50
89.999999
51
-89.999999
0
LINE
5
2d0
100
AcDbEntity
8
0
100
AcDbLine
6
CONTINUOUS
62
5
10
77.500000
20
194.750000
11
79.500000
21
194.750000
0
ARC
5
2d1
100
AcDbEntity
8
0
100
AcDbCircle
6
CONTINUOUS
62
5
10
79.500000
20
197.000000
40
2.250000
100
AcDbArc
50
-89.999999
51
89.999999
0
LINE
5
2d2
100
AcDbEntity
8
0
100
AcDbLine
6
CONTINUOUS
62
5
10
79.500000
20
199.250000
11
77.500000
21
199.250000
0
ARC
5
2d3
100
AcDbEntity
8
0
100
AcDbCircle
6
CONTINUOUS
62
5
10
77.500000
20
197.000000
40
2.750000
100
AcDbArc
50
89.999999
51
-89.999999
0
LINE
5
2d4
100
AcDbEntity
8
0
100
AcDbLine
6
CONTINUOUS
62
5
10
77.500000
20
199.750000
11
79.500000
21
199.750000
0
ARC
5
2d5
100
AcDbEntity
8
0
100
AcDbCircle
6
CONTINUOUS
62
5
10
79.500000
20
197.000000
40
2.750000
100
AcDbArc
50
-89.999999
51
89.999999
0
LINE
5
2d6
100
AcDbEntity
8
0
100
AcDbLine
6
CONTINUOUS
62
5
10
79.500000
20
194.250000
11
77.500000
21
194.250000
0
ARC
5
2d7
100
AcDbEntity
8
0
100
AcDbCircle
6
CONTINUOUS
62
5
10
79.500000
20
197.000000
40
4.000000
100
AcDbArc
50
-89.999999
51
89.999999
0
LINE
5
2d8
100
AcDbEntity
8
0
100
AcDbLine
6
CONTINUOUS
62
5
10
79.500000
20
193.000000
11
77.500000
21
193.000000
0
ARC
5
2d9
100
AcDbEntity
8
0
100
AcDbCircle
6
CONTINUOUS
62
5
10
77.500000
20
197.000000
40
4.000000
100
AcDbArc
50
89.999999
51
-89.999999
0
LINE
5
2da
100
AcDbEntity
8
0
100
AcDbLine
6
CONTINUOUS
62
5
10
77.500000
20
201.000000
11
79.500000
21
201.000000
0
POLYLINE
5
2db
100
AcDbEntity
8
0
6
CONTINUOUS
62
5
100
AcDb2dPolyline
66
1
10
0.0
20
0.0
30
0.0
70
1
0
VERTEX
5
2dc
100
AcDbEntity
8
0
100
AcDbVertex
100
AcDb2dVertex
62
5
10
73.000000
20
210.000000
0
VERTEX
5
2dd
100
AcDbEntity
8
0
100
AcDbVertex
100
AcDb2dVertex
62
5
10
95.000000
20
210.000000
0
VERTEX
5
2de
100
AcDbEntity
8
0
100
AcDbVertex
100
AcDb2dVertex
62
5
10
95.000000
20
216.000000
0
VERTEX
5
2df
100
AcDbEntity
8
0
100
AcDbVertex
100
AcDb2dVertex
62
5
10
73.000000
20
216.000000
0
SEQEND
5
2e0
100
AcDbEntity
8
0
0
LINE
5
2e1
100
AcDbEntity
8
1
100
AcDbLine
6
CONTINUOUS
62
5
10
65.423983
20
214.476017
11
65.423983
21
247.576017
0
LINE
5
2e2
100
AcDbEntity
8
1
100
AcDbLine
6
CONTINUOUS
62
5
10
182.576017
20
214.476017
11
182.576017
21
247.576017
0
POLYLINE
5
2e3
100
AcDbEntity
8
1
6
CONTINUOUS
62
5
100
AcDb2dPolyline
66
1
10
0.0
20
0.0
30
0.0
70
0
0
VERTEX
5
2e4
100
AcDbEntity
8
1
100
AcDbVertex
100
AcDb2dVertex
62
5
10
124.000000
20
245.576017
0
VERTEX
5
2e5
100
AcDbEntity
8
1
100
AcDbVertex
100
AcDb2dVertex
62
5
10
65.423983
20
245.576017
0
VERTEX
5
2e6
100
AcDbEntity
8
1
100
AcDbVertex
100
AcDb2dVertex
62
5
10
71.423983
20
246.576017
0
VERTEX
5
2e7
100
AcDbEntity
8
1
100
AcDbVertex
100
AcDb2dVertex
62
5
10
71.423983
20
244.576017
0
VERTEX
5
2e8
100
AcDbEntity
8
1
100
AcDbVertex
100
AcDb2dVertex
62
5
10
65.423983
20
245.576017
0
VERTEX
5
2e9
100
AcDbEntity
8
1
100
AcDbVertex
100
AcDb2dVertex
62
5
10
71.423983
20
246.076017
0
VERTEX
5
2ea
100
AcDbEntity
8
1
100
AcDbVertex
100
AcDb2dVertex
62
5
10
71.423983
20
245.076017
0
VERTEX
5
2eb
100
AcDbEntity
8
1
100
AcDbVertex
100
AcDb2dVertex
62
5
10
65.423983
20
245.576017
0
SEQEND
5
2ec
100
AcDbEntity
8
1
0
POLYLINE
5
2ed
100
AcDbEntity
8
1
6
CONTINUOUS
62
5
100
AcDb2dPolyline
66
1
10
0.0
20
0.0
30
0.0
70
0
0
VERTEX
5
2ee
100
AcDbEntity
8
1
100
AcDbVertex
100
AcDb2dVertex
62
5
10
124.000000
20
245.576017
0
VERTEX
5
2ef
100
AcDbEntity
8
1
100
AcDbVertex
100
AcDb2dVertex
62
5
10
182.576017
20
245.576017
0
VERTEX
5
2f0
100
AcDbEntity
8
1
100
AcDbVertex
100
AcDb2dVertex
62
5
10
176.576017
20
244.576017
0
VERTEX
5
2f1
100
AcDbEntity
8
1
100
AcDbVertex
100
AcDb2dVertex
62
5
10
176.576017
20
246.576017
0
VERTEX
5
2f2
100
AcDbEntity
8
1
100
AcDbVertex
100
AcDb2dVertex
62
5
10
182.576017
20
245.576017
0
VERTEX
5
2f3
100
AcDbEntity
8
1
100
AcDbVertex
100
AcDb2dVertex
62
5
10
176.576017
20
245.076017
0
VERTEX
5
2f4
100
AcDbEntity
8
1
100
AcDbVertex
100
AcDb2dVertex
62
5
10
176.576017
20
246.076017
0
VERTEX
5
2f5
100
AcDbEntity
8
1
100
AcDbVertex
100
AcDb2dVertex
62
5
10
182.576017
20
245.576017
0
SEQEND
5
2f6
100
AcDbEntity
8
1
0
LINE
5
2f7
100
AcDbEntity
8
0
100
AcDbLine
6
CONTINUOUS
62
5
10
172.500000
20
206.000000
11
166.500000
21
206.000000
0
LINE
5
2f8
100
AcDbEntity
8
0
100
AcDbLine
6
CONTINUOUS
62
5
10
166.500000
20
205.913114
11
172.500000
21
205.913114
0
LINE
5
2f9
100
AcDbEntity
8
0
100
AcDbLine
6
CONTINUOUS
62
5
10
172.500000
20
205.398862
11
166.500000
21
205.398862
0
ARC
5
2fa
100
AcDbEntity
8
0
100
AcDbCircle
6
CONTINUOUS
62
5
10
168.500000
20
197.000000
40
2.250000
100
AcDbArc
50
89.999999
51
-89.999999
0
LINE
5
2fb
100
AcDbEntity
8
0
100
AcDbLine
6
CONTINUOUS
62
5
10
168.500000
20
194.750000
11
170.500000
21
194.750000
0
ARC
5
2fc
100
AcDbEntity
8
0
100
AcDbCircle
6
CONTINUOUS
62
5
10
170.500000
20
197.000000
40
2.250000
100
AcDbArc
50
-89.999999
51
89.999999
0
LINE
5
2fd
100
AcDbEntity
8
0
100
AcDbLine
6
CONTINUOUS
62
5
10
170.500000
20
199.250000
11
168.500000
21
199.250000
0
ARC
5
2fe
100
AcDbEntity
8
0
100
AcDbCircle
6
CONTINUOUS
62
5
10
168.500000
20
197.000000
40
2.750000
100
AcDbArc
50
89.999999
51
-89.999999
0
LINE
5
2ff
100
AcDbEntity
8
0
100
AcDbLine
6
CONTINUOUS
62
5
10
168.500000
20
199.750000
11
170.500000
21
199.750000
0
ARC
5
300
100
AcDbEntity
8
0
100
AcDbCircle
6
CONTINUOUS
62
5
10
170.500000
20
197.000000
40
2.750000
100
AcDbArc
50
-89.999999
51
89.999999
0
LINE
5
301
100
AcDbEntity
8
0
100
AcDbLine
6
CONTINUOUS
62
5
10
170.500000
20
194.250000
11
168.500000
21
194.250000
0
ARC
5
302
100
AcDbEntity
8
0
100
AcDbCircle
6
CONTINUOUS
62
5
10
170.500000
20
197.000000
40
4.000000
100
AcDbArc
50
-89.999999
51
89.999999
0
LINE
5
303
100
AcDbEntity
8
0
100
AcDbLine
6
CONTINUOUS
62
5
10
170.500000
20
193.000000
11
168.500000
21
193.000000
0
ARC
5
304
100
AcDbEntity
8
0
100
AcDbCircle
6
CONTINUOUS
62
5
10
168.500000
20
197.000000
40
4.000000
100
AcDbArc
50
89.999999
51
-89.999999
0
LINE
5
305
100
AcDbEntity
8
0
100
AcDbLine
6
CONTINUOUS
62
5
10
168.500000
20
201.000000
11
170.500000
21
201.000000
0
POLYLINE
5
306
100
AcDbEntity
8
0
6
CONTINUOUS
62
5
100
AcDb2dPolyline
66
1
10
0.0
20
0.0
30
0.0
70
0
0
VERTEX
5
307
100
AcDbEntity
8
0
100
AcDbVertex
100
AcDb2dVertex
62
5
10
166.500000
20
208.500000
0
VERTEX
5
308
100
AcDbEntity
8
0
100
AcDbVertex
100
AcDb2dVertex
62
5
10
166.500000
20
204.985749
0
VERTEX
5
309
100
AcDbEntity
8
0
100
AcDbVertex
100
AcDb2dVertex
62
5
10
172.500000
20
204.985749
0
VERTEX
5
30a
100
AcDbEntity
8
0
100
AcDbVertex
100
AcDb2dVertex
62
5
10
172.500000
20
208.500000
0
SEQEND
5
30b
100
AcDbEntity
8
0
0
ARC
5
30c
100
AcDbEntity
8
0
100
AcDbCircle
6
CONTINUOUS
62
5
10
173.000000
20
204.500000
40
0.500000
100
AcDbArc
50
-89.999999
51
0.000000
0
LINE
5
30d
100
AcDbEntity
8
0
100
AcDbLine
6
CONTINUOUS
62
5
10
173.500000
20
204.500000
11
173.500000
21
208.000000
0
ARC
5
30e
100
AcDbEntity
8
0
100
AcDbCircle
6
CONTINUOUS
62
5
10
173.000000
20
208.000000
40
0.500000
100
AcDbArc
50
0.000000
51
89.999999
0
LINE
5
30f
100
AcDbEntity
8
0
100
AcDbLine
6
CONTINUOUS
62
5
10
173.000000
20
208.500000
11
166.000000
21
208.500000
0
ARC
5
310
100
AcDbEntity
8
0
100
AcDbCircle
6
CONTINUOUS
62
5
10
166.000000
20
208.000000
40
0.500000
100
AcDbArc
50
89.999999
51
179.999998
0
LINE
5
311
100
AcDbEntity
8
0
100
AcDbLine
6
CONTINUOUS
62
5
10
165.500000
20
208.000000
11
165.500000
21
204.500000
0
ARC
5
312
100
AcDbEntity
8
0
100
AcDbCircle
6
CONTINUOUS
62
5
10
166.000000
20
204.500000
40
0.500000
100
AcDbArc
50
179.999998
51
-89.999999
0
LINE
5
313
100
AcDbEntity
8
0
100
AcDbLine
6
CONTINUOUS
62
5
10
166.000000
20
204.000000
11
173.000000
21
204.000000
0
ARC
5
314
100
AcDbEntity
8
0
100
AcDbCircle
6
CONTINUOUS
62
5
10
87.111135
20
205.388865
40
0.500000
100
AcDbArc
50
89.999999
51
179.999998
0
LINE
5
315
100
AcDbEntity
8
0
100
AcDbLine
6
CONTINUOUS
62
5
10
86.611135
20
205.388865
11
86.611135
21
202.888865
0
ARC
5
316
100
AcDbEntity
8
0
100
AcDbCircle
6
CONTINUOUS
62
5
10
86.111135
20
202.888865
40
0.500000
100
AcDbArc
50
-89.999999
51
0.000000
0
LINE
5
317
100
AcDbEntity
8
0
100
AcDbLine
6
CONTINUOUS
62
5
10
86.111135
20
202.388865
11
69.500000
21
202.388865
0
LINE
5
318
100
AcDbEntity
8
0
100
AcDbLine
6
CONTINUOUS
62
5
10
178.500000
20
202.388865
11
161.888865
21
202.388865
0
ARC
5
319
100
AcDbEntity
8
0
100
AcDbCircle
6
CONTINUOUS
62
5
10
161.888865
20
202.888865
40
0.500000
100
AcDbArc
50
179.999998
51
-89.999999
0
LINE
5
31a
100
AcDbEntity
8
0
100
AcDbLine
6
CONTINUOUS
62
5
10
161.388865
20
202.888865
11
161.388865
21
205.388865
0
ARC
5
31b
100
AcDbEntity
8
0
100
AcDbCircle
6
CONTINUOUS
62
5
10
160.888865
20
205.388865
40
0.500000
100
AcDbArc
50
0.000000
51
89.999999
0
LINE
5
31c
100
AcDbEntity
8
0
100
AcDbLine
6
CONTINUOUS
62
5
10
160.888865
20
205.888865
11
153.000000
21
205.888865
0
LINE
5
31d
100
AcDbEntity
8
0
100
AcDbLine
6
CONTINUOUS
62
5
10
141.000000
20
205.888865
11
107.000000
21
205.888865
0
LINE
5
31e
100
AcDbEntity
8
0
100
AcDbLine
6
CONTINUOUS
62
5
10
95.000000
20
205.888865
11
87.111135
21
205.888865
0
LINE
5
31f
100
AcDbEntity
8
1
100
AcDbLine
6
CONTINUOUS
62
5
10
10.000000
20
318.000000
11
330.000000
21
318.000000
0
ARC
5
320
100
AcDbEntity
8
0
100
AcDbCircle
6
CONTINUOUS
62
5
10
174.000000
20
168.000000
40
1.030669
100
AcDbArc
50
60.021453
51
119.978545
0
ARC
5
321
100
AcDbEntity
8
0
100
AcDbCircle
6
CONTINUOUS
62
5
10
174.000000
20
168.000000
40
1.030669
100
AcDbArc
50
-119.978545
51
-60.021453
0
ARC
5
322
100
AcDbEntity
8
0
100
AcDbCircle
6
CONTINUOUS
62
5
10
174.000000
20
168.000000
40
1.030669
100
AcDbArc
50
150.021453
51
-150.021453
0
ARC
5
323
100
AcDbEntity
8
0
100
AcDbCircle
6
CONTINUOUS
62
5
10
174.000000
20
168.000000
40
1.030669
100
AcDbArc
50
-29.978546
51
29.978546
0
LINE
5
324
100
AcDbEntity
8
0
100
AcDbLine
6
CONTINUOUS
62
5
10
178.500000
20
172.000000
11
175.280625
21
172.000000
0
CIRCLE
5
325
100
AcDbEntity
8
0
100
AcDbCircle
6
CONTINUOUS
62
5
10
174.000000
20
160.000000
40
2.250000
0
ARC
5
326
100
AcDbEntity
8
0
100
AcDbCircle
6
CONTINUOUS
62
5
10
173.999999
20
168.000005
40
2.249995
100
AcDbArc
50
76.768289
51
103.231681
0
POLYLINE
5
327
100
AcDbEntity
8
0
6
CONTINUOUS
62
5
100
AcDb2dPolyline
66
1
10
0.0
20
0.0
30
0.0
70
0
0
VERTEX
5
328
100
AcDbEntity
8
0
100
AcDbVertex
100
AcDb2dVertex
62
5
10
173.485000
20
170.190268
0
VERTEX
5
329
100
AcDbEntity
8
0
100
AcDbVertex
100
AcDb2dVertex
62
5
10
173.485000
20
168.515000
0
VERTEX
5
32a
100
AcDbEntity
8
0
100
AcDbVertex
100
AcDb2dVertex
62
5
10
171.809732
20
168.515000
0
SEQEND
5
32b
100
AcDbEntity
8
0
0
ARC
5
32c
100
AcDbEntity
8
0
100
AcDbCircle
6
CONTINUOUS
62
5
10
173.999992
20
168.000001
40
2.249992
100
AcDbArc
50
166.768300
51
-166.768272
0
POLYLINE
5
32d
100
AcDbEntity
8
0
6
CONTINUOUS
62
5
100
AcDb2dPolyline
66
1
10
0.0
20
0.0
30
0.0
70
0
0
VERTEX
5
32e
100
AcDbEntity
8
0
100
AcDbVertex
100
AcDb2dVertex
62
5
10
171.809732
20
167.485000
0
VERTEX
5
32f
100
AcDbEntity
8
0
100
AcDbVertex
100
AcDb2dVertex
62
5
10
173.485000
20
167.485000
0
VERTEX
5
330
100
AcDbEntity
8
0
100
AcDbVertex
100
AcDb2dVertex
62
5
10
173.485000
20
165.809732
0
SEQEND
5
331
100
AcDbEntity
8
0
0
ARC
5
332
100
AcDbEntity
8
0
100
AcDbCircle
6
CONTINUOUS
62
5
10
173.999999
20
167.999993
40
2.249993
100
AcDbArc
50
-103.231693
51
-76.768278
0
POLYLINE
5
333
100
AcDbEntity
8
0
6
CONTINUOUS
62
5
100
AcDb2dPolyline
66
1
10
0.0
20
0.0
30
0.0
70
0
0
VERTEX
5
334
100
AcDbEntity
8
0
100
AcDbVertex
100
AcDb2dVertex
62
5
10
174.515000
20
165.809732
0
VERTEX
5
335
100
AcDbEntity
8
0
100
AcDbVertex
100
AcDb2dVertex
62
5
10
174.515000
20
167.485000
0
VERTEX
5
336
100
AcDbEntity
8
0
100
AcDbVertex
100
AcDb2dVertex
62
5
10
176.190268
20
167.485000
0
SEQEND
5
337
100
AcDbEntity
8
0
0
ARC
5
338
100
AcDbEntity
8
0
100
AcDbCircle
6
CONTINUOUS
62
5
10
174.000009
20
168.000000
40
2.249991
100
AcDbArc
50
-13.231719
51
13.231719
0
POLYLINE
5
339
100
AcDbEntity
8
0
6
CONTINUOUS
62
5
100
AcDb2dPolyline
66
1
10
0.0
20
0.0
30
0.0
70
0
0
VERTEX
5
33a
100
AcDbEntity
8
0
100
AcDbVertex
100
AcDb2dVertex
62
5
10
176.190268
20
168.515000
0
VERTEX
5
33b
100
AcDbEntity
8
0
100
AcDbVertex
100
AcDb2dVertex
62
5
10
174.515000
20
168.515000
0
VERTEX
5
33c
100
AcDbEntity
8
0
100
AcDbVertex
100
AcDb2dVertex
62
5
10
174.515000
20
170.190268
0
SEQEND
5
33d
100
AcDbEntity
8
0
0
ARC
5
33e
100
AcDbEntity
8
0
100
AcDbCircle
6
CONTINUOUS
62
5
10
174.000000
20
152.000000
40
1.030669
100
AcDbArc
50
-119.978545
51
-60.021453
0
ARC
5
33f
100
AcDbEntity
8
0
100
AcDbCircle
6
CONTINUOUS
62
5
10
174.000000
20
152.000000
40
1.030669
100
AcDbArc
50
60.021453
51
119.978545
0
ARC
5
340
100
AcDbEntity
8
0
100
AcDbCircle
6
CONTINUOUS
62
5
10
174.000000
20
152.000000
40
1.030669
100
AcDbArc
50
150.021453
51
-150.021453
0
ARC
5
341
100
AcDbEntity
8
0
100
AcDbCircle
6
CONTINUOUS
62
5
10
174.000000
20
152.000000
40
1.030669
100
AcDbArc
50
-29.978546
51
29.978546
0
LINE
5
342
100
AcDbEntity
8
0
100
AcDbLine
6
CONTINUOUS
62
5
10
178.500000
20
148.000000
11
175.280625
21
148.000000
0
ARC
5
343
100
AcDbEntity
8
0
100
AcDbCircle
6
CONTINUOUS
62
5
10
173.999999
20
152.000005
40
2.249995
100
AcDbArc
50
76.768289
51
103.231681
0
POLYLINE
5
344
100
AcDbEntity
8
0
6
CONTINUOUS
62
5
100
AcDb2dPolyline
66
1
10
0.0
20
0.0
30
0.0
70
0
0
VERTEX
5
345
100
AcDbEntity
8
0
100
AcDbVertex
100
AcDb2dVertex
62
5
10
173.485000
20
154.190268
0
VERTEX
5
346
100
AcDbEntity
8
0
100
AcDbVertex
100
AcDb2dVertex
62
5
10
173.485000
20
152.515000
0
VERTEX
5
347
100
AcDbEntity
8
0
100
AcDbVertex
100
AcDb2dVertex
62
5
10
171.809732
20
152.515000
0
SEQEND
5
348
100
AcDbEntity
8
0
0
ARC
5
349
100
AcDbEntity
8
0
100
AcDbCircle
6
CONTINUOUS
62
5
10
173.999992
20
152.000001
40
2.249992
100
AcDbArc
50
166.768300
51
-166.768272
0
POLYLINE
5
34a
100
AcDbEntity
8
0
6
CONTINUOUS
62
5
100
AcDb2dPolyline
66
1
10
0.0
20
0.0
30
0.0
70
0
0
VERTEX
5
34b
100
AcDbEntity
8
0
100
AcDbVertex
100
AcDb2dVertex
62
5
10
171.809732
20
151.485000
0
VERTEX
5
34c
100
AcDbEntity
8
0
100
AcDbVertex
100
AcDb2dVertex
62
5
10
173.485000
20
151.485000
0
VERTEX
5
34d
100
AcDbEntity
8
0
100
AcDbVertex
100
AcDb2dVertex
62
5
10
173.485000
20
149.809732
0
SEQEND
5
34e
100
AcDbEntity
8
0
0
ARC
5
34f
100
AcDbEntity
8
0
100
AcDbCircle
6
CONTINUOUS
62
5
10
173.999999
20
151.999993
40
2.249993
100
AcDbArc
50
-103.231693
51
-76.768278
0
POLYLINE
5
350
100
AcDbEntity
8
0
6
CONTINUOUS
62
5
100
AcDb2dPolyline
66
1
10
0.0
20
0.0
30
0.0
70
0
0
VERTEX
5
351
100
AcDbEntity
8
0
100
AcDbVertex
100
AcDb2dVertex
62
5
10
174.515000
20
149.809732
0
VERTEX
5
352
100
AcDbEntity
8
0
100
AcDbVertex
100
AcDb2dVertex
62
5
10
174.515000
20
151.485000
0
VERTEX
5
353
100
AcDbEntity
8
0
100
AcDbVertex
100
AcDb2dVertex
62
5
10
176.190268
20
151.485000
0
SEQEND
5
354
100
AcDbEntity
8
0
0
ARC
5
355
100
AcDbEntity
8
0
100
AcDbCircle
6
CONTINUOUS
62
5
10
174.000009
20
152.000000
40
2.249991
100
AcDbArc
50
-13.231719
51
13.231719
0
POLYLINE
5
356
100
AcDbEntity
8
0
6
CONTINUOUS
62
5
100
AcDb2dPolyline
66
1
10
0.0
20
0.0
30
0.0
70
0
0
VERTEX
5
357
100
AcDbEntity
8
0
100
AcDbVertex
100
AcDb2dVertex
62
5
10
176.190268
20
152.515000
0
VERTEX
5
358
100
AcDbEntity
8
0
100
AcDbVertex
100
AcDb2dVertex
62
5
10
174.515000
20
152.515000
0
VERTEX
5
359
100
AcDbEntity
8
0
100
AcDbVertex
100
AcDb2dVertex
62
5
10
174.515000
20
154.190268
0
SEQEND
5
35a
100
AcDbEntity
8
0
0
ARC
5
35b
100
AcDbEntity
8
0
100
AcDbCircle
6
CONTINUOUS
62
5
10
174.000000
20
160.000000
40
4.000000
100
AcDbArc
50
-77.001256
51
77.001256
0
CIRCLE
5
35c
100
AcDbEntity
8
0
100
AcDbCircle
6
CONTINUOUS
62
5
10
174.000000
20
160.000000
40
2.750000
0
ARC
5
35d
100
AcDbEntity
8
0
100
AcDbCircle
6
CONTINUOUS
62
5
10
239.876017
20
108.650000
40
0.500000
100
AcDbArc
50
179.999998
51
-89.999999
0
LINE
5
35e
100
AcDbEntity
8
0
100
AcDbLine
6
CONTINUOUS
62
5
10
239.376017
20
108.650000
11
239.376017
21
110.350000
0
ARC
5
35f
100
AcDbEntity
8
0
100
AcDbCircle
6
CONTINUOUS
62
5
10
239.876017
20
110.350000
40
0.500000
100
AcDbArc
50
89.999999
51
-179.999998
0
LINE
5
360
100
AcDbEntity
8
0
100
AcDbLine
6
CONTINUOUS
62
5
10
239.876017
20
110.850000
11
241.576017
21
110.850000
0
LINE
5
361
100
AcDbEntity
8
0
100
AcDbLine
6
CONTINUOUS
62
5
10
241.576017
20
108.150000
11
239.876017
21
108.150000
0
ARC
5
362
100
AcDbEntity
8
0
100
AcDbCircle
6
CONTINUOUS
62
5
10
238.076017
20
115.500000
40
0.500000
100
AcDbArc
50
89.999999
51
179.999998
0
LINE
5
363
100
AcDbEntity
8
0
100
AcDbLine
6
CONTINUOUS
62
5
10
238.076017
20
116.000000
11
241.576017
21
116.000000
0
LINE
5
364
100
AcDbEntity
8
0
100
AcDbLine
6
CONTINUOUS
62
5
10
241.576017
20
111.500000
11
238.076017
21
111.500000
0
ARC
5
365
100
AcDbEntity
8
0
100
AcDbCircle
6
CONTINUOUS
62
5
10
238.076017
20
112.000000
40
0.500000
100
AcDbArc
50
179.999998
51
-89.999999
0
LINE
5
366
100
AcDbEntity
8
0
100
AcDbLine
6
CONTINUOUS
62
5
10
237.576017
20
112.000000
11
237.576017
21
115.500000
0
LINE
5
367
100
AcDbEntity
8
0
100
AcDbLine
6
CONTINUOUS
62
5
10
170.500000
20
125.750000
11
170.500000
21
125.250000
0
LINE
5
368
100
AcDbEntity
8
0
100
AcDbLine
6
CONTINUOUS
62
5
10
170.500000
20
120.250000
11
170.500000
21
120.750000
0
ARC
5
369
100
AcDbEntity
8
0
100
AcDbCircle
6
CONTINUOUS
62
5
10
173.076017
20
147.000000
40
1.000000
100
AcDbArc
50
104.567156
51
179.999998
0
LINE
5
36a
100
AcDbEntity
8
0
100
AcDbLine
6
CONTINUOUS
62
5
10
172.076017
20
147.000000
11
172.076017
21
129.000000
0
ARC
5
36b
100
AcDbEntity
8
0
100
AcDbCircle
6
CONTINUOUS
62
5
10
173.076017
20
129.000000
40
1.000000
100
AcDbArc
50
179.999998
51
-89.999999
0
LINE
5
36c
100
AcDbEntity
8
0
100
AcDbLine
6
CONTINUOUS
62
5
10
173.076017
20
128.000000
11
178.500000
21
128.000000
0
LINE
5
36d
100
AcDbEntity
8
1
100
AcDbLine
6
CONTINUOUS
62
5
10
259.500000
20
71.250000
11
260.000000
21
71.250000
0
LINE
5
36e
100
AcDbEntity
8
1
100
AcDbLine
6
CONTINUOUS
62
5
10
257.250000
20
71.250000
11
262.500000
21
76.500000
0
LINE
5
36f
100
AcDbEntity
8
1
100
AcDbLine
6
CONTINUOUS
62
5
10
257.250000
20
76.500000
11
262.500000
21
71.250000
0
POLYLINE
5
370
100
AcDbEntity
8
1
6
CONTINUOUS
62
5
100
AcDb2dPolyline
66
1
10
0.0
20
0.0
30
0.0
70
0
0
VERTEX
5
371
100
AcDbEntity
8
1
100
AcDbVertex
100
AcDb2dVertex
62
5
10
259.500000
20
76.500000
0
VERTEX
5
372
100
AcDbEntity
8
1
100
AcDbVertex
100
AcDb2dVertex
62
5
10
260.000000
20
76.500000
0
VERTEX
5
373
100
AcDbEntity
8
1
100
AcDbVertex
100
AcDb2dVertex
62
5
10
260.000000
20
76.000000
0
VERTEX
5
374
100
AcDbEntity
8
1
100
AcDbVertex
100
AcDb2dVertex
62
5
10
259.500000
20
76.000000
0
VERTEX
5
375
100
AcDbEntity
8
1
100
AcDbVertex
100
AcDb2dVertex
62
5
10
259.500000
20
76.500000
0
VERTEX
5
376
100
AcDbEntity
8
1
100
AcDbVertex
100
AcDb2dVertex
62
5
10
260.000000
20
76.000000
0
SEQEND
5
377
100
AcDbEntity
8
1
0
LINE
5
378
100
AcDbEntity
8
1
100
AcDbLine
6
CONTINUOUS
62
5
10
260.000000
20
76.500000
11
259.500000
21
76.000000
0
POLYLINE
5
379
100
AcDbEntity
8
1
6
CONTINUOUS
62
5
100
AcDb2dPolyline
66
1
10
0.0
20
0.0
30
0.0
70
0
0
VERTEX
5
37a
100
AcDbEntity
8
1
100
AcDbVertex
100
AcDb2dVertex
62
5
10
257.250000
20
74.250000
0
VERTEX
5
37b
100
AcDbEntity
8
1
100
AcDbVertex
100
AcDb2dVertex
62
5
10
257.750000
20
74.250000
0
VERTEX
5
37c
100
AcDbEntity
8
1
100
AcDbVertex
100
AcDb2dVertex
62
5
10
257.750000
20
73.750000
0
VERTEX
5
37d
100
AcDbEntity
8
1
100
AcDbVertex
100
AcDb2dVertex
62
5
10
257.250000
20
73.750000
0
VERTEX
5
37e
100
AcDbEntity
8
1
100
AcDbVertex
100
AcDb2dVertex
62
5
10
257.250000
20
74.250000
0
VERTEX
5
37f
100
AcDbEntity
8
1
100
AcDbVertex
100
AcDb2dVertex
62
5
10
257.750000
20
73.750000
0
SEQEND
5
380
100
AcDbEntity
8
1
0
LINE
5
381
100
AcDbEntity
8
1
100
AcDbLine
6
CONTINUOUS
62
5
10
257.750000
20
74.250000
11
257.250000
21
73.750000
0
POLYLINE
5
382
100
AcDbEntity
8
1
6
CONTINUOUS
62
5
100
AcDb2dPolyline
66
1
10
0.0
20
0.0
30
0.0
70
0
0
VERTEX
5
383
100
AcDbEntity
8
1
100
AcDbVertex
100
AcDb2dVertex
62
5
10
262.000000
20
74.250000
0
VERTEX
5
384
100
AcDbEntity
8
1
100
AcDbVertex
100
AcDb2dVertex
62
5
10
262.500000
20
74.250000
0
VERTEX
5
385
100
AcDbEntity
8
1
100
AcDbVertex
100
AcDb2dVertex
62
5
10
262.500000
20
73.750000
0
VERTEX
5
386
100
AcDbEntity
8
1
100
AcDbVertex
100
AcDb2dVertex
62
5
10
262.000000
20
73.750000
0
VERTEX
5
387
100
AcDbEntity
8
1
100
AcDbVertex
100
AcDb2dVertex
62
5
10
262.000000
20
74.250000
0
VERTEX
5
388
100
AcDbEntity
8
1
100
AcDbVertex
100
AcDb2dVertex
62
5
10
262.500000
20
73.750000
0
SEQEND
5
389
100
AcDbEntity
8
1
0
LINE
5
38a
100
AcDbEntity
8
1
100
AcDbLine
6
CONTINUOUS
62
5
10
262.500000
20
74.250000
11
262.000000
21
73.750000
0
POLYLINE
5
38b
100
AcDbEntity
8
1
6
CONTINUOUS
62
5
100
AcDb2dPolyline
66
1
10
0.0
20
0.0
30
0.0
70
0
0
VERTEX
5
38c
100
AcDbEntity
8
1
100
AcDbVertex
100
AcDb2dVertex
62
5
10
259.500000
20
71.750000
0
VERTEX
5
38d
100
AcDbEntity
8
1
100
AcDbVertex
100
AcDb2dVertex
62
5
10
260.000000
20
71.750000
0
VERTEX
5
38e
100
AcDbEntity
8
1
100
AcDbVertex
100
AcDb2dVertex
62
5
10
260.000000
20
71.250000
0
SEQEND
5
38f
100
AcDbEntity
8
1
0
LINE
5
390
100
AcDbEntity
8
1
100
AcDbLine
6
CONTINUOUS
62
5
10
259.500000
20
71.750000
11
260.000000
21
71.250000
0
LINE
5
391
100
AcDbEntity
8
1
100
AcDbLine
6
CONTINUOUS
62
5
10
260.000000
20
71.750000
11
259.500000
21
71.250000
0
LINE
5
392
100
AcDbEntity
8
1
100
AcDbLine
6
CONTINUOUS
62
5
10
259.500000
20
71.750000
11
259.500000
21
71.250000
0
LINE
5
393
100
AcDbEntity
8
1
100
AcDbLine
6
CONTINUOUS
62
5
10
267.500000
20
71.250000
11
268.000000
21
71.250000
0
LINE
5
394
100
AcDbEntity
8
1
100
AcDbLine
6
CONTINUOUS
62
5
10
265.250000
20
71.250000
11
270.500000
21
76.500000
0
LINE
5
395
100
AcDbEntity
8
1
100
AcDbLine
6
CONTINUOUS
62
5
10
265.250000
20
76.500000
11
270.500000
21
71.250000
0
POLYLINE
5
396
100
AcDbEntity
8
1
6
CONTINUOUS
62
5
100
AcDb2dPolyline
66
1
10
0.0
20
0.0
30
0.0
70
0
0
VERTEX
5
397
100
AcDbEntity
8
1
100
AcDbVertex
100
AcDb2dVertex
62
5
10
267.500000
20
76.500000
0
VERTEX
5
398
100
AcDbEntity
8
1
100
AcDbVertex
100
AcDb2dVertex
62
5
10
268.000000
20
76.500000
0
VERTEX
5
399
100
AcDbEntity
8
1
100
AcDbVertex
100
AcDb2dVertex
62
5
10
268.000000
20
76.000000
0
VERTEX
5
39a
100
AcDbEntity
8
1
100
AcDbVertex
100
AcDb2dVertex
62
5
10
267.500000
20
76.000000
0
VERTEX
5
39b
100
AcDbEntity
8
1
100
AcDbVertex
100
AcDb2dVertex
62
5
10
267.500000
20
76.500000
0
VERTEX
5
39c
100
AcDbEntity
8
1
100
AcDbVertex
100
AcDb2dVertex
62
5
10
268.000000
20
76.000000
0
SEQEND
5
39d
100
AcDbEntity
8
1
0
LINE
5
39e
100
AcDbEntity
8
1
100
AcDbLine
6
CONTINUOUS
62
5
10
268.000000
20
76.500000
11
267.500000
21
76.000000
0
POLYLINE
5
39f
100
AcDbEntity
8
1
6
CONTINUOUS
62
5
100
AcDb2dPolyline
66
1
10
0.0
20
0.0
30
0.0
70
0
0
VERTEX
5
3a0
100
AcDbEntity
8
1
100
AcDbVertex
100
AcDb2dVertex
62
5
10
265.250000
20
74.250000
0
VERTEX
5
3a1
100
AcDbEntity
8
1
100
AcDbVertex
100
AcDb2dVertex
62
5
10
265.750000
20
74.250000
0
VERTEX
5
3a2
100
AcDbEntity
8
1
100
AcDbVertex
100
AcDb2dVertex
62
5
10
265.750000
20
73.750000
0
VERTEX
5
3a3
100
AcDbEntity
8
1
100
AcDbVertex
100
AcDb2dVertex
62
5
10
265.250000
20
73.750000
0
VERTEX
5
3a4
100
AcDbEntity
8
1
100
AcDbVertex
100
AcDb2dVertex
62
5
10
265.250000
20
74.250000
0
VERTEX
5
3a5
100
AcDbEntity
8
1
100
AcDbVertex
100
AcDb2dVertex
62
5
10
265.750000
20
73.750000
0
SEQEND
5
3a6
100
AcDbEntity
8
1
0
LINE
5
3a7
100
AcDbEntity
8
1
100
AcDbLine
6
CONTINUOUS
62
5
10
265.750000
20
74.250000
11
265.250000
21
73.750000
0
POLYLINE
5
3a8
100
AcDbEntity
8
1
6
CONTINUOUS
62
5
100
AcDb2dPolyline
66
1
10
0.0
20
0.0
30
0.0
70
0
0
VERTEX
5
3a9
100
AcDbEntity
8
1
100
AcDbVertex
100
AcDb2dVertex
62
5
10
270.000000
20
74.250000
0
VERTEX
5
3aa
100
AcDbEntity
8
1
100
AcDbVertex
100
AcDb2dVertex
62
5
10
270.500000
20
74.250000
0
VERTEX
5
3ab
100
AcDbEntity
8
1
100
AcDbVertex
100
AcDb2dVertex
62
5
10
270.500000
20
73.750000
0
VERTEX
5
3ac
100
AcDbEntity
8
1
100
AcDbVertex
100
AcDb2dVertex
62
5
10
270.000000
20
73.750000
0
VERTEX
5
3ad
100
AcDbEntity
8
1
100
AcDbVertex
100
AcDb2dVertex
62
5
10
270.000000
20
74.250000
0
VERTEX
5
3ae
100
AcDbEntity
8
1
100
AcDbVertex
100
AcDb2dVertex
62
5
10
270.500000
20
73.750000
0
SEQEND
5
3af
100
AcDbEntity
8
1
0
LINE
5
3b0
100
AcDbEntity
8
1
100
AcDbLine
6
CONTINUOUS
62
5
10
270.500000
20
74.250000
11
270.000000
21
73.750000
0
POLYLINE
5
3b1
100
AcDbEntity
8
1
6
CONTINUOUS
62
5
100
AcDb2dPolyline
66
1
10
0.0
20
0.0
30
0.0
70
0
0
VERTEX
5
3b2
100
AcDbEntity
8
1
100
AcDbVertex
100
AcDb2dVertex
62
5
10
267.500000
20
71.750000
0
VERTEX
5
3b3
100
AcDbEntity
8
1
100
AcDbVertex
100
AcDb2dVertex
62
5
10
268.000000
20
71.750000
0
VERTEX
5
3b4
100
AcDbEntity
8
1
100
AcDbVertex
100
AcDb2dVertex
62
5
10
268.000000
20
71.250000
0
SEQEND
5
3b5
100
AcDbEntity
8
1
0
LINE
5
3b6
100
AcDbEntity
8
1
100
AcDbLine
6
CONTINUOUS
62
5
10
267.500000
20
71.750000
11
268.000000
21
71.250000
0
LINE
5
3b7
100
AcDbEntity
8
1
100
AcDbLine
6
CONTINUOUS
62
5
10
268.000000
20
71.750000
11
267.500000
21
71.250000
0
LINE
5
3b8
100
AcDbEntity
8
1
100
AcDbLine
6
CONTINUOUS
62
5
10
267.500000
20
71.750000
11
267.500000
21
71.250000
0
POLYLINE
5
3b9
100
AcDbEntity
8
1
6
CONTINUOUS
62
5
100
AcDb2dPolyline
66
1
10
0.0
20
0.0
30
0.0
70
0
0
VERTEX
5
3ba
100
AcDbEntity
8
1
100
AcDbVertex
100
AcDb2dVertex
62
5
10
239.000000
20
77.000000
0
VERTEX
5
3bb
100
AcDbEntity
8
1
100
AcDbVertex
100
AcDb2dVertex
62
5
10
238.250000
20
77.000000
0
VERTEX
5
3bc
100
AcDbEntity
8
1
100
AcDbVertex
100
AcDb2dVertex
62
5
10
237.500000
20
76.750000
0
VERTEX
5
3bd
100
AcDbEntity
8
1
100
AcDbVertex
100
AcDb2dVertex
62
5
10
237.000000
20
75.750000
0
VERTEX
5
3be
100
AcDbEntity
8
1
100
AcDbVertex
100
AcDb2dVertex
62
5
10
237.000000
20
72.250000
0
VERTEX
5
3bf
100
AcDbEntity
8
1
100
AcDbVertex
100
AcDb2dVertex
62
5
10
237.250000
20
71.500000
0
VERTEX
5
3c0
100
AcDbEntity
8
1
100
AcDbVertex
100
AcDb2dVertex
62
5
10
237.500000
20
71.250000
0
VERTEX
5
3c1
100
AcDbEntity
8
1
100
AcDbVertex
100
AcDb2dVertex
62
5
10
238.000000
20
71.000000
0
VERTEX
5
3c2
100
AcDbEntity
8
1
100
AcDbVertex
100
AcDb2dVertex
62
5
10
238.500000
20
71.000000
0
VERTEX
5
3c3
100
AcDbEntity
8
1
100
AcDbVertex
100
AcDb2dVertex
62
5
10
239.000000
20
71.250000
0
VERTEX
5
3c4
100
AcDbEntity
8
1
100
AcDbVertex
100
AcDb2dVertex
62
5
10
239.250000
20
71.500000
0
VERTEX
5
3c5
100
AcDbEntity
8
1
100
AcDbVertex
100
AcDb2dVertex
62
5
10
239.500000
20
72.250000
0
VERTEX
5
3c6
100
AcDbEntity
8
1
100
AcDbVertex
100
AcDb2dVertex
62
5
10
239.500000
20
73.750000
0
VERTEX
5
3c7
100
AcDbEntity
8
1
100
AcDbVertex
100
AcDb2dVertex
62
5
10
239.250000
20
74.250000
0
VERTEX
5
3c8
100
AcDbEntity
8
1
100
AcDbVertex
100
AcDb2dVertex
62
5
10
238.750000
20
74.500000
0
VERTEX
5
3c9
100
AcDbEntity
8
1
100
AcDbVertex
100
AcDb2dVertex
62
5
10
237.750000
20
74.500000
0
VERTEX
5
3ca
100
AcDbEntity
8
1
100
AcDbVertex
100
AcDb2dVertex
62
5
10
237.000000
20
74.250000
0
SEQEND
5
3cb
100
AcDbEntity
8
1
0
LINE
5
3cc
100
AcDbEntity
8
1
100
AcDbLine
6
CONTINUOUS
62
5
10
241.000000
20
77.000000
11
243.250000
21
77.000000
0
POLYLINE
5
3cd
100
AcDbEntity
8
1
6
CONTINUOUS
62
5
100
AcDb2dPolyline
66
1
10
0.0
20
0.0
30
0.0
70
0
0
VERTEX
5
3ce
100
AcDbEntity
8
1
100
AcDbVertex
100
AcDb2dVertex
62
5
10
241.000000
20
77.000000
0
VERTEX
5
3cf
100
AcDbEntity
8
1
100
AcDbVertex
100
AcDb2dVertex
62
5
10
241.000000
20
74.000000
0
VERTEX
5
3d0
100
AcDbEntity
8
1
100
AcDbVertex
100
AcDb2dVertex
62
5
10
241.500000
20
74.500000
0
VERTEX
5
3d1
100
AcDbEntity
8
1
100
AcDbVertex
100
AcDb2dVertex
62
5
10
242.000000
20
74.750000
0
VERTEX
5
3d2
100
AcDbEntity
8
1
100
AcDbVertex
100
AcDb2dVertex
62
5
10
242.750000
20
74.750000
0
VERTEX
5
3d3
100
AcDbEntity
8
1
100
AcDbVertex
100
AcDb2dVertex
62
5
10
243.250000
20
74.500000
0
VERTEX
5
3d4
100
AcDbEntity
8
1
100
AcDbVertex
100
AcDb2dVertex
62
5
10
243.500000
20
73.750000
0
VERTEX
5
3d5
100
AcDbEntity
8
1
100
AcDbVertex
100
AcDb2dVertex
62
5
10
243.500000
20
72.250000
0
VERTEX
5
3d6
100
AcDbEntity
8
1
100
AcDbVertex
100
AcDb2dVertex
62
5
10
243.000000
20
71.500000
0
VERTEX
5
3d7
100
AcDbEntity
8
1
100
AcDbVertex
100
AcDb2dVertex
62
5
10
242.250000
20
71.000000
0
VERTEX
5
3d8
100
AcDbEntity
8
1
100
AcDbVertex
100
AcDb2dVertex
62
5
10
241.000000
20
71.000000
0
SEQEND
5
3d9
100
AcDbEntity
8
1
0
POLYLINE
5
3da
100
AcDbEntity
8
1
6
CONTINUOUS
62
5
100
AcDb2dPolyline
66
1
10
0.0
20
0.0
30
0.0
70
0
0
VERTEX
5
3db
100
AcDbEntity
8
1
100
AcDbVertex
100
AcDb2dVertex
62
5
10
247.000000
20
77.000000
0
VERTEX
5
3dc
100
AcDbEntity
8
1
100
AcDbVertex
100
AcDb2dVertex
62
5
10
244.750000
20
72.500000
0
VERTEX
5
3dd
100
AcDbEntity
8
1
100
AcDbVertex
100
AcDb2dVertex
62
5
10
247.750000
20
72.500000
0
SEQEND
5
3de
100
AcDbEntity
8
1
0
LINE
5
3df
100
AcDbEntity
8
1
100
AcDbLine
6
CONTINUOUS
62
5
10
247.000000
20
77.000000
11
247.000000
21
71.000000
0
LINE
5
3e0
100
AcDbEntity
8
1
100
AcDbLine
6
CONTINUOUS
62
5
10
246.500000
20
71.000000
11
247.500000
21
71.000000
0
POLYLINE
5
3e1
100
AcDbEntity
8
1
6
CONTINUOUS
62
5
100
AcDb2dPolyline
66
1
10
0.0
20
0.0
30
0.0
70
0
0
VERTEX
5
3e2
100
AcDbEntity
8
1
100
AcDbVertex
100
AcDb2dVertex
62
5
10
249.000000
20
75.250000
0
VERTEX
5
3e3
100
AcDbEntity
8
1
100
AcDbVertex
100
AcDb2dVertex
62
5
10
249.250000
20
76.500000
0
VERTEX
5
3e4
100
AcDbEntity
8
1
100
AcDbVertex
100
AcDb2dVertex
62
5
10
250.000000
20
77.000000
0
VERTEX
5
3e5
100
AcDbEntity
8
1
100
AcDbVertex
100
AcDb2dVertex
62
5
10
250.750000
20
77.000000
0
VERTEX
5
3e6
100
AcDbEntity
8
1
100
AcDbVertex
100
AcDb2dVertex
62
5
10
251.250000
20
76.750000
0
VERTEX
5
3e7
100
AcDbEntity
8
1
100
AcDbVertex
100
AcDb2dVertex
62
5
10
251.500000
20
76.000000
0
VERTEX
5
3e8
100
AcDbEntity
8
1
100
AcDbVertex
100
AcDb2dVertex
62
5
10
251.500000
20
75.250000
0
VERTEX
5
3e9
100
AcDbEntity
8
1
100
AcDbVertex
100
AcDb2dVertex
62
5
10
251.250000
20
74.500000
0
VERTEX
5
3ea
100
AcDbEntity
8
1
100
AcDbVertex
100
AcDb2dVertex
62
5
10
249.000000
20
71.000000
0
VERTEX
5
3eb
100
AcDbEntity
8
1
100
AcDbVertex
100
AcDb2dVertex
62
5
10
251.500000
20
71.000000
0
VERTEX
5
3ec
100
AcDbEntity
8
1
100
AcDbVertex
100
AcDb2dVertex
62
5
10
251.500000
20
71.750000
0
SEQEND
5
3ed
100
AcDbEntity
8
1
0
POLYLINE
5
3ee
100
AcDbEntity
8
1
6
CONTINUOUS
62
5
100
AcDb2dPolyline
66
1
10
0.0
20
0.0
30
0.0
70
0
0
VERTEX
5
3ef
100
AcDbEntity
8
1
100
AcDbVertex
100
AcDb2dVertex
62
5
10
223.250000
20
74.750000
0
VERTEX
5
3f0
100
AcDbEntity
8
1
100
AcDbVertex
100
AcDb2dVertex
62
5
10
223.500000
20
74.750000
0
VERTEX
5
3f1
100
AcDbEntity
8
1
100
AcDbVertex
100
AcDb2dVertex
62
5
10
225.250000
20
73.750000
0
SEQEND
5
3f2
100
AcDbEntity
8
1
0
LINE
5
3f3
100
AcDbEntity
8
1
100
AcDbLine
6
CONTINUOUS
62
5
10
223.250000
20
77.000000
11
223.250000
21
71.000000
0
POLYLINE
5
3f4
100
AcDbEntity
8
1
6
CONTINUOUS
62
5
100
AcDb2dPolyline
66
1
10
0.0
20
0.0
30
0.0
70
0
0
VERTEX
5
3f5
100
AcDbEntity
8
1
100
AcDbVertex
100
AcDb2dVertex
62
5
10
197.000000
20
75.500000
0
VERTEX
5
3f6
100
AcDbEntity
8
1
100
AcDbVertex
100
AcDb2dVertex
62
5
10
201.250000
20
75.500000
0
VERTEX
5
3f7
100
AcDbEntity
8
1
100
AcDbVertex
100
AcDb2dVertex
62
5
10
201.250000
20
75.000000
0
VERTEX
5
3f8
100
AcDbEntity
8
1
100
AcDbVertex
100
AcDb2dVertex
62
5
10
201.000000
20
74.250000
0
VERTEX
5
3f9
100
AcDbEntity
8
1
100
AcDbVertex
100
AcDb2dVertex
62
5
10
200.500000
20
73.500000
0
VERTEX
5
3fa
100
AcDbEntity
8
1
100
AcDbVertex
100
AcDb2dVertex
62
5
10
199.750000
20
72.500000
0
VERTEX
5
3fb
100
AcDbEntity
8
1
100
AcDbVertex
100
AcDb2dVertex
62
5
10
199.000000
20
72.000000
0
VERTEX
5
3fc
100
AcDbEntity
8
1
100
AcDbVertex
100
AcDb2dVertex
62
5
10
197.750000
20
71.250000
0
SEQEND
5
3fd
100
AcDbEntity
8
1
0
POLYLINE
5
3fe
100
AcDbEntity
8
1
6
CONTINUOUS
62
5
100
AcDb2dPolyline
66
1
10
0.0
20
0.0
30
0.0
70
1
0
VERTEX
5
3ff
100
AcDbEntity
8
1
100
AcDbVertex
100
AcDb2dVertex
62
5
10
202.000000
20
76.750000
0
VERTEX
5
400
100
AcDbEntity
8
1
100
AcDbVertex
100
AcDb2dVertex
62
5
10
202.500000
20
76.750000
0
VERTEX
5
401
100
AcDbEntity
8
1
100
AcDbVertex
100
AcDb2dVertex
62
5
10
202.750000
20
76.500000
0
VERTEX
5
402
100
AcDbEntity
8
1
100
AcDbVertex
100
AcDb2dVertex
62
5
10
202.750000
20
76.000000
0
VERTEX
5
403
100
AcDbEntity
8
1
100
AcDbVertex
100
AcDb2dVertex
62
5
10
202.500000
20
75.750000
0
VERTEX
5
404
100
AcDbEntity
8
1
100
AcDbVertex
100
AcDb2dVertex
62
5
10
202.000000
20
75.750000
0
VERTEX
5
405
100
AcDbEntity
8
1
100
AcDbVertex
100
AcDb2dVertex
62
5
10
201.750000
20
76.000000
0
VERTEX
5
406
100
AcDbEntity
8
1
100
AcDbVertex
100
AcDb2dVertex
62
5
10
201.750000
20
76.500000
0
VERTEX
5
407
100
AcDbEntity
8
1
100
AcDbVertex
100
AcDb2dVertex
62
5
10
202.000000
20
76.750000
0
SEQEND
5
408
100
AcDbEntity
8
1
0
POLYLINE
5
409
100
AcDbEntity
8
1
6
CONTINUOUS
62
5
100
AcDb2dPolyline
66
1
10
0.0
20
0.0
30
0.0
70
0
0
VERTEX
5
40a
100
AcDbEntity
8
1
100
AcDbVertex
100
AcDb2dVertex
62
5
10
206.250000
20
76.500000
0
VERTEX
5
40b
100
AcDbEntity
8
1
100
AcDbVertex
100
AcDb2dVertex
62
5
10
206.250000
20
71.500000
0
VERTEX
5
40c
100
AcDbEntity
8
1
100
AcDbVertex
100
AcDb2dVertex
62
5
10
206.750000
20
71.250000
0
VERTEX
5
40d
100
AcDbEntity
8
1
100
AcDbVertex
100
AcDb2dVertex
62
5
10
208.000000
20
71.750000
0
VERTEX
5
40e
100
AcDbEntity
8
1
100
AcDbVertex
100
AcDb2dVertex
62
5
10
209.250000
20
72.500000
0
VERTEX
5
40f
100
AcDbEntity
8
1
100
AcDbVertex
100
AcDb2dVertex
62
5
10
210.500000
20
73.500000
0
SEQEND
5
410
100
AcDbEntity
8
1
0
POLYLINE
5
411
100
AcDbEntity
8
1
6
CONTINUOUS
62
5
100
AcDb2dPolyline
66
1
10
0.0
20
0.0
30
0.0
70
0
0
VERTEX
5
412
100
AcDbEntity
8
1
100
AcDbVertex
100
AcDb2dVertex
62
5
10
173.000000
20
74.250000
0
VERTEX
5
413
100
AcDbEntity
8
1
100
AcDbVertex
100
AcDb2dVertex
62
5
10
178.250000
20
74.750000
0
VERTEX
5
414
100
AcDbEntity
8
1
100
AcDbVertex
100
AcDb2dVertex
62
5
10
178.250000
20
74.500000
0
VERTEX
5
415
100
AcDbEntity
8
1
100
AcDbVertex
100
AcDb2dVertex
62
5
10
177.000000
20
73.250000
0
SEQEND
5
416
100
AcDbEntity
8
1
0
POLYLINE
5
417
100
AcDbEntity
8
1
6
CONTINUOUS
62
5
100
AcDb2dPolyline
66
1
10
0.0
20
0.0
30
0.0
70
0
0
VERTEX
5
418
100
AcDbEntity
8
1
100
AcDbVertex
100
AcDb2dVertex
62
5
10
175.000000
20
76.500000
0
VERTEX
5
419
100
AcDbEntity
8
1
100
AcDbVertex
100
AcDb2dVertex
62
5
10
175.000000
20
71.750000
0
VERTEX
5
41a
100
AcDbEntity
8
1
100
AcDbVertex
100
AcDb2dVertex
62
5
10
175.500000
20
71.250000
0
VERTEX
5
41b
100
AcDbEntity
8
1
100
AcDbVertex
100
AcDb2dVertex
62
5
10
178.250000
20
71.250000
0
SEQEND
5
41c
100
AcDbEntity
8
1
0
LINE
5
41d
100
AcDbEntity
8
1
100
AcDbLine
6
CONTINUOUS
62
5
10
182.250000
20
74.250000
11
182.500000
21
73.250000
0
LINE
5
41e
100
AcDbEntity
8
1
100
AcDbLine
6
CONTINUOUS
62
5
10
183.750000
20
74.500000
11
184.000000
21
73.500000
0
POLYLINE
5
41f
100
AcDbEntity
8
1
6
CONTINUOUS
62
5
100
AcDb2dPolyline
66
1
10
0.0
20
0.0
30
0.0
70
0
0
VERTEX
5
420
100
AcDbEntity
8
1
100
AcDbVertex
100
AcDb2dVertex
62
5
10
185.750000
20
74.500000
0
VERTEX
5
421
100
AcDbEntity
8
1
100
AcDbVertex
100
AcDb2dVertex
62
5
10
185.500000
20
73.250000
0
VERTEX
5
422
100
AcDbEntity
8
1
100
AcDbVertex
100
AcDb2dVertex
62
5
10
184.250000
20
71.750000
0
VERTEX
5
423
100
AcDbEntity
8
1
100
AcDbVertex
100
AcDb2dVertex
62
5
10
183.250000
20
71.000000
0
SEQEND
5
424
100
AcDbEntity
8
1
0
POLYLINE
5
425
100
AcDbEntity
8
1
6
CONTINUOUS
62
5
100
AcDb2dPolyline
66
1
10
0.0
20
0.0
30
0.0
70
0
0
VERTEX
5
426
100
AcDbEntity
8
1
100
AcDbVertex
100
AcDb2dVertex
62
5
10
191.250000
20
74.750000
0
VERTEX
5
427
100
AcDbEntity
8
1
100
AcDbVertex
100
AcDb2dVertex
62
5
10
191.500000
20
74.750000
0
VERTEX
5
428
100
AcDbEntity
8
1
100
AcDbVertex
100
AcDb2dVertex
62
5
10
193.250000
20
73.750000
0
SEQEND
5
429
100
AcDbEntity
8
1
0
LINE
5
42a
100
AcDbEntity
8
1
100
AcDbLine
6
CONTINUOUS
62
5
10
191.250000
20
77.000000
11
191.250000
21
71.000000
0
POLYLINE
5
42b
100
AcDbEntity
8
1
6
CONTINUOUS
62
5
100
AcDb2dPolyline
66
1
10
0.0
20
0.0
30
0.0
70
0
0
VERTEX
5
42c
100
AcDbEntity
8
1
100
AcDbVertex
100
AcDb2dVertex
62
5
10
212.750000
20
74.250000
0
VERTEX
5
42d
100
AcDbEntity
8
1
100
AcDbVertex
100
AcDb2dVertex
62
5
10
213.000000
20
74.000000
0
VERTEX
5
42e
100
AcDbEntity
8
1
100
AcDbVertex
100
AcDb2dVertex
62
5
10
219.750000
20
74.000000
0
SEQEND
5
42f
100
AcDbEntity
8
1
0
LINE
5
430
100
AcDbEntity
8
1
100
AcDbLine
6
CONTINUOUS
62
5
10
253.000000
20
74.000000
11
255.500000
21
74.000000
0
ARC
5
431
100
AcDbEntity
8
0
100
AcDbCircle
6
CONTINUOUS
62
5
10
143.500000
20
176.400000
40
0.500000
100
AcDbArc
50
179.999998
51
-89.999999
0
LINE
5
432
100
AcDbEntity
8
0
100
AcDbLine
6
CONTINUOUS
62
5
10
143.500000
20
175.900000
11
150.500000
21
175.900000
0
ARC
5
433
100
AcDbEntity
8
0
100
AcDbCircle
6
CONTINUOUS
62
5
10
150.500000
20
176.400000
40
0.500000
100
AcDbArc
50
-89.999999
51
0.000000
0
LINE
5
434
100
AcDbEntity
8
0
100
AcDbLine
6
CONTINUOUS
62
5
10
151.000000
20
176.400000
11
151.000000
21
177.600000
0
ARC
5
435
100
AcDbEntity
8
0
100
AcDbCircle
6
CONTINUOUS
62
5
10
150.500000
20
177.600000
40
0.500000
100
AcDbArc
50
0.000000
51
89.999999
0
LINE
5
436
100
AcDbEntity
8
0
100
AcDbLine
6
CONTINUOUS
62
5
10
150.500000
20
178.100000
11
143.500000
21
178.100000
0
ARC
5
437
100
AcDbEntity
8
0
100
AcDbCircle
6
CONTINUOUS
62
5
10
143.500000
20
177.600000
40
0.500000
100
AcDbArc
50
89.999999
51
179.999998
0
LINE
5
438
100
AcDbEntity
8
0
100
AcDbLine
6
CONTINUOUS
62
5
10
143.000000
20
177.600000
11
143.000000
21
176.400000
0
ARC
5
439
100
AcDbEntity
8
0
100
AcDbCircle
6
CONTINUOUS
62
5
10
147.000000
20
177.000000
40
8.500000
100
AcDbArc
50
-172.395749
51
-7.604249
0
LINE
5
43a
100
AcDbEntity
8
0
100
AcDbLine
6
CONTINUOUS
62
5
10
155.425249
20
175.875196
11
156.441795
21
175.950000
0
ARC
5
43b
100
AcDbEntity
8
0
100
AcDbCircle
6
CONTINUOUS
62
5
10
147.000000
20
177.000000
40
9.500000
100
AcDbArc
50
-173.654342
51
-6.345656
0
LINE
5
43c
100
AcDbEntity
8
0
100
AcDbLine
6
CONTINUOUS
62
5
10
137.558205
20
175.950000
11
138.574751
21
175.875196
0
ARC
5
43d
100
AcDbEntity
8
0
100
AcDbCircle
6
CONTINUOUS
62
5
10
143.500000
20
142.400000
40
0.500000
100
AcDbArc
50
179.999998
51
-89.999999
0
LINE
5
43e
100
AcDbEntity
8
0
100
AcDbLine
6
CONTINUOUS
62
5
10
143.500000
20
141.900000
11
150.500000
21
141.900000
0
ARC
5
43f
100
AcDbEntity
8
0
100
AcDbCircle
6
CONTINUOUS
62
5
10
150.500000
20
142.400000
40
0.500000
100
AcDbArc
50
-89.999999
51
0.000000
0
LINE
5
440
100
AcDbEntity
8
0
100
AcDbLine
6
CONTINUOUS
62
5
10
151.000000
20
142.400000
11
151.000000
21
143.600000
0
ARC
5
441
100
AcDbEntity
8
0
100
AcDbCircle
6
CONTINUOUS
62
5
10
150.500000
20
143.600000
40
0.500000
100
AcDbArc
50
0.000000
51
89.999999
0
LINE
5
442
100
AcDbEntity
8
0
100
AcDbLine
6
CONTINUOUS
62
5
10
150.500000
20
144.100000
11
143.500000
21
144.100000
0
ARC
5
443
100
AcDbEntity
8
0
100
AcDbCircle
6
CONTINUOUS
62
5
10
143.500000
20
143.600000
40
0.500000
100
AcDbArc
50
89.999999
51
179.999998
0
LINE
5
444
100
AcDbEntity
8
0
100
AcDbLine
6
CONTINUOUS
62
5
10
143.000000
20
143.600000
11
143.000000
21
142.400000
0
ARC
5
445
100
AcDbEntity
8
0
100
AcDbCircle
6
CONTINUOUS
62
5
10
147.000000
20
143.000000
40
8.500000
100
AcDbArc
50
7.604250
51
172.395748
0
LINE
5
446
100
AcDbEntity
8
0
100
AcDbLine
6
CONTINUOUS
62
5
10
138.574751
20
144.124804
11
137.558205
21
144.050000
0
ARC
5
447
100
AcDbEntity
8
0
100
AcDbCircle
6
CONTINUOUS
62
5
10
147.000000
20
143.000000
40
9.500000
100
AcDbArc
50
6.345655
51
173.654343
0
LINE
5
448
100
AcDbEntity
8
0
100
AcDbLine
6
CONTINUOUS
62
5
10
156.441795
20
144.050000
11
155.425249
21
144.124804
0
ARC
5
449
100
AcDbEntity
8
0
100
AcDbCircle
6
CONTINUOUS
62
5
10
97.500000
20
176.400000
40
0.500000
100
AcDbArc
50
179.999998
51
-89.999999
0
LINE
5
44a
100
AcDbEntity
8
0
100
AcDbLine
6
CONTINUOUS
62
5
10
97.500000
20
175.900000
11
104.500000
21
175.900000
0
ARC
5
44b
100
AcDbEntity
8
0
100
AcDbCircle
6
CONTINUOUS
62
5
10
104.500000
20
176.400000
40
0.500000
100
AcDbArc
50
-89.999999
51
0.000000
0
LINE
5
44c
100
AcDbEntity
8
0
100
AcDbLine
6
CONTINUOUS
62
5
10
105.000000
20
176.400000
11
105.000000
21
177.600000
0
ARC
5
44d
100
AcDbEntity
8
0
100
AcDbCircle
6
CONTINUOUS
62
5
10
104.500000
20
177.600000
40
0.500000
100
AcDbArc
50
0.000000
51
89.999999
0
LINE
5
44e
100
AcDbEntity
8
0
100
AcDbLine
6
CONTINUOUS
62
5
10
104.500000
20
178.100000
11
97.500000
21
178.100000
0
ARC
5
44f
100
AcDbEntity
8
0
100
AcDbCircle
6
CONTINUOUS
62
5
10
97.500000
20
177.600000
40
0.500000
100
AcDbArc
50
89.999999
51
179.999998
0
LINE
5
450
100
AcDbEntity
8
0
100
AcDbLine
6
CONTINUOUS
62
5
10
97.000000
20
177.600000
11
97.000000
21
176.400000
0
ARC
5
451
100
AcDbEntity
8
0
100
AcDbCircle
6
CONTINUOUS
62
5
10
101.000000
20
177.000000
40
8.500000
100
AcDbArc
50
-172.395749
51
-7.604249
0
LINE
5
452
100
AcDbEntity
8
0
100
AcDbLine
6
CONTINUOUS
62
5
10
109.425249
20
175.875196
11
110.441795
21
175.950000
0
ARC
5
453
100
AcDbEntity
8
0
100
AcDbCircle
6
CONTINUOUS
62
5
10
101.000000
20
177.000000
40
9.500000
100
AcDbArc
50
-173.654342
51
-6.345656
0
LINE
5
454
100
AcDbEntity
8
0
100
AcDbLine
6
CONTINUOUS
62
5
10
91.558205
20
175.950000
11
92.574751
21
175.875196
0
ARC
5
455
100
AcDbEntity
8
0
100
AcDbCircle
6
CONTINUOUS
62
5
10
97.500000
20
142.400000
40
0.500000
100
AcDbArc
50
179.999998
51
-89.999999
0
LINE
5
456
100
AcDbEntity
8
0
100
AcDbLine
6
CONTINUOUS
62
5
10
97.500000
20
141.900000
11
104.500000
21
141.900000
0
ARC
5
457
100
AcDbEntity
8
0
100
AcDbCircle
6
CONTINUOUS
62
5
10
104.500000
20
142.400000
40
0.500000
100
AcDbArc
50
-89.999999
51
0.000000
0
LINE
5
458
100
AcDbEntity
8
0
100
AcDbLine
6
CONTINUOUS
62
5
10
105.000000
20
142.400000
11
105.000000
21
143.600000
0
ARC
5
459
100
AcDbEntity
8
0
100
AcDbCircle
6
CONTINUOUS
62
5
10
104.500000
20
143.600000
40
0.500000
100
AcDbArc
50
0.000000
51
89.999999
0
LINE
5
45a
100
AcDbEntity
8
0
100
AcDbLine
6
CONTINUOUS
62
5
10
104.500000
20
144.100000
11
97.500000
21
144.100000
0
ARC
5
45b
100
AcDbEntity
8
0
100
AcDbCircle
6
CONTINUOUS
62
5
10
97.500000
20
143.600000
40
0.500000
100
AcDbArc
50
89.999999
51
179.999998
0
LINE
5
45c
100
AcDbEntity
8
0
100
AcDbLine
6
CONTINUOUS
62
5
10
97.000000
20
143.600000
11
97.000000
21
142.400000
0
ARC
5
45d
100
AcDbEntity
8
0
100
AcDbCircle
6
CONTINUOUS
62
5
10
101.000000
20
143.000000
40
8.500000
100
AcDbArc
50
7.604250
51
172.395748
0
LINE
5
45e
100
AcDbEntity
8
0
100
AcDbLine
6
CONTINUOUS
62
5
10
92.574751
20
144.124804
11
91.558205
21
144.050000
0
ARC
5
45f
100
AcDbEntity
8
0
100
AcDbCircle
6
CONTINUOUS
62
5
10
101.000000
20
143.000000
40
9.500000
100
AcDbArc
50
6.345655
51
173.654343
0
LINE
5
460
100
AcDbEntity
8
0
100
AcDbLine
6
CONTINUOUS
62
5
10
110.441795
20
144.050000
11
109.425249
21
144.124804
0
ARC
5
461
100
AcDbEntity
8
0
100
AcDbCircle
6
CONTINUOUS
62
5
10
122.000000
20
155.750000
40
0.750000
100
AcDbArc
50
179.999998
51
0.000000
0
LINE
5
462
100
AcDbEntity
8
0
100
AcDbLine
6
CONTINUOUS
62
5
10
122.750000
20
155.750000
11
122.750000
21
164.250000
0
ARC
5
463
100
AcDbEntity
8
0
100
AcDbCircle
6
CONTINUOUS
62
5
10
122.000000
20
164.250000
40
0.750000
100
AcDbArc
50
0.000000
51
179.999998
0
LINE
5
464
100
AcDbEntity
8
0
100
AcDbLine
6
CONTINUOUS
62
5
10
121.250000
20
164.250000
11
121.250000
21
155.750000
0
ARC
5
465
100
AcDbEntity
8
0
100
AcDbCircle
6
CONTINUOUS
62
5
10
126.000000
20
164.250000
40
0.750000
100
AcDbArc
50
0.000000
51
179.999998
0
LINE
5
466
100
AcDbEntity
8
0
100
AcDbLine
6
CONTINUOUS
62
5
10
126.750000
20
164.250000
11
126.750000
21
155.750000
0
ARC
5
467
100
AcDbEntity
8
0
100
AcDbCircle
6
CONTINUOUS
62
5
10
126.000000
20
155.750000
40
0.750000
100
AcDbArc
50
179.999998
51
0.000000
0
LINE
5
468
100
AcDbEntity
8
0
100
AcDbLine
6
CONTINUOUS
62
5
10
125.250000
20
155.750000
11
125.250000
21
164.250000
0
LINE
5
469
100
AcDbEntity
8
0
100
AcDbLine
6
CONTINUOUS
62
5
10
168.500000
20
125.750000
11
168.500000
21
125.250000
0
LINE
5
46a
100
AcDbEntity
8
0
100
AcDbLine
6
CONTINUOUS
62
5
10
168.500000
20
120.750000
11
168.500000
21
120.250000
0
CIRCLE
5
46b
100
AcDbEntity
8
0
100
AcDbCircle
6
CONTINUOUS
62
5
10
157.000000
20
118.250000
40
2.250000
0
ARC
5
46c
100
AcDbEntity
8
0
100
AcDbCircle
6
CONTINUOUS
62
5
10
132.000000
20
118.250000
40
2.250000
100
AcDbArc
50
89.999999
51
-89.999999
0
LINE
5
46d
100
AcDbEntity
8
0
100
AcDbLine
6
CONTINUOUS
62
5
10
132.000000
20
116.000000
11
137.000000
21
116.000000
0
ARC
5
46e
100
AcDbEntity
8
0
100
AcDbCircle
6
CONTINUOUS
62
5
10
137.000000
20
118.250000
40
2.250000
100
AcDbArc
50
-89.999999
51
89.999999
0
LINE
5
46f
100
AcDbEntity
8
0
100
AcDbLine
6
CONTINUOUS
62
5
10
137.000000
20
120.500000
11
132.000000
21
120.500000
0
CIRCLE
5
470
100
AcDbEntity
8
0
100
AcDbCircle
6
CONTINUOUS
62
5
10
147.000000
20
118.100000
40
1.650000
0
CIRCLE
5
471
100
AcDbEntity
8
0
100
AcDbCircle
6
CONTINUOUS
62
5
10
147.000000
20
118.100000
40
2.500000
0
POLYLINE
5
472
100
AcDbEntity
8
0
6
CONTINUOUS
62
5
100
AcDb2dPolyline
66
1
10
0.0
20
0.0
30
0.0
70
1
0
VERTEX
5
473
100
AcDbEntity
8
0
100
AcDbVertex
100
AcDb2dVertex
62
5
10
160.800000
20
127.000000
0
VERTEX
5
474
100
AcDbEntity
8
0
100
AcDbVertex
100
AcDb2dVertex
62
5
10
133.200000
20
127.000000
0
VERTEX
5
475
100
AcDbEntity
8
0
100
AcDbVertex
100
AcDb2dVertex
62
5
10
133.380000
20
128.000000
0
VERTEX
5
476
100
AcDbEntity
8
0
100
AcDbVertex
100
AcDb2dVertex
62
5
10
160.620000
20
128.000000
0
SEQEND
5
477
100
AcDbEntity
8
0
0
CIRCLE
5
478
100
AcDbEntity
8
0
100
AcDbCircle
6
CONTINUOUS
62
5
10
147.000000
20
118.100000
40
4.000000
0
ARC
5
479
100
AcDbEntity
8
0
100
AcDbCircle
6
CONTINUOUS
62
5
10
147.000000
20
118.100000
40
6.000000
100
AcDbArc
50
129.194968
51
179.999998
0
ARC
5
47a
100
AcDbEntity
8
0
100
AcDbCircle
6
CONTINUOUS
62
5
10
144.472155
20
121.200000
40
2.000000
100
AcDbArc
50
89.999999
51
129.194966
0
LINE
5
47b
100
AcDbEntity
8
0
100
AcDbLine
6
CONTINUOUS
62
5
10
144.472155
20
123.200000
11
149.527845
21
123.200000
0
ARC
5
47c
100
AcDbEntity
8
0
100
AcDbCircle
6
CONTINUOUS
62
5
10
149.527845
20
121.200000
40
2.000000
100
AcDbArc
50
50.805033
51
89.999999
0
ARC
5
47d
100
AcDbEntity
8
0
100
AcDbCircle
6
CONTINUOUS
62
5
10
147.000000
20
118.100000
40
6.000000
100
AcDbArc
50
0.000000
51
50.805031
0
LINE
5
47e
100
AcDbEntity
8
0
100
AcDbLine
6
CONTINUOUS
62
5
10
153.000000
20
118.100000
11
153.000000
21
113.500000
0
LINE
5
47f
100
AcDbEntity
8
0
100
AcDbLine
6
CONTINUOUS
62
5
10
141.000000
20
113.500000
11
141.000000
21
118.100000
0
POLYLINE
5
480
100
AcDbEntity
8
0
6
CONTINUOUS
62
5
100
AcDb2dPolyline
66
1
10
0.0
20
0.0
30
0.0
70
1
0
VERTEX
5
481
100
AcDbEntity
8
0
100
AcDbVertex
100
AcDb2dVertex
62
5
10
145.096003
20
111.548368
0
VERTEX
5
482
100
AcDbEntity
8
0
100
AcDbVertex
100
AcDb2dVertex
62
5
10
142.851632
20
111.548368
0
VERTEX
5
483
100
AcDbEntity
8
0
100
AcDbVertex
100
AcDb2dVertex
62
5
10
142.851632
20
105.751632
0
VERTEX
5
484
100
AcDbEntity
8
0
100
AcDbVertex
100
AcDb2dVertex
62
5
10
145.096003
20
105.751632
0
SEQEND
5
485
100
AcDbEntity
8
0
0
CIRCLE
5
486
100
AcDbEntity
8
0
100
AcDbCircle
6
CONTINUOUS
62
5
10
147.000000
20
109.500000
40
1.350000
0
POLYLINE
5
487
100
AcDbEntity
8
0
6
CONTINUOUS
62
5
100
AcDb2dPolyline
66
1
10
0.0
20
0.0
30
0.0
70
1
0
VERTEX
5
488
100
AcDbEntity
8
0
100
AcDbVertex
100
AcDb2dVertex
62
5
10
148.903997
20
105.751632
0
VERTEX
5
489
100
AcDbEntity
8
0
100
AcDbVertex
100
AcDb2dVertex
62
5
10
151.148368
20
105.751632
0
VERTEX
5
48a
100
AcDbEntity
8
0
100
AcDbVertex
100
AcDb2dVertex
62
5
10
151.148368
20
111.548368
0
VERTEX
5
48b
100
AcDbEntity
8
0
100
AcDbVertex
100
AcDb2dVertex
62
5
10
148.903997
20
111.548368
0
SEQEND
5
48c
100
AcDbEntity
8
0
0
LINE
5
48d
100
AcDbEntity
8
0
100
AcDbLine
6
CONTINUOUS
62
5
10
123.000000
20
125.750000
11
123.000000
21
125.250000
0
LINE
5
48e
100
AcDbEntity
8
0
100
AcDbLine
6
CONTINUOUS
62
5
10
123.000000
20
120.750000
11
123.000000
21
120.250000
0
ARC
5
48f
100
AcDbEntity
8
0
100
AcDbCircle
6
CONTINUOUS
62
5
10
111.000000
20
118.250000
40
2.250000
100
AcDbArc
50
89.999999
51
-89.999999
0
LINE
5
490
100
AcDbEntity
8
0
100
AcDbLine
6
CONTINUOUS
62
5
10
111.000000
20
116.000000
11
116.000000
21
116.000000
0
ARC
5
491
100
AcDbEntity
8
0
100
AcDbCircle
6
CONTINUOUS
62
5
10
116.000000
20
118.250000
40
2.250000
100
AcDbArc
50
-89.999999
51
89.999999
0
LINE
5
492
100
AcDbEntity
8
0
100
AcDbLine
6
CONTINUOUS
62
5
10
116.000000
20
120.500000
11
111.000000
21
120.500000
0
LINE
5
493
100
AcDbEntity
8
0
100
AcDbLine
6
CONTINUOUS
62
5
10
125.000000
20
125.750000
11
125.000000
21
125.250000
0
LINE
5
494
100
AcDbEntity
8
0
100
AcDbLine
6
CONTINUOUS
62
5
10
125.000000
20
120.250000
11
125.000000
21
120.750000
0
CIRCLE
5
495
100
AcDbEntity
8
0
100
AcDbCircle
6
CONTINUOUS
62
5
10
91.000000
20
118.250000
40
2.250000
0
CIRCLE
5
496
100
AcDbEntity
8
0
100
AcDbCircle
6
CONTINUOUS
62
5
10
101.000000
20
118.100000
40
2.500000
0
CIRCLE
5
497
100
AcDbEntity
8
0
100
AcDbCircle
6
CONTINUOUS
62
5
10
101.000000
20
118.100000
40
1.650000
0
CIRCLE
5
498
100
AcDbEntity
8
0
100
AcDbCircle
6
CONTINUOUS
62
5
10
101.000000
20
118.100000
40
4.000000
0
POLYLINE
5
499
100
AcDbEntity
8
0
6
CONTINUOUS
62
5
100
AcDb2dPolyline
66
1
10
0.0
20
0.0
30
0.0
70
1
0
VERTEX
5
49a
100
AcDbEntity
8
0
100
AcDbVertex
100
AcDb2dVertex
62
5
10
114.800000
20
127.000000
0
VERTEX
5
49b
100
AcDbEntity
8
0
100
AcDbVertex
100
AcDb2dVertex
62
5
10
87.200000
20
127.000000
0
VERTEX
5
49c
100
AcDbEntity
8
0
100
AcDbVertex
100
AcDb2dVertex
62
5
10
87.380000
20
128.000000
0
VERTEX
5
49d
100
AcDbEntity
8
0
100
AcDbVertex
100
AcDb2dVertex
62
5
10
114.620000
20
128.000000
0
SEQEND
5
49e
100
AcDbEntity
8
0
0
ARC
5
49f
100
AcDbEntity
8
0
100
AcDbCircle
6
CONTINUOUS
62
5
10
101.000000
20
118.100000
40
6.000000
100
AcDbArc
50
129.194968
51
179.999998
0
ARC
5
4a0
100
AcDbEntity
8
0
100
AcDbCircle
6
CONTINUOUS
62
5
10
98.472155
20
121.200000
40
2.000000
100
AcDbArc
50
89.999999
51
129.194966
0
LINE
5
4a1
100
AcDbEntity
8
0
100
AcDbLine
6
CONTINUOUS
62
5
10
98.472155
20
123.200000
11
103.527845
21
123.200000
0
ARC
5
4a2
100
AcDbEntity
8
0
100
AcDbCircle
6
CONTINUOUS
62
5
10
103.527845
20
121.200000
40
2.000000
100
AcDbArc
50
50.805033
51
89.999999
0
ARC
5
4a3
100
AcDbEntity
8
0
100
AcDbCircle
6
CONTINUOUS
62
5
10
101.000000
20
118.100000
40
6.000000
100
AcDbArc
50
0.000000
51
50.805031
0
LINE
5
4a4
100
AcDbEntity
8
0
100
AcDbLine
6
CONTINUOUS
62
5
10
107.000000
20
118.100000
11
107.000000
21
113.500000
0
LINE
5
4a5
100
AcDbEntity
8
0
100
AcDbLine
6
CONTINUOUS
62
5
10
95.000000
20
113.500000
11
95.000000
21
118.100000
0
POLYLINE
5
4a6
100
AcDbEntity
8
0
6
CONTINUOUS
62
5
100
AcDb2dPolyline
66
1
10
0.0
20
0.0
30
0.0
70
1
0
VERTEX
5
4a7
100
AcDbEntity
8
0
100
AcDbVertex
100
AcDb2dVertex
62
5
10
102.903997
20
105.751632
0
VERTEX
5
4a8
100
AcDbEntity
8
0
100
AcDbVertex
100
AcDb2dVertex
62
5
10
105.148368
20
105.751632
0
VERTEX
5
4a9
100
AcDbEntity
8
0
100
AcDbVertex
100
AcDb2dVertex
62
5
10
105.148368
20
111.548368
0
VERTEX
5
4aa
100
AcDbEntity
8
0
100
AcDbVertex
100
AcDb2dVertex
62
5
10
102.903997
20
111.548368
0
SEQEND
5
4ab
100
AcDbEntity
8
0
0
POLYLINE
5
4ac
100
AcDbEntity
8
0
6
CONTINUOUS
62
5
100
AcDb2dPolyline
66
1
10
0.0
20
0.0
30
0.0
70
1
0
VERTEX
5
4ad
100
AcDbEntity
8
0
100
AcDbVertex
100
AcDb2dVertex
62
5
10
99.096003
20
111.548368
0
VERTEX
5
4ae
100
AcDbEntity
8
0
100
AcDbVertex
100
AcDb2dVertex
62
5
10
96.851632
20
111.548368
0
VERTEX
5
4af
100
AcDbEntity
8
0
100
AcDbVertex
100
AcDb2dVertex
62
5
10
96.851632
20
105.751632
0
VERTEX
5
4b0
100
AcDbEntity
8
0
100
AcDbVertex
100
AcDb2dVertex
62
5
10
99.096003
20
105.751632
0
SEQEND
5
4b1
100
AcDbEntity
8
0
0
CIRCLE
5
4b2
100
AcDbEntity
8
0
100
AcDbCircle
6
CONTINUOUS
62
5
10
101.000000
20
109.500000
40
1.350000
0
ARC
5
4b3
100
AcDbEntity
8
0
100
AcDbCircle
6
CONTINUOUS
62
5
10
123.000000
20
123.000000
40
2.250000
100
AcDbArc
50
89.999999
51
-89.999999
0
LINE
5
4b4
100
AcDbEntity
8
0
100
AcDbLine
6
CONTINUOUS
62
5
10
123.000000
20
120.750000
11
125.000000
21
120.750000
0
ARC
5
4b5
100
AcDbEntity
8
0
100
AcDbCircle
6
CONTINUOUS
62
5
10
125.000000
20
123.000000
40
2.250000
100
AcDbArc
50
-89.999999
51
89.999999
0
LINE
5
4b6
100
AcDbEntity
8
0
100
AcDbLine
6
CONTINUOUS
62
5
10
125.000000
20
125.250000
11
123.000000
21
125.250000
0
ARC
5
4b7
100
AcDbEntity
8
0
100
AcDbCircle
6
CONTINUOUS
62
5
10
123.000000
20
123.000000
40
2.750000
100
AcDbArc
50
89.999999
51
-89.999999
0
LINE
5
4b8
100
AcDbEntity
8
0
100
AcDbLine
6
CONTINUOUS
62
5
10
123.000000
20
125.750000
11
125.000000
21
125.750000
0
ARC
5
4b9
100
AcDbEntity
8
0
100
AcDbCircle
6
CONTINUOUS
62
5
10
125.000000
20
123.000000
40
2.750000
100
AcDbArc
50
-89.999999
51
89.999999
0
LINE
5
4ba
100
AcDbEntity
8
0
100
AcDbLine
6
CONTINUOUS
62
5
10
125.000000
20
120.250000
11
123.000000
21
120.250000
0
ARC
5
4bb
100
AcDbEntity
8
0
100
AcDbCircle
6
CONTINUOUS
62
5
10
125.000000
20
123.000000
40
4.000000
100
AcDbArc
50
-89.999999
51
89.999999
0
LINE
5
4bc
100
AcDbEntity
8
0
100
AcDbLine
6
CONTINUOUS
62
5
10
125.000000
20
119.000000
11
123.000000
21
119.000000
0
ARC
5
4bd
100
AcDbEntity
8
0
100
AcDbCircle
6
CONTINUOUS
62
5
10
123.000000
20
123.000000
40
4.000000
100
AcDbArc
50
89.999999
51
-89.999999
0
LINE
5
4be
100
AcDbEntity
8
0
100
AcDbLine
6
CONTINUOUS
62
5
10
123.000000
20
127.000000
11
125.000000
21
127.000000
0
ARC
5
4bf
100
AcDbEntity
8
0
100
AcDbCircle
6
CONTINUOUS
62
5
10
147.000000
20
143.000000
40
8.500000
100
AcDbArc
50
-172.395749
51
-7.604249
0
LINE
5
4c0
100
AcDbEntity
8
0
100
AcDbLine
6
CONTINUOUS
62
5
10
155.425249
20
141.875196
11
156.441795
21
141.950000
0
ARC
5
4c1
100
AcDbEntity
8
0
100
AcDbCircle
6
CONTINUOUS
62
5
10
147.000000
20
143.000000
40
9.500000
100
AcDbArc
50
-173.654342
51
-6.345656
0
LINE
5
4c2
100
AcDbEntity
8
0
100
AcDbLine
6
CONTINUOUS
62
5
10
137.558205
20
141.950000
11
138.574751
21
141.875196
0
ARC
5
4c3
100
AcDbEntity
8
0
100
AcDbCircle
6
CONTINUOUS
62
5
10
101.000000
20
143.000000
40
8.500000
100
AcDbArc
50
-172.395749
51
-7.604249
0
LINE
5
4c4
100
AcDbEntity
8
0
100
AcDbLine
6
CONTINUOUS
62
5
10
109.425249
20
141.875196
11
110.441795
21
141.950000
0
ARC
5
4c5
100
AcDbEntity
8
0
100
AcDbCircle
6
CONTINUOUS
62
5
10
101.000000
20
143.000000
40
9.500000
100
AcDbArc
50
-173.654342
51
-6.345656
0
LINE
5
4c6
100
AcDbEntity
8
0
100
AcDbLine
6
CONTINUOUS
62
5
10
91.558205
20
141.950000
11
92.574751
21
141.875196
0
ARC
5
4c7
100
AcDbEntity
8
0
100
AcDbCircle
6
CONTINUOUS
62
5
10
74.000000
20
168.000000
40
1.030669
100
AcDbArc
50
150.021453
51
-150.021453
0
ARC
5
4c8
100
AcDbEntity
8
0
100
AcDbCircle
6
CONTINUOUS
62
5
10
74.000000
20
168.000000
40
1.030669
100
AcDbArc
50
60.021453
51
119.978545
0
ARC
5
4c9
100
AcDbEntity
8
0
100
AcDbCircle
6
CONTINUOUS
62
5
10
74.000000
20
168.000000
40
1.030669
100
AcDbArc
50
-119.978545
51
-60.021453
0
LINE
5
4ca
100
AcDbEntity
8
0
100
AcDbLine
6
CONTINUOUS
62
5
10
69.500000
20
172.000000
11
72.719375
21
172.000000
0
ARC
5
4cb
100
AcDbEntity
8
0
100
AcDbCircle
6
CONTINUOUS
62
5
10
74.000000
20
168.000000
40
1.030669
100
AcDbArc
50
-29.978546
51
29.978546
0
CIRCLE
5
4cc
100
AcDbEntity
8
0
100
AcDbCircle
6
CONTINUOUS
62
5
10
74.000000
20
160.000000
40
2.250000
0
ARC
5
4cd
100
AcDbEntity
8
0
100
AcDbCircle
6
CONTINUOUS
62
5
10
74.000001
20
168.000005
40
2.249995
100
AcDbArc
50
76.768317
51
103.231709
0
POLYLINE
5
4ce
100
AcDbEntity
8
0
6
CONTINUOUS
62
5
100
AcDb2dPolyline
66
1
10
0.0
20
0.0
30
0.0
70
0
0
VERTEX
5
4cf
100
AcDbEntity
8
0
100
AcDbVertex
100
AcDb2dVertex
62
5
10
74.515000
20
170.190268
0
VERTEX
5
4d0
100
AcDbEntity
8
0
100
AcDbVertex
100
AcDb2dVertex
62
5
10
74.515000
20
168.515000
0
VERTEX
5
4d1
100
AcDbEntity
8
0
100
AcDbVertex
100
AcDb2dVertex
62
5
10
76.190268
20
168.515000
0
SEQEND
5
4d2
100
AcDbEntity
8
0
0
ARC
5
4d3
100
AcDbEntity
8
0
100
AcDbCircle
6
CONTINUOUS
62
5
10
74.000008
20
168.000001
40
2.249992
100
AcDbArc
50
-13.231726
51
13.231699
0
POLYLINE
5
4d4
100
AcDbEntity
8
0
6
CONTINUOUS
62
5
100
AcDb2dPolyline
66
1
10
0.0
20
0.0
30
0.0
70
0
0
VERTEX
5
4d5
100
AcDbEntity
8
0
100
AcDbVertex
100
AcDb2dVertex
62
5
10
76.190268
20
167.485000
0
VERTEX
5
4d6
100
AcDbEntity
8
0
100
AcDbVertex
100
AcDb2dVertex
62
5
10
74.515000
20
167.485000
0
VERTEX
5
4d7
100
AcDbEntity
8
0
100
AcDbVertex
100
AcDb2dVertex
62
5
10
74.515000
20
165.809732
0
SEQEND
5
4d8
100
AcDbEntity
8
0
0
ARC
5
4d9
100
AcDbEntity
8
0
100
AcDbCircle
6
CONTINUOUS
62
5
10
74.000001
20
167.999993
40
2.249993
100
AcDbArc
50
-103.231720
51
-76.768306
0
POLYLINE
5
4da
100
AcDbEntity
8
0
6
CONTINUOUS
62
5
100
AcDb2dPolyline
66
1
10
0.0
20
0.0
30
0.0
70
0
0
VERTEX
5
4db
100
AcDbEntity
8
0
100
AcDbVertex
100
AcDb2dVertex
62
5
10
73.485000
20
165.809732
0
VERTEX
5
4dc
100
AcDbEntity
8
0
100
AcDbVertex
100
AcDb2dVertex
62
5
10
73.485000
20
167.485000
0
VERTEX
5
4dd
100
AcDbEntity
8
0
100
AcDbVertex
100
AcDb2dVertex
62
5
10
71.809732
20
167.485000
0
SEQEND
5
4de
100
AcDbEntity
8
0
0
ARC
5
4df
100
AcDbEntity
8
0
100
AcDbCircle
6
CONTINUOUS
62
5
10
73.999991
20
168.000000
40
2.249991
100
AcDbArc
50
166.768279
51
-166.768279
0
POLYLINE
5
4e0
100
AcDbEntity
8
0
6
CONTINUOUS
62
5
100
AcDb2dPolyline
66
1
10
0.0
20
0.0
30
0.0
70
0
0
VERTEX
5
4e1
100
AcDbEntity
8
0
100
AcDbVertex
100
AcDb2dVertex
62
5
10
71.809732
20
168.515000
0
VERTEX
5
4e2
100
AcDbEntity
8
0
100
AcDbVertex
100
AcDb2dVertex
62
5
10
73.485000
20
168.515000
0
VERTEX
5
4e3
100
AcDbEntity
8
0
100
AcDbVertex
100
AcDb2dVertex
62
5
10
73.485000
20
170.190268
0
SEQEND
5
4e4
100
AcDbEntity
8
0
0
CIRCLE
5
4e5
100
AcDbEntity
8
0
100
AcDbCircle
6
CONTINUOUS
62
5
10
74.000000
20
168.000000
40
4.200000
0
ARC
5
4e6
100
AcDbEntity
8
0
100
AcDbCircle
6
CONTINUOUS
62
5
10
74.000000
20
152.000000
40
1.030669
100
AcDbArc
50
-119.978545
51
-60.021453
0
ARC
5
4e7
100
AcDbEntity
8
0
100
AcDbCircle
6
CONTINUOUS
62
5
10
74.000000
20
152.000000
40
1.030669
100
AcDbArc
50
60.021453
51
119.978545
0
ARC
5
4e8
100
AcDbEntity
8
0
100
AcDbCircle
6
CONTINUOUS
62
5
10
74.000000
20
152.000000
40
1.030669
100
AcDbArc
50
150.021453
51
-150.021453
0
LINE
5
4e9
100
AcDbEntity
8
0
100
AcDbLine
6
CONTINUOUS
62
5
10
69.500000
20
148.000000
11
72.719375
21
148.000000
0
ARC
5
4ea
100
AcDbEntity
8
0
100
AcDbCircle
6
CONTINUOUS
62
5
10
74.000000
20
152.000000
40
1.030669
100
AcDbArc
50
-29.978546
51
29.978546
0
ARC
5
4eb
100
AcDbEntity
8
0
100
AcDbCircle
6
CONTINUOUS
62
5
10
74.000001
20
152.000005
40
2.249995
100
AcDbArc
50
76.768317
51
103.231709
0
POLYLINE
5
4ec
100
AcDbEntity
8
0
6
CONTINUOUS
62
5
100
AcDb2dPolyline
66
1
10
0.0
20
0.0
30
0.0
70
0
0
VERTEX
5
4ed
100
AcDbEntity
8
0
100
AcDbVertex
100
AcDb2dVertex
62
5
10
74.515000
20
154.190268
0
VERTEX
5
4ee
100
AcDbEntity
8
0
100
AcDbVertex
100
AcDb2dVertex
62
5
10
74.515000
20
152.515000
0
VERTEX
5
4ef
100
AcDbEntity
8
0
100
AcDbVertex
100
AcDb2dVertex
62
5
10
76.190268
20
152.515000
0
SEQEND
5
4f0
100
AcDbEntity
8
0
0
ARC
5
4f1
100
AcDbEntity
8
0
100
AcDbCircle
6
CONTINUOUS
62
5
10
74.000008
20
152.000001
40
2.249992
100
AcDbArc
50
-13.231726
51
13.231699
0
POLYLINE
5
4f2
100
AcDbEntity
8
0
6
CONTINUOUS
62
5
100
AcDb2dPolyline
66
1
10
0.0
20
0.0
30
0.0
70
0
0
VERTEX
5
4f3
100
AcDbEntity
8
0
100
AcDbVertex
100
AcDb2dVertex
62
5
10
76.190268
20
151.485000
0
VERTEX
5
4f4
100
AcDbEntity
8
0
100
AcDbVertex
100
AcDb2dVertex
62
5
10
74.515000
20
151.485000
0
VERTEX
5
4f5
100
AcDbEntity
8
0
100
AcDbVertex
100
AcDb2dVertex
62
5
10
74.515000
20
149.809732
0
SEQEND
5
4f6
100
AcDbEntity
8
0
0
ARC
5
4f7
100
AcDbEntity
8
0
100
AcDbCircle
6
CONTINUOUS
62
5
10
74.000001
20
151.999993
40
2.249993
100
AcDbArc
50
-103.231720
51
-76.768306
0
POLYLINE
5
4f8
100
AcDbEntity
8
0
6
CONTINUOUS
62
5
100
AcDb2dPolyline
66
1
10
0.0
20
0.0
30
0.0
70
0
0
VERTEX
5
4f9
100
AcDbEntity
8
0
100
AcDbVertex
100
AcDb2dVertex
62
5
10
73.485000
20
149.809732
0
VERTEX
5
4fa
100
AcDbEntity
8
0
100
AcDbVertex
100
AcDb2dVertex
62
5
10
73.485000
20
151.485000
0
VERTEX
5
4fb
100
AcDbEntity
8
0
100
AcDbVertex
100
AcDb2dVertex
62
5
10
71.809732
20
151.485000
0
SEQEND
5
4fc
100
AcDbEntity
8
0
0
ARC
5
4fd
100
AcDbEntity
8
0
100
AcDbCircle
6
CONTINUOUS
62
5
10
73.999991
20
152.000000
40
2.249991
100
AcDbArc
50
166.768279
51
-166.768279
0
POLYLINE
5
4fe
100
AcDbEntity
8
0
6
CONTINUOUS
62
5
100
AcDb2dPolyline
66
1
10
0.0
20
0.0
30
0.0
70
0
0
VERTEX
5
4ff
100
AcDbEntity
8
0
100
AcDbVertex
100
AcDb2dVertex
62
5
10
71.809732
20
152.515000
0
VERTEX
5
500
100
AcDbEntity
8
0
100
AcDbVertex
100
AcDb2dVertex
62
5
10
73.485000
20
152.515000
0
VERTEX
5
501
100
AcDbEntity
8
0
100
AcDbVertex
100
AcDb2dVertex
62
5
10
73.485000
20
154.190268
0
SEQEND
5
502
100
AcDbEntity
8
0
0
CIRCLE
5
503
100
AcDbEntity
8
0
100
AcDbCircle
6
CONTINUOUS
62
5
10
74.000000
20
152.000000
40
4.200000
0
ARC
5
504
100
AcDbEntity
8
0
100
AcDbCircle
6
CONTINUOUS
62
5
10
74.000000
20
160.000000
40
4.000000
100
AcDbArc
50
102.998742
51
-102.998742
0
ARC
5
505
100
AcDbEntity
8
0
100
AcDbCircle
6
CONTINUOUS
62
5
10
74.000000
20
160.000000
40
4.000000
100
AcDbArc
50
-77.001256
51
77.001256
0
CIRCLE
5
506
100
AcDbEntity
8
0
100
AcDbCircle
6
CONTINUOUS
62
5
10
74.000000
20
160.000000
40
2.750000
0
POLYLINE
5
507
100
AcDbEntity
8
1
6
DOT2
62
5
100
AcDb2dPolyline
66
1
10
0.0
20
0.0
30
0.0
70
0
0
VERTEX
5
508
100
AcDbEntity
8
1
100
AcDbVertex
100
AcDb2dVertex
62
5
10
32.298983
20
159.375000
0
VERTEX
5
509
100
AcDbEntity
8
1
100
AcDbVertex
100
AcDb2dVertex
62
5
10
31.673983
20
160.312500
0
VERTEX
5
50a
100
AcDbEntity
8
1
100
AcDbVertex
100
AcDb2dVertex
62
5
10
39.173983
20
160.312500
0
SEQEND
5
50b
100
AcDbEntity
8
1
0
LINE
5
50c
100
AcDbEntity
8
1
100
AcDbLine
6
DOT2
62
5
10
39.173983
20
159.687500
11
39.173983
21
160.937500
0
LINE
5
50d
100
AcDbEntity
8
1
100
AcDbLine
6
DOT2
62
5
10
38.548983
20
164.375000
11
39.173983
21
163.750000
0
POLYLINE
5
50e
100
AcDbEntity
8
1
6
DOT2
62
5
100
AcDb2dPolyline
66
1
10
0.0
20
0.0
30
0.0
70
0
0
VERTEX
5
50f
100
AcDbEntity
8
1
100
AcDbVertex
100
AcDb2dVertex
62
5
10
38.548983
20
163.750000
0
VERTEX
5
510
100
AcDbEntity
8
1
100
AcDbVertex
100
AcDb2dVertex
62
5
10
39.173983
20
164.375000
0
VERTEX
5
511
100
AcDbEntity
8
1
100
AcDbVertex
100
AcDb2dVertex
62
5
10
39.173983
20
163.750000
0
VERTEX
5
512
100
AcDbEntity
8
1
100
AcDbVertex
100
AcDb2dVertex
62
5
10
38.548983
20
163.750000
0
VERTEX
5
513
100
AcDbEntity
8
1
100
AcDbVertex
100
AcDb2dVertex
62
5
10
38.548983
20
164.375000
0
VERTEX
5
514
100
AcDbEntity
8
1
100
AcDbVertex
100
AcDb2dVertex
62
5
10
39.173983
20
164.375000
0
SEQEND
5
515
100
AcDbEntity
8
1
0
POLYLINE
5
516
100
AcDbEntity
8
1
6
DOT2
62
5
100
AcDb2dPolyline
66
1
10
0.0
20
0.0
30
0.0
70
0
0
VERTEX
5
517
100
AcDbEntity
8
1
100
AcDbVertex
100
AcDb2dVertex
62
5
10
32.298983
20
169.375000
0
VERTEX
5
518
100
AcDbEntity
8
1
100
AcDbVertex
100
AcDb2dVertex
62
5
10
31.673983
20
170.312500
0
VERTEX
5
519
100
AcDbEntity
8
1
100
AcDbVertex
100
AcDb2dVertex
62
5
10
39.173983
20
170.312500
0
SEQEND
5
51a
100
AcDbEntity
8
1
0
LINE
5
51b
100
AcDbEntity
8
1
100
AcDbLine
6
DOT2
62
5
10
39.173983
20
169.687500
11
39.173983
21
170.937500
0
POLYLINE
5
51c
100
AcDbEntity
8
1
6
DOT2
62
5
100
AcDb2dPolyline
66
1
10
0.0
20
0.0
30
0.0
70
0
0
VERTEX
5
51d
100
AcDbEntity
8
1
100
AcDbVertex
100
AcDb2dVertex
62
5
10
32.298983
20
149.375000
0
VERTEX
5
51e
100
AcDbEntity
8
1
100
AcDbVertex
100
AcDb2dVertex
62
5
10
31.673983
20
150.312500
0
VERTEX
5
51f
100
AcDbEntity
8
1
100
AcDbVertex
100
AcDb2dVertex
62
5
10
39.173983
20
150.312500
0
SEQEND
5
520
100
AcDbEntity
8
1
0
LINE
5
521
100
AcDbEntity
8
1
100
AcDbLine
6
DOT2
62
5
10
39.173983
20
149.687500
11
39.173983
21
150.937500
0
POLYLINE
5
522
100
AcDbEntity
8
1
6
DOT2
62
5
100
AcDb2dPolyline
66
1
10
0.0
20
0.0
30
0.0
70
0
0
VERTEX
5
523
100
AcDbEntity
8
1
100
AcDbVertex
100
AcDb2dVertex
62
5
10
33.861483
20
153.750000
0
VERTEX
5
524
100
AcDbEntity
8
1
100
AcDbVertex
100
AcDb2dVertex
62
5
10
32.298983
20
154.062500
0
VERTEX
5
525
100
AcDbEntity
8
1
100
AcDbVertex
100
AcDb2dVertex
62
5
10
31.673983
20
155.000000
0
VERTEX
5
526
100
AcDbEntity
8
1
100
AcDbVertex
100
AcDb2dVertex
62
5
10
31.673983
20
155.937500
0
VERTEX
5
527
100
AcDbEntity
8
1
100
AcDbVertex
100
AcDb2dVertex
62
5
10
31.986483
20
156.562500
0
VERTEX
5
528
100
AcDbEntity
8
1
100
AcDbVertex
100
AcDb2dVertex
62
5
10
32.923983
20
156.875000
0
VERTEX
5
529
100
AcDbEntity
8
1
100
AcDbVertex
100
AcDb2dVertex
62
5
10
33.861483
20
156.875000
0
VERTEX
5
52a
100
AcDbEntity
8
1
100
AcDbVertex
100
AcDb2dVertex
62
5
10
34.798983
20
156.562500
0
VERTEX
5
52b
100
AcDbEntity
8
1
100
AcDbVertex
100
AcDb2dVertex
62
5
10
39.173983
20
153.750000
0
VERTEX
5
52c
100
AcDbEntity
8
1
100
AcDbVertex
100
AcDb2dVertex
62
5
10
39.173983
20
156.875000
0
VERTEX
5
52d
100
AcDbEntity
8
1
100
AcDbVertex
100
AcDb2dVertex
62
5
10
38.236483
20
156.875000
0
SEQEND
5
52e
100
AcDbEntity
8
1
0
LINE
5
52f
100
AcDbEntity
8
0
100
AcDbLine
6
CONTINUOUS
62
5
10
79.500000
20
125.750000
11
79.500000
21
125.250000
0
LINE
5
530
100
AcDbEntity
8
0
100
AcDbLine
6
CONTINUOUS
62
5
10
77.500000
20
125.750000
11
77.500000
21
125.250000
0
LINE
5
531
100
AcDbEntity
8
0
100
AcDbLine
6
CONTINUOUS
62
5
10
79.500000
20
120.250000
11
79.500000
21
120.750000
0
LINE
5
532
100
AcDbEntity
8
0
100
AcDbLine
6
CONTINUOUS
62
5
10
77.500000
20
120.750000
11
77.500000
21
120.250000
0
LINE
5
533
100
AcDbEntity
8
0
100
AcDbLine
6
CONTINUOUS
62
5
10
81.500000
20
114.601138
11
75.500000
21
114.601138
0
LINE
5
534
100
AcDbEntity
8
0
100
AcDbLine
6
CONTINUOUS
62
5
10
81.500000
20
114.000000
11
75.500000
21
114.000000
0
LINE
5
535
100
AcDbEntity
8
0
100
AcDbLine
6
CONTINUOUS
62
5
10
75.500000
20
114.086886
11
81.500000
21
114.086886
0
ARC
5
536
100
AcDbEntity
8
0
100
AcDbCircle
6
CONTINUOUS
62
5
10
77.500000
20
123.000000
40
2.250000
100
AcDbArc
50
89.999999
51
-89.999999
0
LINE
5
537
100
AcDbEntity
8
0
100
AcDbLine
6
CONTINUOUS
62
5
10
77.500000
20
120.750000
11
79.500000
21
120.750000
0
ARC
5
538
100
AcDbEntity
8
0
100
AcDbCircle
6
CONTINUOUS
62
5
10
79.500000
20
123.000000
40
2.250000
100
AcDbArc
50
-89.999999
51
89.999999
0
LINE
5
539
100
AcDbEntity
8
0
100
AcDbLine
6
CONTINUOUS
62
5
10
79.500000
20
125.250000
11
77.500000
21
125.250000
0
ARC
5
53a
100
AcDbEntity
8
0
100
AcDbCircle
6
CONTINUOUS
62
5
10
77.500000
20
123.000000
40
2.750000
100
AcDbArc
50
89.999999
51
-89.999999
0
LINE
5
53b
100
AcDbEntity
8
0
100
AcDbLine
6
CONTINUOUS
62
5
10
77.500000
20
125.750000
11
79.500000
21
125.750000
0
ARC
5
53c
100
AcDbEntity
8
0
100
AcDbCircle
6
CONTINUOUS
62
5
10
79.500000
20
123.000000
40
2.750000
100
AcDbArc
50
-89.999999
51
89.999999
0
LINE
5
53d
100
AcDbEntity
8
0
100
AcDbLine
6
CONTINUOUS
62
5
10
79.500000
20
120.250000
11
77.500000
21
120.250000
0
ARC
5
53e
100
AcDbEntity
8
0
100
AcDbCircle
6
CONTINUOUS
62
5
10
79.500000
20
123.000000
40
4.000000
100
AcDbArc
50
-89.999999
51
89.999999
0
LINE
5
53f
100
AcDbEntity
8
0
100
AcDbLine
6
CONTINUOUS
62
5
10
79.500000
20
119.000000
11
77.500000
21
119.000000
0
ARC
5
540
100
AcDbEntity
8
0
100
AcDbCircle
6
CONTINUOUS
62
5
10
77.500000
20
123.000000
40
4.000000
100
AcDbArc
50
89.999999
51
-89.999999
0
LINE
5
541
100
AcDbEntity
8
0
100
AcDbLine
6
CONTINUOUS
62
5
10
77.500000
20
127.000000
11
79.500000
21
127.000000
0
POLYLINE
5
542
100
AcDbEntity
8
0
6
CONTINUOUS
62
5
100
AcDb2dPolyline
66
1
10
0.0
20
0.0
30
0.0
70
0
0
VERTEX
5
543
100
AcDbEntity
8
0
100
AcDbVertex
100
AcDb2dVertex
62
5
10
75.500000
20
111.500000
0
VERTEX
5
544
100
AcDbEntity
8
0
100
AcDbVertex
100
AcDb2dVertex
62
5
10
75.500000
20
115.014251
0
VERTEX
5
545
100
AcDbEntity
8
0
100
AcDbVertex
100
AcDb2dVertex
62
5
10
81.500000
20
115.014251
0
VERTEX
5
546
100
AcDbEntity
8
0
100
AcDbVertex
100
AcDb2dVertex
62
5
10
81.500000
20
111.500000
0
SEQEND
5
547
100
AcDbEntity
8
0
0
ARC
5
548
100
AcDbEntity
8
0
100
AcDbCircle
6
CONTINUOUS
62
5
10
82.000000
20
115.500000
40
0.500000
100
AcDbArc
50
0.000000
51
89.999999
0
LINE
5
549
100
AcDbEntity
8
0
100
AcDbLine
6
CONTINUOUS
62
5
10
82.500000
20
115.500000
11
82.500000
21
112.000000
0
ARC
5
54a
100
AcDbEntity
8
0
100
AcDbCircle
6
CONTINUOUS
62
5
10
82.000000
20
112.000000
40
0.500000
100
AcDbArc
50
-89.999999
51
0.000000
0
LINE
5
54b
100
AcDbEntity
8
0
100
AcDbLine
6
CONTINUOUS
62
5
10
82.000000
20
111.500000
11
75.000000
21
111.500000
0
ARC
5
54c
100
AcDbEntity
8
0
100
AcDbCircle
6
CONTINUOUS
62
5
10
75.000000
20
112.000000
40
0.500000
100
AcDbArc
50
179.999998
51
-89.999999
0
LINE
5
54d
100
AcDbEntity
8
0
100
AcDbLine
6
CONTINUOUS
62
5
10
74.500000
20
112.000000
11
74.500000
21
115.500000
0
ARC
5
54e
100
AcDbEntity
8
0
100
AcDbCircle
6
CONTINUOUS
62
5
10
75.000000
20
115.500000
40
0.500000
100
AcDbArc
50
89.999999
51
179.999998
0
LINE
5
54f
100
AcDbEntity
8
0
100
AcDbLine
6
CONTINUOUS
62
5
10
75.000000
20
116.000000
11
82.000000
21
116.000000
0
ARC
5
550
100
AcDbEntity
8
0
100
AcDbCircle
6
CONTINUOUS
62
5
10
74.923983
20
147.000000
40
1.000000
100
AcDbArc
50
0.000000
51
75.432842
0
LINE
5
551
100
AcDbEntity
8
0
100
AcDbLine
6
CONTINUOUS
62
5
10
75.923983
20
147.000000
11
75.923983
21
129.000000
0
ARC
5
552
100
AcDbEntity
8
0
100
AcDbCircle
6
CONTINUOUS
62
5
10
74.923983
20
129.000000
40
1.000000
100
AcDbArc
50
-89.999999
51
0.000000
0
LINE
5
553
100
AcDbEntity
8
0
100
AcDbLine
6
CONTINUOUS
62
5
10
74.923983
20
128.000000
11
69.500000
21
128.000000
0
LINE
5
554
100
AcDbEntity
8
1
100
AcDbLine
6
CONTINUOUS
62
5
10
149.750000
20
75.750000
11
150.750000
21
74.750000
0
POLYLINE
5
555
100
AcDbEntity
8
1
6
CONTINUOUS
62
5
100
AcDb2dPolyline
66
1
10
0.0
20
0.0
30
0.0
70
0
0
VERTEX
5
556
100
AcDbEntity
8
1
100
AcDbVertex
100
AcDb2dVertex
62
5
10
149.500000
20
71.750000
0
VERTEX
5
557
100
AcDbEntity
8
1
100
AcDbVertex
100
AcDb2dVertex
62
5
10
151.250000
20
72.500000
0
VERTEX
5
558
100
AcDbEntity
8
1
100
AcDbVertex
100
AcDb2dVertex
62
5
10
152.750000
20
73.500000
0
VERTEX
5
559
100
AcDbEntity
8
1
100
AcDbVertex
100
AcDb2dVertex
62
5
10
154.250000
20
74.750000
0
SEQEND
5
55a
100
AcDbEntity
8
1
0
POLYLINE
5
55b
100
AcDbEntity
8
1
6
CONTINUOUS
62
5
100
AcDb2dPolyline
66
1
10
0.0
20
0.0
30
0.0
70
0
0
VERTEX
5
55c
100
AcDbEntity
8
1
100
AcDbVertex
100
AcDb2dVertex
62
5
10
158.000000
20
75.500000
0
VERTEX
5
55d
100
AcDbEntity
8
1
100
AcDbVertex
100
AcDb2dVertex
62
5
10
161.250000
20
75.500000
0
VERTEX
5
55e
100
AcDbEntity
8
1
100
AcDbVertex
100
AcDb2dVertex
62
5
10
161.250000
20
75.250000
0
VERTEX
5
55f
100
AcDbEntity
8
1
100
AcDbVertex
100
AcDb2dVertex
62
5
10
160.750000
20
74.250000
0
VERTEX
5
560
100
AcDbEntity
8
1
100
AcDbVertex
100
AcDb2dVertex
62
5
10
160.250000
20
73.500000
0
VERTEX
5
561
100
AcDbEntity
8
1
100
AcDbVertex
100
AcDb2dVertex
62
5
10
159.250000
20
72.500000
0
VERTEX
5
562
100
AcDbEntity
8
1
100
AcDbVertex
100
AcDb2dVertex
62
5
10
157.500000
20
71.250000
0
SEQEND
5
563
100
AcDbEntity
8
1
0
LINE
5
564
100
AcDbEntity
8
1
100
AcDbLine
6
CONTINUOUS
62
5
10
160.250000
20
73.500000
11
162.250000
21
71.250000
0
POLYLINE
5
565
100
AcDbEntity
8
1
6
CONTINUOUS
62
5
100
AcDb2dPolyline
66
1
10
0.0
20
0.0
30
0.0
70
0
0
VERTEX
5
566
100
AcDbEntity
8
1
100
AcDbVertex
100
AcDb2dVertex
62
5
10
134.250000
20
76.500000
0
VERTEX
5
567
100
AcDbEntity
8
1
100
AcDbVertex
100
AcDb2dVertex
62
5
10
134.250000
20
71.500000
0
VERTEX
5
568
100
AcDbEntity
8
1
100
AcDbVertex
100
AcDb2dVertex
62
5
10
134.750000
20
71.250000
0
VERTEX
5
569
100
AcDbEntity
8
1
100
AcDbVertex
100
AcDb2dVertex
62
5
10
136.000000
20
71.750000
0
VERTEX
5
56a
100
AcDbEntity
8
1
100
AcDbVertex
100
AcDb2dVertex
62
5
10
137.250000
20
72.500000
0
VERTEX
5
56b
100
AcDbEntity
8
1
100
AcDbVertex
100
AcDb2dVertex
62
5
10
138.500000
20
73.500000
0
SEQEND
5
56c
100
AcDbEntity
8
1
0
POLYLINE
5
56d
100
AcDbEntity
8
1
6
CONTINUOUS
62
5
100
AcDb2dPolyline
66
1
10
0.0
20
0.0
30
0.0
70
0
0
VERTEX
5
56e
100
AcDbEntity
8
1
100
AcDbVertex
100
AcDb2dVertex
62
5
10
140.750000
20
75.250000
0
VERTEX
5
56f
100
AcDbEntity
8
1
100
AcDbVertex
100
AcDb2dVertex
62
5
10
145.500000
20
75.250000
0
VERTEX
5
570
100
AcDbEntity
8
1
100
AcDbVertex
100
AcDb2dVertex
62
5
10
145.500000
20
74.000000
0
VERTEX
5
571
100
AcDbEntity
8
1
100
AcDbVertex
100
AcDb2dVertex
62
5
10
145.000000
20
72.250000
0
VERTEX
5
572
100
AcDbEntity
8
1
100
AcDbVertex
100
AcDb2dVertex
62
5
10
144.500000
20
71.500000
0
VERTEX
5
573
100
AcDbEntity
8
1
100
AcDbVertex
100
AcDb2dVertex
62
5
10
143.750000
20
71.500000
0
SEQEND
5
574
100
AcDbEntity
8
1
0
POLYLINE
5
575
100
AcDbEntity
8
1
6
CONTINUOUS
62
5
100
AcDb2dPolyline
66
1
10
0.0
20
0.0
30
0.0
70
0
0
VERTEX
5
576
100
AcDbEntity
8
1
100
AcDbVertex
100
AcDb2dVertex
62
5
10
143.500000
20
76.750000
0
VERTEX
5
577
100
AcDbEntity
8
1
100
AcDbVertex
100
AcDb2dVertex
62
5
10
143.000000
20
74.500000
0
VERTEX
5
578
100
AcDbEntity
8
1
100
AcDbVertex
100
AcDb2dVertex
62
5
10
142.750000
20
73.500000
0
VERTEX
5
579
100
AcDbEntity
8
1
100
AcDbVertex
100
AcDb2dVertex
62
5
10
142.250000
20
72.750000
0
VERTEX
5
57a
100
AcDbEntity
8
1
100
AcDbVertex
100
AcDb2dVertex
62
5
10
141.250000
20
71.750000
0
SEQEND
5
57b
100
AcDbEntity
8
1
0
LINE
5
57c
100
AcDbEntity
8
1
100
AcDbLine
6
CONTINUOUS
62
5
10
145.250000
20
76.750000
11
146.000000
21
76.000000
0
LINE
5
57d
100
AcDbEntity
8
1
100
AcDbLine
6
CONTINUOUS
62
5
10
146.000000
20
77.250000
11
146.750000
21
76.500000
0
POLYLINE
5
57e
100
AcDbEntity
8
1
6
CONTINUOUS
62
5
100
AcDb2dPolyline
66
1
10
0.0
20
0.0
30
0.0
70
0
0
VERTEX
5
57f
100
AcDbEntity
8
1
100
AcDbVertex
100
AcDb2dVertex
62
5
10
111.250000
20
74.750000
0
VERTEX
5
580
100
AcDbEntity
8
1
100
AcDbVertex
100
AcDb2dVertex
62
5
10
111.500000
20
74.750000
0
VERTEX
5
581
100
AcDbEntity
8
1
100
AcDbVertex
100
AcDb2dVertex
62
5
10
113.250000
20
73.750000
0
SEQEND
5
582
100
AcDbEntity
8
1
0
LINE
5
583
100
AcDbEntity
8
1
100
AcDbLine
6
CONTINUOUS
62
5
10
111.250000
20
77.000000
11
111.250000
21
71.000000
0
POLYLINE
5
584
100
AcDbEntity
8
1
6
CONTINUOUS
62
5
100
AcDb2dPolyline
66
1
10
0.0
20
0.0
30
0.0
70
0
0
VERTEX
5
585
100
AcDbEntity
8
1
100
AcDbVertex
100
AcDb2dVertex
62
5
10
119.500000
20
76.000000
0
VERTEX
5
586
100
AcDbEntity
8
1
100
AcDbVertex
100
AcDb2dVertex
62
5
10
120.000000
20
76.000000
0
VERTEX
5
587
100
AcDbEntity
8
1
100
AcDbVertex
100
AcDb2dVertex
62
5
10
120.000000
20
75.500000
0
VERTEX
5
588
100
AcDbEntity
8
1
100
AcDbVertex
100
AcDb2dVertex
62
5
10
119.500000
20
75.500000
0
VERTEX
5
589
100
AcDbEntity
8
1
100
AcDbVertex
100
AcDb2dVertex
62
5
10
119.500000
20
76.000000
0
VERTEX
5
58a
100
AcDbEntity
8
1
100
AcDbVertex
100
AcDb2dVertex
62
5
10
120.000000
20
75.500000
0
SEQEND
5
58b
100
AcDbEntity
8
1
0
LINE
5
58c
100
AcDbEntity
8
1
100
AcDbLine
6
CONTINUOUS
62
5
10
120.000000
20
76.000000
11
119.500000
21
75.500000
0
POLYLINE
5
58d
100
AcDbEntity
8
1
6
CONTINUOUS
62
5
100
AcDb2dPolyline
66
1
10
0.0
20
0.0
30
0.0
70
0
0
VERTEX
5
58e
100
AcDbEntity
8
1
100
AcDbVertex
100
AcDb2dVertex
62
5
10
119.500000
20
72.250000
0
VERTEX
5
58f
100
AcDbEntity
8
1
100
AcDbVertex
100
AcDb2dVertex
62
5
10
120.000000
20
72.250000
0
VERTEX
5
590
100
AcDbEntity
8
1
100
AcDbVertex
100
AcDb2dVertex
62
5
10
120.000000
20
71.750000
0
VERTEX
5
591
100
AcDbEntity
8
1
100
AcDbVertex
100
AcDb2dVertex
62
5
10
119.500000
20
71.750000
0
VERTEX
5
592
100
AcDbEntity
8
1
100
AcDbVertex
100
AcDb2dVertex
62
5
10
119.500000
20
72.250000
0
VERTEX
5
593
100
AcDbEntity
8
1
100
AcDbVertex
100
AcDb2dVertex
62
5
10
120.000000
20
71.750000
0
SEQEND
5
594
100
AcDbEntity
8
1
0
LINE
5
595
100
AcDbEntity
8
1
100
AcDbLine
6
CONTINUOUS
62
5
10
120.000000
20
72.250000
11
119.500000
21
71.750000
0
POLYLINE
5
596
100
AcDbEntity
8
1
6
CONTINUOUS
62
5
100
AcDb2dPolyline
66
1
10
0.0
20
0.0
30
0.0
70
0
0
VERTEX
5
597
100
AcDbEntity
8
1
100
AcDbVertex
100
AcDb2dVertex
62
5
10
94.250000
20
76.500000
0
VERTEX
5
598
100
AcDbEntity
8
1
100
AcDbVertex
100
AcDb2dVertex
62
5
10
94.250000
20
71.500000
0
VERTEX
5
599
100
AcDbEntity
8
1
100
AcDbVertex
100
AcDb2dVertex
62
5
10
94.750000
20
71.250000
0
VERTEX
5
59a
100
AcDbEntity
8
1
100
AcDbVertex
100
AcDb2dVertex
62
5
10
96.000000
20
71.750000
0
VERTEX
5
59b
100
AcDbEntity
8
1
100
AcDbVertex
100
AcDb2dVertex
62
5
10
97.250000
20
72.500000
0
VERTEX
5
59c
100
AcDbEntity
8
1
100
AcDbVertex
100
AcDb2dVertex
62
5
10
98.500000
20
73.500000
0
SEQEND
5
59d
100
AcDbEntity
8
1
0
POLYLINE
5
59e
100
AcDbEntity
8
1
6
CONTINUOUS
62
5
100
AcDb2dPolyline
66
1
10
0.0
20
0.0
30
0.0
70
0
0
VERTEX
5
59f
100
AcDbEntity
8
1
100
AcDbVertex
100
AcDb2dVertex
62
5
10
100.750000
20
74.250000
0
VERTEX
5
5a0
100
AcDbEntity
8
1
100
AcDbVertex
100
AcDb2dVertex
62
5
10
101.000000
20
74.000000
0
VERTEX
5
5a1
100
AcDbEntity
8
1
100
AcDbVertex
100
AcDb2dVertex
62
5
10
107.750000
20
74.000000
0
SEQEND
5
5a2
100
AcDbEntity
8
1
0
LINE
5
5a3
100
AcDbEntity
8
1
100
AcDbLine
6
CONTINUOUS
62
5
10
125.500000
20
75.500000
11
130.000000
21
75.500000
0
LINE
5
5a4
100
AcDbEntity
8
1
100
AcDbLine
6
CONTINUOUS
62
5
10
127.750000
20
75.500000
11
127.750000
21
71.500000
0
LINE
5
5a5
100
AcDbEntity
8
1
100
AcDbLine
6
CONTINUOUS
62
5
10
125.000000
20
71.500000
11
130.500000
21
71.500000
0
LINE
5
5a6
100
AcDbEntity
8
1
100
AcDbLine
6
CONTINUOUS
62
5
10
73.750000
20
75.250000
11
74.250000
21
76.500000
0
POLYLINE
5
5a7
100
AcDbEntity
8
1
6
CONTINUOUS
62
5
100
AcDb2dPolyline
66
1
10
0.0
20
0.0
30
0.0
70
0
0
VERTEX
5
5a8
100
AcDbEntity
8
1
100
AcDbVertex
100
AcDb2dVertex
62
5
10
71.500000
20
71.750000
0
VERTEX
5
5a9
100
AcDbEntity
8
1
100
AcDbVertex
100
AcDb2dVertex
62
5
10
74.000000
20
71.750000
0
VERTEX
5
5aa
100
AcDbEntity
8
1
100
AcDbVertex
100
AcDb2dVertex
62
5
10
74.000000
20
73.250000
0
VERTEX
5
5ab
100
AcDbEntity
8
1
100
AcDbVertex
100
AcDb2dVertex
62
5
10
71.500000
20
73.250000
0
SEQEND
5
5ac
100
AcDbEntity
8
1
0
LINE
5
5ad
100
AcDbEntity
8
1
100
AcDbLine
6
CONTINUOUS
62
5
10
68.750000
20
76.750000
11
69.500000
21
75.750000
0
POLYLINE
5
5ae
100
AcDbEntity
8
1
6
CONTINUOUS
62
5
100
AcDb2dPolyline
66
1
10
0.0
20
0.0
30
0.0
70
0
0
VERTEX
5
5af
100
AcDbEntity
8
1
100
AcDbVertex
100
AcDb2dVertex
62
5
10
68.250000
20
74.000000
0
VERTEX
5
5b0
100
AcDbEntity
8
1
100
AcDbVertex
100
AcDb2dVertex
62
5
10
69.750000
20
74.000000
0
VERTEX
5
5b1
100
AcDbEntity
8
1
100
AcDbVertex
100
AcDb2dVertex
62
5
10
69.750000
20
72.000000
0
VERTEX
5
5b2
100
AcDbEntity
8
1
100
AcDbVertex
100
AcDb2dVertex
62
5
10
69.000000
20
71.000000
0
VERTEX
5
5b3
100
AcDbEntity
8
1
100
AcDbVertex
100
AcDb2dVertex
62
5
10
68.250000
20
70.500000
0
SEQEND
5
5b4
100
AcDbEntity
8
1
0
POLYLINE
5
5b5
100
AcDbEntity
8
1
6
CONTINUOUS
62
5
100
AcDb2dPolyline
66
1
10
0.0
20
0.0
30
0.0
70
0
0
VERTEX
5
5b6
100
AcDbEntity
8
1
100
AcDbVertex
100
AcDb2dVertex
62
5
10
69.750000
20
72.000000
0
VERTEX
5
5b7
100
AcDbEntity
8
1
100
AcDbVertex
100
AcDb2dVertex
62
5
10
70.500000
20
71.000000
0
VERTEX
5
5b8
100
AcDbEntity
8
1
100
AcDbVertex
100
AcDb2dVertex
62
5
10
75.250000
20
70.500000
0
SEQEND
5
5b9
100
AcDbEntity
8
1
0
POLYLINE
5
5ba
100
AcDbEntity
8
1
6
CONTINUOUS
62
5
100
AcDb2dPolyline
66
1
10
0.0
20
0.0
30
0.0
70
0
0
VERTEX
5
5bb
100
AcDbEntity
8
1
100
AcDbVertex
100
AcDb2dVertex
62
5
10
70.500000
20
71.500000
0
VERTEX
5
5bc
100
AcDbEntity
8
1
100
AcDbVertex
100
AcDb2dVertex
62
5
10
70.500000
20
75.250000
0
VERTEX
5
5bd
100
AcDbEntity
8
1
100
AcDbVertex
100
AcDb2dVertex
62
5
10
75.000000
20
75.250000
0
VERTEX
5
5be
100
AcDbEntity
8
1
100
AcDbVertex
100
AcDb2dVertex
62
5
10
75.000000
20
71.250000
0
VERTEX
5
5bf
100
AcDbEntity
8
1
100
AcDbVertex
100
AcDb2dVertex
62
5
10
74.250000
20
71.500000
0
SEQEND
5
5c0
100
AcDbEntity
8
1
0
LINE
5
5c1
100
AcDbEntity
8
1
100
AcDbLine
6
CONTINUOUS
62
5
10
71.250000
20
74.250000
11
74.250000
21
74.250000
0
LINE
5
5c2
100
AcDbEntity
8
1
100
AcDbLine
6
CONTINUOUS
62
5
10
72.750000
20
74.750000
11
72.750000
21
73.250000
0
LINE
5
5c3
100
AcDbEntity
8
1
100
AcDbLine
6
CONTINUOUS
62
5
10
71.500000
20
73.250000
11
71.500000
21
71.750000
0
LINE
5
5c4
100
AcDbEntity
8
1
100
AcDbLine
6
CONTINUOUS
62
5
10
72.750000
20
77.500000
11
72.750000
21
76.500000
0
LINE
5
5c5
100
AcDbEntity
8
1
100
AcDbLine
6
CONTINUOUS
62
5
10
70.000000
20
76.500000
11
75.250000
21
76.500000
0
LINE
5
5c6
100
AcDbEntity
8
1
100
AcDbLine
6
CONTINUOUS
62
5
10
71.250000
20
76.500000
11
71.750000
21
75.250000
0
POLYLINE
5
5c7
100
AcDbEntity
8
1
6
CONTINUOUS
62
5
100
AcDb2dPolyline
66
1
10
0.0
20
0.0
30
0.0
70
0
0
VERTEX
5
5c8
100
AcDbEntity
8
1
100
AcDbVertex
100
AcDb2dVertex
62
5
10
76.250000
20
74.000000
0
VERTEX
5
5c9
100
AcDbEntity
8
1
100
AcDbVertex
100
AcDb2dVertex
62
5
10
78.000000
20
75.250000
0
VERTEX
5
5ca
100
AcDbEntity
8
1
100
AcDbVertex
100
AcDb2dVertex
62
5
10
79.750000
20
77.250000
0
VERTEX
5
5cb
100
AcDbEntity
8
1
100
AcDbVertex
100
AcDb2dVertex
62
5
10
81.500000
20
75.250000
0
VERTEX
5
5cc
100
AcDbEntity
8
1
100
AcDbVertex
100
AcDb2dVertex
62
5
10
83.250000
20
74.250000
0
SEQEND
5
5cd
100
AcDbEntity
8
1
0
LINE
5
5ce
100
AcDbEntity
8
1
100
AcDbLine
6
CONTINUOUS
62
5
10
78.250000
20
74.250000
11
81.250000
21
74.250000
0
POLYLINE
5
5cf
100
AcDbEntity
8
1
6
CONTINUOUS
62
5
100
AcDb2dPolyline
66
1
10
0.0
20
0.0
30
0.0
70
1
0
VERTEX
5
5d0
100
AcDbEntity
8
1
100
AcDbVertex
100
AcDb2dVertex
62
5
10
78.000000
20
73.000000
0
VERTEX
5
5d1
100
AcDbEntity
8
1
100
AcDbVertex
100
AcDb2dVertex
62
5
10
78.000000
20
70.500000
0
VERTEX
5
5d2
100
AcDbEntity
8
1
100
AcDbVertex
100
AcDb2dVertex
62
5
10
81.500000
20
70.500000
0
VERTEX
5
5d3
100
AcDbEntity
8
1
100
AcDbVertex
100
AcDb2dVertex
62
5
10
81.500000
20
73.000000
0
VERTEX
5
5d4
100
AcDbEntity
8
1
100
AcDbVertex
100
AcDb2dVertex
62
5
10
78.000000
20
73.000000
0
SEQEND
5
5d5
100
AcDbEntity
8
1
0
POLYLINE
5
5d6
100
AcDbEntity
8
1
6
CONTINUOUS
62
5
100
AcDb2dPolyline
66
1
10
0.0
20
0.0
30
0.0
70
0
0
VERTEX
5
5d7
100
AcDbEntity
8
1
100
AcDbVertex
100
AcDb2dVertex
62
5
10
85.000000
20
75.500000
0
VERTEX
5
5d8
100
AcDbEntity
8
1
100
AcDbVertex
100
AcDb2dVertex
62
5
10
89.250000
20
75.500000
0
VERTEX
5
5d9
100
AcDbEntity
8
1
100
AcDbVertex
100
AcDb2dVertex
62
5
10
89.250000
20
75.000000
0
VERTEX
5
5da
100
AcDbEntity
8
1
100
AcDbVertex
100
AcDb2dVertex
62
5
10
89.000000
20
74.250000
0
VERTEX
5
5db
100
AcDbEntity
8
1
100
AcDbVertex
100
AcDb2dVertex
62
5
10
88.500000
20
73.500000
0
VERTEX
5
5dc
100
AcDbEntity
8
1
100
AcDbVertex
100
AcDb2dVertex
62
5
10
87.750000
20
72.500000
0
VERTEX
5
5dd
100
AcDbEntity
8
1
100
AcDbVertex
100
AcDb2dVertex
62
5
10
87.000000
20
72.000000
0
VERTEX
5
5de
100
AcDbEntity
8
1
100
AcDbVertex
100
AcDb2dVertex
62
5
10
85.750000
20
71.250000
0
SEQEND
5
5df
100
AcDbEntity
8
1
0
POLYLINE
5
5e0
100
AcDbEntity
8
1
6
CONTINUOUS
62
5
100
AcDb2dPolyline
66
1
10
0.0
20
0.0
30
0.0
70
1
0
VERTEX
5
5e1
100
AcDbEntity
8
1
100
AcDbVertex
100
AcDb2dVertex
62
5
10
90.000000
20
76.750000
0
VERTEX
5
5e2
100
AcDbEntity
8
1
100
AcDbVertex
100
AcDb2dVertex
62
5
10
90.500000
20
76.750000
0
VERTEX
5
5e3
100
AcDbEntity
8
1
100
AcDbVertex
100
AcDb2dVertex
62
5
10
90.750000
20
76.500000
0
VERTEX
5
5e4
100
AcDbEntity
8
1
100
AcDbVertex
100
AcDb2dVertex
62
5
10
90.750000
20
76.000000
0
VERTEX
5
5e5
100
AcDbEntity
8
1
100
AcDbVertex
100
AcDb2dVertex
62
5
10
90.500000
20
75.750000
0
VERTEX
5
5e6
100
AcDbEntity
8
1
100
AcDbVertex
100
AcDb2dVertex
62
5
10
90.000000
20
75.750000
0
VERTEX
5
5e7
100
AcDbEntity
8
1
100
AcDbVertex
100
AcDb2dVertex
62
5
10
89.750000
20
76.000000
0
VERTEX
5
5e8
100
AcDbEntity
8
1
100
AcDbVertex
100
AcDb2dVertex
62
5
10
89.750000
20
76.500000
0
VERTEX
5
5e9
100
AcDbEntity
8
1
100
AcDbVertex
100
AcDb2dVertex
62
5
10
90.000000
20
76.750000
0
SEQEND
5
5ea
100
AcDbEntity
8
1
0
POLYLINE
5
5eb
100
AcDbEntity
8
1
6
CONTINUOUS
62
5
100
AcDb2dPolyline
66
1
10
0.0
20
0.0
30
0.0
70
0
0
VERTEX
5
5ec
100
AcDbEntity
8
1
100
AcDbVertex
100
AcDb2dVertex
62
5
10
165.500000
20
75.000000
0
VERTEX
5
5ed
100
AcDbEntity
8
1
100
AcDbVertex
100
AcDb2dVertex
62
5
10
170.250000
20
75.000000
0
VERTEX
5
5ee
100
AcDbEntity
8
1
100
AcDbVertex
100
AcDb2dVertex
62
5
10
170.250000
20
73.750000
0
VERTEX
5
5ef
100
AcDbEntity
8
1
100
AcDbVertex
100
AcDb2dVertex
62
5
10
170.000000
20
72.500000
0
VERTEX
5
5f0
100
AcDbEntity
8
1
100
AcDbVertex
100
AcDb2dVertex
62
5
10
169.250000
20
71.500000
0
VERTEX
5
5f1
100
AcDbEntity
8
1
100
AcDbVertex
100
AcDb2dVertex
62
5
10
168.500000
20
71.500000
0
SEQEND
5
5f2
100
AcDbEntity
8
1
0
POLYLINE
5
5f3
100
AcDbEntity
8
1
6
CONTINUOUS
62
5
100
AcDb2dPolyline
66
1
10
0.0
20
0.0
30
0.0
70
0
0
VERTEX
5
5f4
100
AcDbEntity
8
1
100
AcDbVertex
100
AcDb2dVertex
62
5
10
168.000000
20
76.500000
0
VERTEX
5
5f5
100
AcDbEntity
8
1
100
AcDbVertex
100
AcDb2dVertex
62
5
10
167.500000
20
73.500000
0
VERTEX
5
5f6
100
AcDbEntity
8
1
100
AcDbVertex
100
AcDb2dVertex
62
5
10
166.750000
20
72.500000
0
VERTEX
5
5f7
100
AcDbEntity
8
1
100
AcDbVertex
100
AcDb2dVertex
62
5
10
165.750000
20
71.500000
0
SEQEND
5
5f8
100
AcDbEntity
8
1
0
ARC
5
5f9
100
AcDbEntity
8
0
100
AcDbCircle
6
CONTINUOUS
62
5
10
174.000000
20
160.000000
40
4.000000
100
AcDbArc
50
102.998742
51
-102.998742
0
CIRCLE
5
5fa
100
AcDbEntity
8
0
100
AcDbCircle
6
CONTINUOUS
62
5
10
174.000000
20
152.000000
40
4.200000
0
CIRCLE
5
5fb
100
AcDbEntity
8
0
100
AcDbCircle
6
CONTINUOUS
62
5
10
174.000000
20
168.000000
40
4.200000
0
LINE
5
5fc
100
AcDbEntity
8
0
100
AcDbLine
6
CONTINUOUS
62
5
10
172.500000
20
114.601138
11
166.500000
21
114.601138
0
LINE
5
5fd
100
AcDbEntity
8
0
100
AcDbLine
6
CONTINUOUS
62
5
10
172.500000
20
114.000000
11
166.500000
21
114.000000
0
LINE
5
5fe
100
AcDbEntity
8
0
100
AcDbLine
6
CONTINUOUS
62
5
10
166.500000
20
114.086886
11
172.500000
21
114.086886
0
POLYLINE
5
5ff
100
AcDbEntity
8
0
6
CONTINUOUS
62
5
100
AcDb2dPolyline
66
1
10
0.0
20
0.0
30
0.0
70
0
0
VERTEX
5
600
100
AcDbEntity
8
0
100
AcDbVertex
100
AcDb2dVertex
62
5
10
166.500000
20
111.500000
0
VERTEX
5
601
100
AcDbEntity
8
0
100
AcDbVertex
100
AcDb2dVertex
62
5
10
166.500000
20
115.014251
0
VERTEX
5
602
100
AcDbEntity
8
0
100
AcDbVertex
100
AcDb2dVertex
62
5
10
172.500000
20
115.014251
0
VERTEX
5
603
100
AcDbEntity
8
0
100
AcDbVertex
100
AcDb2dVertex
62
5
10
172.500000
20
111.500000
0
SEQEND
5
604
100
AcDbEntity
8
0
0
ARC
5
605
100
AcDbEntity
8
0
100
AcDbCircle
6
CONTINUOUS
62
5
10
173.000000
20
115.500000
40
0.500000
100
AcDbArc
50
0.000000
51
89.999999
0
LINE
5
606
100
AcDbEntity
8
0
100
AcDbLine
6
CONTINUOUS
62
5
10
173.500000
20
115.500000
11
173.500000
21
112.000000
0
ARC
5
607
100
AcDbEntity
8
0
100
AcDbCircle
6
CONTINUOUS
62
5
10
173.000000
20
112.000000
40
0.500000
100
AcDbArc
50
-89.999999
51
0.000000
0
LINE
5
608
100
AcDbEntity
8
0
100
AcDbLine
6
CONTINUOUS
62
5
10
173.000000
20
111.500000
11
166.000000
21
111.500000
0
ARC
5
609
100
AcDbEntity
8
0
100
AcDbCircle
6
CONTINUOUS
62
5
10
166.000000
20
112.000000
40
0.500000
100
AcDbArc
50
179.999998
51
-89.999999
0
LINE
5
60a
100
AcDbEntity
8
0
100
AcDbLine
6
CONTINUOUS
62
5
10
165.500000
20
112.000000
11
165.500000
21
115.500000
0
ARC
5
60b
100
AcDbEntity
8
0
100
AcDbCircle
6
CONTINUOUS
62
5
10
166.000000
20
115.500000
40
0.500000
100
AcDbArc
50
89.999999
51
179.999998
0
LINE
5
60c
100
AcDbEntity
8
0
100
AcDbLine
6
CONTINUOUS
62
5
10
166.000000
20
116.000000
11
173.000000
21
116.000000
0
POLYLINE
5
60d
100
AcDbEntity
8
0
6
CONTINUOUS
62
5
100
AcDb2dPolyline
66
1
10
0.0
20
0.0
30
0.0
70
1
0
VERTEX
5
60e
100
AcDbEntity
8
0
100
AcDbVertex
100
AcDb2dVertex
62
5
10
170.000000
20
109.000000
0
VERTEX
5
60f
100
AcDbEntity
8
0
100
AcDbVertex
100
AcDb2dVertex
62
5
10
153.000000
20
109.000000
0
VERTEX
5
610
100
AcDbEntity
8
0
100
AcDbVertex
100
AcDb2dVertex
62
5
10
153.000000
20
104.000000
0
VERTEX
5
611
100
AcDbEntity
8
0
100
AcDbVertex
100
AcDb2dVertex
62
5
10
170.000000
20
104.000000
0
SEQEND
5
612
100
AcDbEntity
8
0
0
ARC
5
613
100
AcDbEntity
8
0
100
AcDbCircle
6
CONTINUOUS
62
5
10
168.500000
20
123.000000
40
2.250000
100
AcDbArc
50
89.999999
51
-89.999999
0
LINE
5
614
100
AcDbEntity
8
0
100
AcDbLine
6
CONTINUOUS
62
5
10
168.500000
20
120.750000
11
170.500000
21
120.750000
0
ARC
5
615
100
AcDbEntity
8
0
100
AcDbCircle
6
CONTINUOUS
62
5
10
170.500000
20
123.000000
40
2.250000
100
AcDbArc
50
-89.999999
51
89.999999
0
LINE
5
616
100
AcDbEntity
8
0
100
AcDbLine
6
CONTINUOUS
62
5
10
170.500000
20
125.250000
11
168.500000
21
125.250000
0
ARC
5
617
100
AcDbEntity
8
0
100
AcDbCircle
6
CONTINUOUS
62
5
10
168.500000
20
123.000000
40
2.750000
100
AcDbArc
50
89.999999
51
-89.999999
0
LINE
5
618
100
AcDbEntity
8
0
100
AcDbLine
6
CONTINUOUS
62
5
10
168.500000
20
125.750000
11
170.500000
21
125.750000
0
ARC
5
619
100
AcDbEntity
8
0
100
AcDbCircle
6
CONTINUOUS
62
5
10
170.500000
20
123.000000
40
2.750000
100
AcDbArc
50
-89.999999
51
89.999999
0
LINE
5
61a
100
AcDbEntity
8
0
100
AcDbLine
6
CONTINUOUS
62
5
10
170.500000
20
120.250000
11
168.500000
21
120.250000
0
ARC
5
61b
100
AcDbEntity
8
0
100
AcDbCircle
6
CONTINUOUS
62
5
10
170.500000
20
123.000000
40
4.000000
100
AcDbArc
50
-89.999999
51
89.999999
0
LINE
5
61c
100
AcDbEntity
8
0
100
AcDbLine
6
CONTINUOUS
62
5
10
170.500000
20
119.000000
11
168.500000
21
119.000000
0
ARC
5
61d
100
AcDbEntity
8
0
100
AcDbCircle
6
CONTINUOUS
62
5
10
168.500000
20
123.000000
40
4.000000
100
AcDbArc
50
89.999999
51
-89.999999
0
LINE
5
61e
100
AcDbEntity
8
0
100
AcDbLine
6
CONTINUOUS
62
5
10
168.500000
20
127.000000
11
170.500000
21
127.000000
0
ARC
5
61f
100
AcDbEntity
8
0
100
AcDbCircle
6
CONTINUOUS
62
5
10
87.111135
20
114.611135
40
0.500000
100
AcDbArc
50
179.999998
51
-89.999999
0
LINE
5
620
100
AcDbEntity
8
0
100
AcDbLine
6
CONTINUOUS
62
5
10
86.611135
20
114.611135
11
86.611135
21
117.111135
0
ARC
5
621
100
AcDbEntity
8
0
100
AcDbCircle
6
CONTINUOUS
62
5
10
86.111135
20
117.111135
40
0.500000
100
AcDbArc
50
0.000000
51
89.999999
0
LINE
5
622
100
AcDbEntity
8
0
100
AcDbLine
6
CONTINUOUS
62
5
10
86.111135
20
117.611135
11
69.500000
21
117.611135
0
LINE
5
623
100
AcDbEntity
8
0
100
AcDbLine
6
CONTINUOUS
62
5
10
178.500000
20
117.611135
11
161.888865
21
117.611135
0
ARC
5
624
100
AcDbEntity
8
0
100
AcDbCircle
6
CONTINUOUS
62
5
10
161.888865
20
117.111135
40
0.500000
100
AcDbArc
50
89.999999
51
179.999998
0
LINE
5
625
100
AcDbEntity
8
0
100
AcDbLine
6
CONTINUOUS
62
5
10
161.388865
20
117.111135
11
161.388865
21
114.611135
0
ARC
5
626
100
AcDbEntity
8
0
100
AcDbCircle
6
CONTINUOUS
62
5
10
160.888865
20
114.611135
40
0.500000
100
AcDbArc
50
-89.999999
51
0.000000
0
LINE
5
627
100
AcDbEntity
8
0
100
AcDbLine
6
CONTINUOUS
62
5
10
160.888865
20
114.111135
11
153.000000
21
114.111135
0
LINE
5
628
100
AcDbEntity
8
0
100
AcDbLine
6
CONTINUOUS
62
5
10
141.000000
20
114.111135
11
107.000000
21
114.111135
0
LINE
5
629
100
AcDbEntity
8
0
100
AcDbLine
6
CONTINUOUS
62
5
10
95.000000
20
114.111135
11
87.111135
21
114.111135
0
LINE
5
62a
100
AcDbEntity
8
1
100
AcDbLine
6
CONTINUOUS
62
5
10
71.523983
20
99.423983
11
38.423983
21
99.423983
0
LINE
5
62b
100
AcDbEntity
8
1
100
AcDbLine
6
CONTINUOUS
62
5
10
71.523983
20
220.576017
11
38.423983
21
220.576017
0
POLYLINE
5
62c
100
AcDbEntity
8
1
6
CONTINUOUS
62
5
100
AcDb2dPolyline
66
1
10
0.0
20
0.0
30
0.0
70
0
0
VERTEX
5
62d
100
AcDbEntity
8
1
100
AcDbVertex
100
AcDb2dVertex
62
5
10
40.423983
20
160.000000
0
VERTEX
5
62e
100
AcDbEntity
8
1
100
AcDbVertex
100
AcDb2dVertex
62
5
10
40.423983
20
99.423983
0
VERTEX
5
62f
100
AcDbEntity
8
1
100
AcDbVertex
100
AcDb2dVertex
62
5
10
39.423983
20
105.423983
0
VERTEX
5
630
100
AcDbEntity
8
1
100
AcDbVertex
100
AcDb2dVertex
62
5
10
41.423983
20
105.423983
0
VERTEX
5
631
100
AcDbEntity
8
1
100
AcDbVertex
100
AcDb2dVertex
62
5
10
40.423983
20
99.423983
0
VERTEX
5
632
100
AcDbEntity
8
1
100
AcDbVertex
100
AcDb2dVertex
62
5
10
39.923983
20
105.423983
0
VERTEX
5
633
100
AcDbEntity
8
1
100
AcDbVertex
100
AcDb2dVertex
62
5
10
40.923983
20
105.423983
0
VERTEX
5
634
100
AcDbEntity
8
1
100
AcDbVertex
100
AcDb2dVertex
62
5
10
40.423983
20
99.423983
0
SEQEND
5
635
100
AcDbEntity
8
1
0
POLYLINE
5
636
100
AcDbEntity
8
1
6
CONTINUOUS
62
5
100
AcDb2dPolyline
66
1
10
0.0
20
0.0
30
0.0
70
0
0
VERTEX
5
637
100
AcDbEntity
8
1
100
AcDbVertex
100
AcDb2dVertex
62
5
10
40.423983
20
160.000000
0
VERTEX
5
638
100
AcDbEntity
8
1
100
AcDbVertex
100
AcDb2dVertex
62
5
10
40.423983
20
220.576017
0
VERTEX
5
639
100
AcDbEntity
8
1
100
AcDbVertex
100
AcDb2dVertex
62
5
10
41.423983
20
214.576017
0
VERTEX
5
63a
100
AcDbEntity
8
1
100
AcDbVertex
100
AcDb2dVertex
62
5
10
39.423983
20
214.576017
0
VERTEX
5
63b
100
AcDbEntity
8
1
100
AcDbVertex
100
AcDb2dVertex
62
5
10
40.423983
20
220.576017
0
VERTEX
5
63c
100
AcDbEntity
8
1
100
AcDbVertex
100
AcDb2dVertex
62
5
10
40.923983
20
214.576017
0
VERTEX
5
63d
100
AcDbEntity
8
1
100
AcDbVertex
100
AcDb2dVertex
62
5
10
39.923983
20
214.576017
0
VERTEX
5
63e
100
AcDbEntity
8
1
100
AcDbVertex
100
AcDb2dVertex
62
5
10
40.423983
20
220.576017
0
SEQEND
5
63f
100
AcDbEntity
8
1
0
POLYLINE
5
640
100
AcDbEntity
8
1
6
DOT2
62
5
100
AcDb2dPolyline
66
1
10
0.0
20
0.0
30
0.0
70
0
0
VERTEX
5
641
100
AcDbEntity
8
1
100
AcDbVertex
100
AcDb2dVertex
62
5
10
330.000000
20
360.000000
0
VERTEX
5
642
100
AcDbEntity
8
1
100
AcDbVertex
100
AcDb2dVertex
62
5
10
340.000000
20
360.000000
0
VERTEX
5
643
100
AcDbEntity
8
1
100
AcDbVertex
100
AcDb2dVertex
62
5
10
340.000000
20
350.000000
0
SEQEND
5
644
100
AcDbEntity
8
1
0
POLYLINE
5
645
100
AcDbEntity
8
1
6
DOT2
62
5
100
AcDb2dPolyline
66
1
10
0.0
20
0.0
30
0.0
70
0
0
VERTEX
5
646
100
AcDbEntity
8
1
100
AcDbVertex
100
AcDb2dVertex
62
5
10
340.000000
20
10.000000
0
VERTEX
5
647
100
AcDbEntity
8
1
100
AcDbVertex
100
AcDb2dVertex
62
5
10
340.000000
20
0.000000
0
VERTEX
5
648
100
AcDbEntity
8
1
100
AcDbVertex
100
AcDb2dVertex
62
5
10
330.000000
20
0.000000
0
SEQEND
5
649
100
AcDbEntity
8
1
0
POLYLINE
5
64a
100
AcDbEntity
8
1
6
DOT2
62
5
100
AcDb2dPolyline
66
1
10
0.0
20
0.0
30
0.0
70
0
0
VERTEX
5
64b
100
AcDbEntity
8
1
100
AcDbVertex
100
AcDb2dVertex
62
5
10
10.000000
20
0.000000
0
VERTEX
5
64c
100
AcDbEntity
8
1
100
AcDbVertex
100
AcDb2dVertex
62
5
10
0.000000
20
0.000000
0
VERTEX
5
64d
100
AcDbEntity
8
1
100
AcDbVertex
100
AcDb2dVertex
62
5
10
-0.000000
20
10.000000
0
SEQEND
5
64e
100
AcDbEntity
8
1
0
POLYLINE
5
64f
100
AcDbEntity
8
1
6
DOT2
62
5
100
AcDb2dPolyline
66
1
10
0.0
20
0.0
30
0.0
70
0
0
VERTEX
5
650
100
AcDbEntity
8
1
100
AcDbVertex
100
AcDb2dVertex
62
5
10
-0.000000
20
350.000000
0
VERTEX
5
651
100
AcDbEntity
8
1
100
AcDbVertex
100
AcDb2dVertex
62
5
10
0.000000
20
360.000000
0
VERTEX
5
652
100
AcDbEntity
8
1
100
AcDbVertex
100
AcDb2dVertex
62
5
10
10.000000
20
360.000000
0
SEQEND
5
653
100
AcDbEntity
8
1
0
POLYLINE
5
654
100
AcDbEntity
8
0
6
CONTINUOUS
62
5
100
AcDb2dPolyline
66
1
10
0.0
20
0.0
30
0.0
70
1
0
VERTEX
5
655
100
AcDbEntity
8
0
100
AcDbVertex
100
AcDb2dVertex
62
5
10
241.576017
20
220.000000
0
VERTEX
5
656
100
AcDbEntity
8
0
100
AcDbVertex
100
AcDb2dVertex
62
5
10
241.576017
20
100.000000
0
VERTEX
5
657
100
AcDbEntity
8
0
100
AcDbVertex
100
AcDb2dVertex
62
5
10
274.576017
20
99.423983
0
VERTEX
5
658
100
AcDbEntity
8
0
100
AcDbVertex
100
AcDb2dVertex
62
5
10
274.576017
20
220.576017
0
SEQEND
5
659
100
AcDbEntity
8
0
0
ARC
5
65a
100
AcDbEntity
8
0
100
AcDbCircle
6
CONTINUOUS
62
5
10
173.076017
20
173.000000
40
1.000000
100
AcDbArc
50
-179.999998
51
-104.567156
0
LINE
5
65b
100
AcDbEntity
8
0
100
AcDbLine
6
CONTINUOUS
62
5
10
172.076017
20
173.000000
11
172.076017
21
191.000000
0
ARC
5
65c
100
AcDbEntity
8
0
100
AcDbCircle
6
CONTINUOUS
62
5
10
173.076017
20
191.000000
40
1.000000
100
AcDbArc
50
89.999999
51
179.999998
0
LINE
5
65d
100
AcDbEntity
8
0
100
AcDbLine
6
CONTINUOUS
62
5
10
173.076017
20
192.000000
11
178.500000
21
192.000000
0
ARC
5
65e
100
AcDbEntity
8
0
100
AcDbCircle
6
CONTINUOUS
62
5
10
147.000000
20
177.000000
40
8.500000
100
AcDbArc
50
7.604250
51
172.395748
0
LINE
5
65f
100
AcDbEntity
8
0
100
AcDbLine
6
CONTINUOUS
62
5
10
138.574751
20
178.124804
11
137.558205
21
178.050000
0
ARC
5
660
100
AcDbEntity
8
0
100
AcDbCircle
6
CONTINUOUS
62
5
10
147.000000
20
177.000000
40
9.500000
100
AcDbArc
50
6.345655
51
173.654343
0
LINE
5
661
100
AcDbEntity
8
0
100
AcDbLine
6
CONTINUOUS
62
5
10
156.441795
20
178.050000
11
155.425249
21
178.124804
0
ARC
5
662
100
AcDbEntity
8
0
100
AcDbCircle
6
CONTINUOUS
62
5
10
101.000000
20
177.000000
40
8.500000
100
AcDbArc
50
7.604250
51
172.395748
0
LINE
5
663
100
AcDbEntity
8
0
100
AcDbLine
6
CONTINUOUS
62
5
10
92.574751
20
178.124804
11
91.558205
21
178.050000
0
ARC
5
664
100
AcDbEntity
8
0
100
AcDbCircle
6
CONTINUOUS
62
5
10
101.000000
20
177.000000
40
9.500000
100
AcDbArc
50
6.345655
51
173.654343
0
LINE
5
665
100
AcDbEntity
8
0
100
AcDbLine
6
CONTINUOUS
62
5
10
110.441795
20
178.050000
11
109.425249
21
178.124804
0
ARC
5
666
100
AcDbEntity
8
0
100
AcDbCircle
6
CONTINUOUS
62
5
10
74.923983
20
173.000000
40
1.000000
100
AcDbArc
50
-75.432842
51
-0.000000
0
LINE
5
667
100
AcDbEntity
8
0
100
AcDbLine
6
CONTINUOUS
62
5
10
75.923983
20
173.000000
11
75.923983
21
191.000000
0
ARC
5
668
100
AcDbEntity
8
0
100
AcDbCircle
6
CONTINUOUS
62
5
10
74.923983
20
191.000000
40
1.000000
100
AcDbArc
50
0.000000
51
89.999999
0
LINE
5
669
100
AcDbEntity
8
0
100
AcDbLine
6
CONTINUOUS
62
5
10
74.923983
20
192.000000
11
69.500000
21
192.000000
0
ARC
5
66a
100
AcDbEntity
8
0
100
AcDbCircle
6
CONTINUOUS
62
5
10
164.000000
20
190.000000
40
3.000000
100
AcDbArc
50
0.000000
51
89.999999
0
POLYLINE
5
66b
100
AcDbEntity
8
0
6
CONTINUOUS
62
5
100
AcDb2dPolyline
66
1
10
0.0
20
0.0
30
0.0
70
0
0
VERTEX
5
66c
100
AcDbEntity
8
0
100
AcDbVertex
100
AcDb2dVertex
62
5
10
164.000000
20
193.000000
0
VERTEX
5
66d
100
AcDbEntity
8
0
100
AcDbVertex
100
AcDb2dVertex
62
5
10
163.200000
20
193.000000
0
VERTEX
5
66e
100
AcDbEntity
8
0
100
AcDbVertex
100
AcDb2dVertex
62
5
10
163.380000
20
192.000000
0
VERTEX
5
66f
100
AcDbEntity
8
0
100
AcDbVertex
100
AcDb2dVertex
62
5
10
164.000000
20
192.000000
0
SEQEND
5
670
100
AcDbEntity
8
0
0
ARC
5
671
100
AcDbEntity
8
0
100
AcDbCircle
6
CONTINUOUS
62
5
10
164.000000
20
190.000000
40
2.000000
100
AcDbArc
50
0.000000
51
89.999999
0
LINE
5
672
100
AcDbEntity
8
0
100
AcDbLine
6
CONTINUOUS
62
5
10
166.000000
20
190.000000
11
166.000000
21
130.000000
0
ARC
5
673
100
AcDbEntity
8
0
100
AcDbCircle
6
CONTINUOUS
62
5
10
164.000000
20
130.000000
40
2.000000
100
AcDbArc
50
-89.999999
51
0.000000
0
POLYLINE
5
674
100
AcDbEntity
8
0
6
CONTINUOUS
62
5
100
AcDb2dPolyline
66
1
10
0.0
20
0.0
30
0.0
70
0
0
VERTEX
5
675
100
AcDbEntity
8
0
100
AcDbVertex
100
AcDb2dVertex
62
5
10
164.000000
20
128.000000
0
VERTEX
5
676
100
AcDbEntity
8
0
100
AcDbVertex
100
AcDb2dVertex
62
5
10
163.380000
20
128.000000
0
VERTEX
5
677
100
AcDbEntity
8
0
100
AcDbVertex
100
AcDb2dVertex
62
5
10
163.200000
20
127.000000
0
VERTEX
5
678
100
AcDbEntity
8
0
100
AcDbVertex
100
AcDb2dVertex
62
5
10
164.000000
20
127.000000
0
SEQEND
5
679
100
AcDbEntity
8
0
0
ARC
5
67a
100
AcDbEntity
8
0
100
AcDbCircle
6
CONTINUOUS
62
5
10
164.000000
20
130.000000
40
3.000000
100
AcDbArc
50
-89.999999
51
0.000000
0
LINE
5
67b
100
AcDbEntity
8
0
100
AcDbLine
6
CONTINUOUS
62
5
10
167.000000
20
130.000000
11
167.000000
21
190.000000
0
ARC
5
67c
100
AcDbEntity
8
0
100
AcDbCircle
6
CONTINUOUS
62
5
10
118.000000
20
190.000000
40
3.000000
100
AcDbArc
50
0.000000
51
89.999999
0
POLYLINE
5
67d
100
AcDbEntity
8
0
6
CONTINUOUS
62
5
100
AcDb2dPolyline
66
1
10
0.0
20
0.0
30
0.0
70
0
0
VERTEX
5
67e
100
AcDbEntity
8
0
100
AcDbVertex
100
AcDb2dVertex
62
5
10
118.000000
20
193.000000
0
VERTEX
5
67f
100
AcDbEntity
8
0
100
AcDbVertex
100
AcDb2dVertex
62
5
10
117.200000
20
193.000000
0
VERTEX
5
680
100
AcDbEntity
8
0
100
AcDbVertex
100
AcDb2dVertex
62
5
10
117.380000
20
192.000000
0
VERTEX
5
681
100
AcDbEntity
8
0
100
AcDbVertex
100
AcDb2dVertex
62
5
10
118.000000
20
192.000000
0
SEQEND
5
682
100
AcDbEntity
8
0
0
ARC
5
683
100
AcDbEntity
8
0
100
AcDbCircle
6
CONTINUOUS
62
5
10
118.000000
20
190.000000
40
2.000000
100
AcDbArc
50
0.000000
51
89.999999
0
LINE
5
684
100
AcDbEntity
8
0
100
AcDbLine
6
CONTINUOUS
62
5
10
120.000000
20
190.000000
11
120.000000
21
130.000000
0
ARC
5
685
100
AcDbEntity
8
0
100
AcDbCircle
6
CONTINUOUS
62
5
10
118.000000
20
130.000000
40
2.000000
100
AcDbArc
50
-89.999999
51
0.000000
0
POLYLINE
5
686
100
AcDbEntity
8
0
6
CONTINUOUS
62
5
100
AcDb2dPolyline
66
1
10
0.0
20
0.0
30
0.0
70
0
0
VERTEX
5
687
100
AcDbEntity
8
0
100
AcDbVertex
100
AcDb2dVertex
62
5
10
118.000000
20
128.000000
0
VERTEX
5
688
100
AcDbEntity
8
0
100
AcDbVertex
100
AcDb2dVertex
62
5
10
117.380000
20
128.000000
0
VERTEX
5
689
100
AcDbEntity
8
0
100
AcDbVertex
100
AcDb2dVertex
62
5
10
117.200000
20
127.000000
0
VERTEX
5
68a
100
AcDbEntity
8
0
100
AcDbVertex
100
AcDb2dVertex
62
5
10
118.000000
20
127.000000
0
SEQEND
5
68b
100
AcDbEntity
8
0
0
ARC
5
68c
100
AcDbEntity
8
0
100
AcDbCircle
6
CONTINUOUS
62
5
10
118.000000
20
130.000000
40
3.000000
100
AcDbArc
50
-89.999999
51
0.000000
0
LINE
5
68d
100
AcDbEntity
8
0
100
AcDbLine
6
CONTINUOUS
62
5
10
121.000000
20
130.000000
11
121.000000
21
190.000000
0
ARC
5
68e
100
AcDbEntity
8
0
100
AcDbCircle
6
CONTINUOUS
62
5
10
130.000000
20
190.000000
40
3.000000
100
AcDbArc
50
89.999999
51
179.999998
0
POLYLINE
5
68f
100
AcDbEntity
8
0
6
CONTINUOUS
62
5
100
AcDb2dPolyline
66
1
10
0.0
20
0.0
30
0.0
70
0
0
VERTEX
5
690
100
AcDbEntity
8
0
100
AcDbVertex
100
AcDb2dVertex
62
5
10
130.000000
20
193.000000
0
VERTEX
5
691
100
AcDbEntity
8
0
100
AcDbVertex
100
AcDb2dVertex
62
5
10
130.800000
20
193.000000
0
VERTEX
5
692
100
AcDbEntity
8
0
100
AcDbVertex
100
AcDb2dVertex
62
5
10
130.620000
20
192.000000
0
VERTEX
5
693
100
AcDbEntity
8
0
100
AcDbVertex
100
AcDb2dVertex
62
5
10
130.000000
20
192.000000
0
SEQEND
5
694
100
AcDbEntity
8
0
0
ARC
5
695
100
AcDbEntity
8
0
100
AcDbCircle
6
CONTINUOUS
62
5
10
130.000000
20
190.000000
40
2.000000
100
AcDbArc
50
89.999999
51
179.999998
0
LINE
5
696
100
AcDbEntity
8
0
100
AcDbLine
6
CONTINUOUS
62
5
10
128.000000
20
190.000000
11
128.000000
21
130.000000
0
ARC
5
697
100
AcDbEntity
8
0
100
AcDbCircle
6
CONTINUOUS
62
5
10
130.000000
20
130.000000
40
2.000000
100
AcDbArc
50
179.999998
51
-89.999999
0
POLYLINE
5
698
100
AcDbEntity
8
0
6
CONTINUOUS
62
5
100
AcDb2dPolyline
66
1
10
0.0
20
0.0
30
0.0
70
0
0
VERTEX
5
699
100
AcDbEntity
8
0
100
AcDbVertex
100
AcDb2dVertex
62
5
10
130.000000
20
128.000000
0
VERTEX
5
69a
100
AcDbEntity
8
0
100
AcDbVertex
100
AcDb2dVertex
62
5
10
130.620000
20
128.000000
0
VERTEX
5
69b
100
AcDbEntity
8
0
100
AcDbVertex
100
AcDb2dVertex
62
5
10
130.800000
20
127.000000
0
VERTEX
5
69c
100
AcDbEntity
8
0
100
AcDbVertex
100
AcDb2dVertex
62
5
10
130.000000
20
127.000000
0
SEQEND
5
69d
100
AcDbEntity
8
0
0
ARC
5
69e
100
AcDbEntity
8
0
100
AcDbCircle
6
CONTINUOUS
62
5
10
130.000000
20
130.000000
40
3.000000
100
AcDbArc
50
179.999998
51
-89.999999
0
LINE
5
69f
100
AcDbEntity
8
0
100
AcDbLine
6
CONTINUOUS
62
5
10
127.000000
20
130.000000
11
127.000000
21
190.000000
0
ARC
5
6a0
100
AcDbEntity
8
0
100
AcDbCircle
6
CONTINUOUS
62
5
10
116.000000
20
132.000000
40
1.000000
100
AcDbArc
50
-89.999999
51
0.000000
0
LINE
5
6a1
100
AcDbEntity
8
0
100
AcDbLine
6
CONTINUOUS
62
5
10
117.000000
20
132.000000
11
117.000000
21
188.000000
0
ARC
5
6a2
100
AcDbEntity
8
0
100
AcDbCircle
6
CONTINUOUS
62
5
10
116.000000
20
188.000000
40
1.000000
100
AcDbArc
50
0.000000
51
89.999999
0
LINE
5
6a3
100
AcDbEntity
8
0
100
AcDbLine
6
CONTINUOUS
62
5
10
116.000000
20
189.000000
11
86.000000
21
189.000000
0
ARC
5
6a4
100
AcDbEntity
8
0
100
AcDbCircle
6
CONTINUOUS
62
5
10
86.000000
20
188.000000
40
1.000000
100
AcDbArc
50
89.999999
51
179.999998
0
LINE
5
6a5
100
AcDbEntity
8
0
100
AcDbLine
6
CONTINUOUS
62
5
10
85.000000
20
188.000000
11
85.000000
21
132.000000
0
ARC
5
6a6
100
AcDbEntity
8
0
100
AcDbCircle
6
CONTINUOUS
62
5
10
86.000000
20
132.000000
40
1.000000
100
AcDbArc
50
179.999998
51
-89.999999
0
LINE
5
6a7
100
AcDbEntity
8
0
100
AcDbLine
6
CONTINUOUS
62
5
10
86.000000
20
131.000000
11
116.000000
21
131.000000
0
ARC
5
6a8
100
AcDbEntity
8
0
100
AcDbCircle
6
CONTINUOUS
62
5
10
84.000000
20
190.000000
40
3.000000
100
AcDbArc
50
89.999999
51
179.999998
0
POLYLINE
5
6a9
100
AcDbEntity
8
0
6
CONTINUOUS
62
5
100
AcDb2dPolyline
66
1
10
0.0
20
0.0
30
0.0
70
0
0
VERTEX
5
6aa
100
AcDbEntity
8
0
100
AcDbVertex
100
AcDb2dVertex
62
5
10
84.000000
20
193.000000
0
VERTEX
5
6ab
100
AcDbEntity
8
0
100
AcDbVertex
100
AcDb2dVertex
62
5
10
84.800000
20
193.000000
0
VERTEX
5
6ac
100
AcDbEntity
8
0
100
AcDbVertex
100
AcDb2dVertex
62
5
10
84.620000
20
192.000000
0
VERTEX
5
6ad
100
AcDbEntity
8
0
100
AcDbVertex
100
AcDb2dVertex
62
5
10
84.000000
20
192.000000
0
SEQEND
5
6ae
100
AcDbEntity
8
0
0
ARC
5
6af
100
AcDbEntity
8
0
100
AcDbCircle
6
CONTINUOUS
62
5
10
84.000000
20
190.000000
40
2.000000
100
AcDbArc
50
89.999999
51
179.999998
0
LINE
5
6b0
100
AcDbEntity
8
0
100
AcDbLine
6
CONTINUOUS
62
5
10
82.000000
20
190.000000
11
82.000000
21
130.000000
0
ARC
5
6b1
100
AcDbEntity
8
0
100
AcDbCircle
6
CONTINUOUS
62
5
10
84.000000
20
130.000000
40
2.000000
100
AcDbArc
50
179.999998
51
-89.999999
0
POLYLINE
5
6b2
100
AcDbEntity
8
0
6
CONTINUOUS
62
5
100
AcDb2dPolyline
66
1
10
0.0
20
0.0
30
0.0
70
0
0
VERTEX
5
6b3
100
AcDbEntity
8
0
100
AcDbVertex
100
AcDb2dVertex
62
5
10
84.000000
20
128.000000
0
VERTEX
5
6b4
100
AcDbEntity
8
0
100
AcDbVertex
100
AcDb2dVertex
62
5
10
84.620000
20
128.000000
0
VERTEX
5
6b5
100
AcDbEntity
8
0
100
AcDbVertex
100
AcDb2dVertex
62
5
10
84.800000
20
127.000000
0
VERTEX
5
6b6
100
AcDbEntity
8
0
100
AcDbVertex
100
AcDb2dVertex
62
5
10
84.000000
20
127.000000
0
SEQEND
5
6b7
100
AcDbEntity
8
0
0
ARC
5
6b8
100
AcDbEntity
8
0
100
AcDbCircle
6
CONTINUOUS
62
5
10
84.000000
20
130.000000
40
3.000000
100
AcDbArc
50
179.999998
51
-89.999999
0
LINE
5
6b9
100
AcDbEntity
8
0
100
AcDbLine
6
CONTINUOUS
62
5
10
81.000000
20
130.000000
11
81.000000
21
190.000000
0
ARC
5
6ba
100
AcDbEntity
8
0
100
AcDbCircle
6
CONTINUOUS
62
5
10
162.000000
20
132.000000
40
1.000000
100
AcDbArc
50
-89.999999
51
0.000000
0
LINE
5
6bb
100
AcDbEntity
8
0
100
AcDbLine
6
CONTINUOUS
62
5
10
163.000000
20
132.000000
11
163.000000
21
188.000000
0
ARC
5
6bc
100
AcDbEntity
8
0
100
AcDbCircle
6
CONTINUOUS
62
5
10
162.000000
20
188.000000
40
1.000000
100
AcDbArc
50
0.000000
51
89.999999
0
LINE
5
6bd
100
AcDbEntity
8
0
100
AcDbLine
6
CONTINUOUS
62
5
10
162.000000
20
189.000000
11
132.000000
21
189.000000
0
ARC
5
6be
100
AcDbEntity
8
0
100
AcDbCircle
6
CONTINUOUS
62
5
10
132.000000
20
188.000000
40
1.000000
100
AcDbArc
50
89.999999
51
179.999998
0
LINE
5
6bf
100
AcDbEntity
8
0
100
AcDbLine
6
CONTINUOUS
62
5
10
131.000000
20
188.000000
11
131.000000
21
132.000000
0
ARC
5
6c0
100
AcDbEntity
8
0
100
AcDbCircle
6
CONTINUOUS
62
5
10
132.000000
20
132.000000
40
1.000000
100
AcDbArc
50
179.999998
51
-89.999999
0
LINE
5
6c1
100
AcDbEntity
8
0
100
AcDbLine
6
CONTINUOUS
62
5
10
132.000000
20
131.000000
11
162.000000
21
131.000000
0
ARC
5
6c2
100
AcDbEntity
8
0
100
AcDbCircle
6
CONTINUOUS
62
5
10
162.500000
20
116.500000
40
0.500000
100
AcDbArc
50
89.999999
51
179.999998
0
LINE
5
6c3
100
AcDbEntity
8
0
100
AcDbLine
6
CONTINUOUS
62
5
10
162.000000
20
116.500000
11
162.000000
21
114.000000
0
ARC
5
6c4
100
AcDbEntity
8
0
100
AcDbCircle
6
CONTINUOUS
62
5
10
161.500000
20
114.000000
40
0.500000
100
AcDbArc
50
-89.999999
51
0.000000
0
POLYLINE
5
6c5
100
AcDbEntity
8
0
6
CONTINUOUS
62
5
100
AcDb2dPolyline
66
1
10
0.0
20
0.0
30
0.0
70
0
0
VERTEX
5
6c6
100
AcDbEntity
8
0
100
AcDbVertex
100
AcDb2dVertex
62
5
10
161.500000
20
113.500000
0
VERTEX
5
6c7
100
AcDbEntity
8
0
100
AcDbVertex
100
AcDb2dVertex
62
5
10
125.250000
20
113.500000
0
VERTEX
5
6c8
100
AcDbEntity
8
0
100
AcDbVertex
100
AcDb2dVertex
62
5
10
125.250000
20
112.500000
0
VERTEX
5
6c9
100
AcDbEntity
8
0
100
AcDbVertex
100
AcDb2dVertex
62
5
10
122.750000
20
112.500000
0
VERTEX
5
6ca
100
AcDbEntity
8
0
100
AcDbVertex
100
AcDb2dVertex
62
5
10
122.750000
20
113.500000
0
VERTEX
5
6cb
100
AcDbEntity
8
0
100
AcDbVertex
100
AcDb2dVertex
62
5
10
86.500000
20
113.500000
0
SEQEND
5
6cc
100
AcDbEntity
8
0
0
ARC
5
6cd
100
AcDbEntity
8
0
100
AcDbCircle
6
CONTINUOUS
62
5
10
86.500000
20
114.000000
40
0.500000
100
AcDbArc
50
179.999998
51
-89.999999
0
LINE
5
6ce
100
AcDbEntity
8
0
100
AcDbLine
6
CONTINUOUS
62
5
10
86.000000
20
114.000000
11
86.000000
21
116.500000
0
ARC
5
6cf
100
AcDbEntity
8
0
100
AcDbCircle
6
CONTINUOUS
62
5
10
85.500000
20
116.500000
40
0.500000
100
AcDbArc
50
0.000000
51
89.999999
0
POLYLINE
5
6d0
100
AcDbEntity
8
0
6
CONTINUOUS
62
5
100
AcDb2dPolyline
66
1
10
0.0
20
0.0
30
0.0
70
0
0
VERTEX
5
6d1
100
AcDbEntity
8
0
100
AcDbVertex
100
AcDb2dVertex
62
5
10
85.500000
20
117.000000
0
VERTEX
5
6d2
100
AcDbEntity
8
0
100
AcDbVertex
100
AcDb2dVertex
62
5
10
69.500000
20
117.000000
0
VERTEX
5
6d3
100
AcDbEntity
8
0
100
AcDbVertex
100
AcDb2dVertex
62
5
10
69.500000
20
203.000000
0
VERTEX
5
6d4
100
AcDbEntity
8
0
100
AcDbVertex
100
AcDb2dVertex
62
5
10
85.500000
20
203.000000
0
SEQEND
5
6d5
100
AcDbEntity
8
0
0
ARC
5
6d6
100
AcDbEntity
8
0
100
AcDbCircle
6
CONTINUOUS
62
5
10
85.500000
20
203.500000
40
0.500000
100
AcDbArc
50
-89.999999
51
0.000000
0
LINE
5
6d7
100
AcDbEntity
8
0
100
AcDbLine
6
CONTINUOUS
62
5
10
86.000000
20
203.500000
11
86.000000
21
206.000000
0
ARC
5
6d8
100
AcDbEntity
8
0
100
AcDbCircle
6
CONTINUOUS
62
5
10
86.500000
20
206.000000
40
0.500000
100
AcDbArc
50
89.999999
51
179.999998
0
POLYLINE
5
6d9
100
AcDbEntity
8
0
6
CONTINUOUS
62
5
100
AcDb2dPolyline
66
1
10
0.0
20
0.0
30
0.0
70
0
0
VERTEX
5
6da
100
AcDbEntity
8
0
100
AcDbVertex
100
AcDb2dVertex
62
5
10
86.500000
20
206.500000
0
VERTEX
5
6db
100
AcDbEntity
8
0
100
AcDbVertex
100
AcDb2dVertex
62
5
10
122.750000
20
206.500000
0
VERTEX
5
6dc
100
AcDbEntity
8
0
100
AcDbVertex
100
AcDb2dVertex
62
5
10
122.750000
20
207.500000
0
VERTEX
5
6dd
100
AcDbEntity
8
0
100
AcDbVertex
100
AcDb2dVertex
62
5
10
125.250000
20
207.500000
0
VERTEX
5
6de
100
AcDbEntity
8
0
100
AcDbVertex
100
AcDb2dVertex
62
5
10
125.250000
20
206.500000
0
VERTEX
5
6df
100
AcDbEntity
8
0
100
AcDbVertex
100
AcDb2dVertex
62
5
10
161.500000
20
206.500000
0
SEQEND
5
6e0
100
AcDbEntity
8
0
0
ARC
5
6e1
100
AcDbEntity
8
0
100
AcDbCircle
6
CONTINUOUS
62
5
10
161.500000
20
206.000000
40
0.500000
100
AcDbArc
50
0.000000
51
89.999999
0
LINE
5
6e2
100
AcDbEntity
8
0
100
AcDbLine
6
CONTINUOUS
62
5
10
162.000000
20
206.000000
11
162.000000
21
203.500000
0
ARC
5
6e3
100
AcDbEntity
8
0
100
AcDbCircle
6
CONTINUOUS
62
5
10
162.500000
20
203.500000
40
0.500000
100
AcDbArc
50
179.999998
51
-89.999999
0
POLYLINE
5
6e4
100
AcDbEntity
8
0
6
CONTINUOUS
62
5
100
AcDb2dPolyline
66
1
10
0.0
20
0.0
30
0.0
70
0
0
VERTEX
5
6e5
100
AcDbEntity
8
0
100
AcDbVertex
100
AcDb2dVertex
62
5
10
162.500000
20
203.000000
0
VERTEX
5
6e6
100
AcDbEntity
8
0
100
AcDbVertex
100
AcDb2dVertex
62
5
10
178.500000
20
203.000000
0
VERTEX
5
6e7
100
AcDbEntity
8
0
100
AcDbVertex
100
AcDb2dVertex
62
5
10
178.500000
20
117.000000
0
VERTEX
5
6e8
100
AcDbEntity
8
0
100
AcDbVertex
100
AcDb2dVertex
62
5
10
162.500000
20
117.000000
0
SEQEND
5
6e9
100
AcDbEntity
8
0
0
ARC
5
6ea
100
AcDbEntity
8
1
100
AcDbCircle
6
CONTINUOUS
62
5
10
73.023983
20
212.976017
40
7.600000
100
AcDbArc
50
89.999999
51
179.999998
0
LINE
5
6eb
100
AcDbEntity
8
1
100
AcDbLine
6
CONTINUOUS
62
5
10
65.423983
20
212.976017
11
65.423983
21
107.023983
0
ARC
5
6ec
100
AcDbEntity
8
1
100
AcDbCircle
6
CONTINUOUS
62
5
10
73.023983
20
107.023983
40
7.600000
100
AcDbArc
50
179.999998
51
-89.999999
0
LINE
5
6ed
100
AcDbEntity
8
1
100
AcDbLine
6
CONTINUOUS
62
5
10
73.023983
20
99.423983
11
174.976017
21
99.423983
0
ARC
5
6ee
100
AcDbEntity
8
1
100
AcDbCircle
6
CONTINUOUS
62
5
10
174.976017
20
107.023983
40
7.600000
100
AcDbArc
50
-89.999999
51
0.000000
0
LINE
5
6ef
100
AcDbEntity
8
1
100
AcDbLine
6
CONTINUOUS
62
5
10
182.576017
20
107.023983
11
182.576017
21
212.976017
0
ARC
5
6f0
100
AcDbEntity
8
1
100
AcDbCircle
6
CONTINUOUS
62
5
10
174.976017
20
212.976017
40
7.600000
100
AcDbArc
50
0.000000
51
89.999999
0
LINE
5
6f1
100
AcDbEntity
8
1
100
AcDbLine
6
CONTINUOUS
62
5
10
174.976017
20
220.576017
11
73.023983
21
220.576017
0
ARC
5
6f2
100
AcDbEntity
8
1
100
AcDbCircle
6
CONTINUOUS
62
5
10
175.000000
20
107.000000
40
7.000000
100
AcDbArc
50
-89.999999
51
0.000000
0
LINE
5
6f3
100
AcDbEntity
8
1
100
AcDbLine
6
CONTINUOUS
62
5
10
182.000000
20
107.000000
11
182.000000
21
213.000000
0
ARC
5
6f4
100
AcDbEntity
8
1
100
AcDbCircle
6
CONTINUOUS
62
5
10
175.000000
20
213.000000
40
7.000000
100
AcDbArc
50
0.000000
51
89.999999
0
LINE
5
6f5
100
AcDbEntity
8
1
100
AcDbLine
6
CONTINUOUS
62
5
10
175.000000
20
220.000000
11
73.000000
21
220.000000
0
ARC
5
6f6
100
AcDbEntity
8
1
100
AcDbCircle
6
CONTINUOUS
62
5
10
73.000000
20
213.000000
40
7.000000
100
AcDbArc
50
89.999999
51
179.999998
0
LINE
5
6f7
100
AcDbEntity
8
1
100
AcDbLine
6
CONTINUOUS
62
5
10
66.000000
20
213.000000
11
66.000000
21
107.000000
0
ARC
5
6f8
100
AcDbEntity
8
1
100
AcDbCircle
6
CONTINUOUS
62
5
10
73.000000
20
107.000000
40
7.000000
100
AcDbArc
50
179.999998
51
-89.999999
0
LINE
5
6f9
100
AcDbEntity
8
1
100
AcDbLine
6
CONTINUOUS
62
5
10
73.000000
20
100.000000
11
175.000000
21
100.000000
0
POLYLINE
5
6fa
100
AcDbEntity
8
1
6
CONTINUOUS
62
5
100
AcDb2dPolyline
66
1
10
0.0
20
0.0
30
0.0
70
1
0
VERTEX
5
6fb
100
AcDbEntity
8
1
100
AcDbVertex
100
AcDb2dVertex
62
5
10
10.000000
20
10.000000
0
VERTEX
5
6fc
100
AcDbEntity
8
1
100
AcDbVertex
100
AcDb2dVertex
62
5
10
10.000000
20
350.000000
0
VERTEX
5
6fd
100
AcDbEntity
8
1
100
AcDbVertex
100
AcDb2dVertex
62
5
10
330.000000
20
350.000000
0
VERTEX
5
6fe
100
AcDbEntity
8
1
100
AcDbVertex
100
AcDb2dVertex
62
5
10
330.000000
20
10.000000
0
VERTEX
5
6ff
100
AcDbEntity
8
1
100
AcDbVertex
100
AcDb2dVertex
62
5
10
10.000000
20
10.000000
0
SEQEND
5
700
100
AcDbEntity
8
1
0
ENDSEC
0
SECTION
2
OBJECTS
0
DICTIONARY
5
701
100
AcDbDictionary
3
ACAD_GROUP
350
702
3
ACAD_MLINESTYLE
350
703
0
DICTIONARY
5
702
102
{ACAD_REACTORS
330
701
102
}
100
AcDbDictionary
0
DICTIONARY
5
703
102
{ACAD_REACTORS
330
701
102
}
100
AcDbDictionary
3
STANDARD
350
704
0
MLINESTYLE
5
704
102
{ACAD_REACTORS
330
703
102
}
100
AcDbMlineStyle
2
STANDARD
70
0
3

62
0
51
90.0
52
90.0
71
2
49
0.5
62
256
6
BYLAYER
49
-0.5
62
256
6
BYLAYER
0
ENDSEC
0
EOF
