0
SECTION
2
HEADER
9
$ACADVER
1
AC1012
9
$EXTMIN
10
-0.403701
20
-0.010000
30
0.0
9
$EXTMAX
10
12.996299
20
14.180000
30
0.0
9
$LIMMIN
10
-10.254005
20
-0.254000
9
$LIMMAX
10
330.105995
20
360.172000
9
$DIMSCALE
40
1.000000
9
$PDMODE
70
2
9
$PDSIZE
40
0.0
  9
$HANDSEED
  5
712
0
ENDSEC
0
SECTION
2
CLASSES
0
ENDSEC
0
SECTION
2
TABLES
0
TABLE
2
LTYPE
5
1e
100
AcDbSymbolTable
70
12
0
LTYPE
5
1f
100
AcDbSymbolTableRecord
100
AcDbLinetypeTableRecord
2
BYBLOCK
70
0
3

72
65
73
0
40
0.0
0
LTYPE
5
20
100
AcDbSymbolTableRecord
100
AcDbLinetypeTableRecord
2
BYLAYER
70
0
3

72
65
73
0
40
0.0
0
LTYPE
5
21
100
AcDbSymbolTableRecord
100
AcDbLinetypeTableRecord
2
CONTINUOUS
70
64
3
Solid line
72
65
73
0
40
0.0
0
LTYPE
5
22
100
AcDbSymbolTableRecord
100
AcDbLinetypeTableRecord
2
DASHED
70
64
3
__ __ __ __ __ __ __ __ __ __ __ __ __ __ __
72
65
73
2
40
0.75
49
0.5
74
0
49
-0.25
74
0
0
LTYPE
5
23
100
AcDbSymbolTableRecord
100
AcDbLinetypeTableRecord
2
DOT
70
64
3
...............................................
72
65
73
2
40
0.25
49
0.0
74
0
49
-0.25
74
0
0
LTYPE
5
24
100
AcDbSymbolTableRecord
100
AcDbLinetypeTableRecord
2
DASHDOT
70
64
3
__ . __ . __ . __ . __ . __ . __ . __ . __ . --
72
65
73
4
40
1.0
49
0.5
74
0
49
-0.25
74
0
49
0.0
74
0
49
-0.25
74
0
0
LTYPE
5
25
100
AcDbSymbolTableRecord
100
AcDbLinetypeTableRecord
2
CENTER
70
64
3
____ _ ____ _ ____ _ ____ _ ____ _ ____ _ ____
72
65
73
4
40
2.0
49
1.25
74
0
49
-0.25
74
0
49
0.25
74
0
49
-0.25
74
0
0
LTYPE
5
26
100
AcDbSymbolTableRecord
100
AcDbLinetypeTableRecord
2
PHANTOM
70
64
3
_____ _ _ _____ _ _ _____ _ _ _____ _ _ ____
72
65
73
6
40
2.5
49
1.25
74
0
49
-0.25
74
0
49
0.25
74
0
49
-0.25
74
0
49
0.25
74
0
49
-0.25
74
0
0
LTYPE
5
27
100
AcDbSymbolTableRecord
100
AcDbLinetypeTableRecord
2
HIDDEN
70
64
3
_ _ _ _ _ _ _ _ _ _ _ _ _ _ _ _ _ _ _ _ _ _ _
72
65
73
2
40
0.375
49
0.25
74
0
49
-0.125
74
0
0
LTYPE
5
28
100
AcDbSymbolTableRecord
100
AcDbLinetypeTableRecord
2
BORDER
70
64
3
__ __ . __ __ . __ __ . __ __ . __ __ . __ __
72
65
73
6
40
1.75
49
0.5
74
0
49
-0.25
74
0
49
0.5
74
0
49
-0.25
74
0
49
0.0
74
0
49
-0.25
74
0
0
LTYPE
5
29
100
AcDbSymbolTableRecord
100
AcDbLinetypeTableRecord
2
DIVIDE
70
64
3
__ . . __ . . __ . . __ . . __ . . __ . . __
72
65
73
6
40
1.25
49
0.5
74
0
49
-0.25
74
0
49
0.0
74
0
49
-0.25
74
0
49
0.0
74
0
49
-0.25
74
0
0
LTYPE
5
2a
100
AcDbSymbolTableRecord
100
AcDbLinetypeTableRecord
2
DOT2
70
64
3
...............................................
72
65
73
2
40
0.125
49
0.0
74
0
49
-0.125
74
0
0
ENDTAB
0
TABLE
2
STYLE
5
2b
100
AcDbSymbolTable
70
1
0
STYLE
5
2c
100
AcDbSymbolTableRecord
100
AcDbTextStyleTableRecord
2
STANDARD
70
64
40
0.0
41
1.0
50
0.0
71
0
42
5.0
3
txt
4
bigfont
0
ENDTAB
0
TABLE
2
LAYER
5
2d
100
AcDbSymbolTable
70
2
0
LAYER
5
2e
100
AcDbSymbolTableRecord
100
AcDbLayerTableRecord
2
0
70
0
62
7
6
CONTINUOUS
0
LAYER
5
2f
100
AcDbSymbolTableRecord
100
AcDbLayerTableRecord
2
1
70
0
62
7
6
CONTINUOUS
0
ENDTAB
0
TABLE
2
APPID
5
30
100
AcDbSymbolTable
70
1
0
APPID
5
31
100
AcDbSymbolTableRecord
100
AcDbRegAppTableRecord
2
ACAD
70
64
0
ENDTAB
0
TABLE
2
DIMSTYLE
5
32
100
AcDbSymbolTable
70
0
0
ENDTAB
0
TABLE
2
UCS
5
33
100
AcDbSymbolTable
70
0
0
ENDTAB
0
TABLE
2
VIEW
5
34
100
AcDbSymbolTable
70
0
0
ENDTAB
0
TABLE
2
VPORT
5
35
100
AcDbSymbolTable
70
0
0
ENDTAB
0
TABLE
2
BLOCK_RECORD
5
36
100
AcDbSymbolTable
70
0
0
BLOCK_RECORD
5
37
100
AcDbSymbolTableRecord
100
AcDbBlockTableRecord
2
*MODEL_SPACE
0
BLOCK_RECORD
5
38
100
AcDbSymbolTableRecord
100
AcDbBlockTableRecord
2
*PAPER_SPACE
0
BLOCK_RECORD
5
39
100
AcDbSymbolTableRecord
100
AcDbBlockTableRecord
2
OPEN
0
BLOCK_RECORD
5
3a
100
AcDbSymbolTableRecord
100
AcDbBlockTableRecord
2
HALF
0
BLOCK_RECORD
5
3b
100
AcDbSymbolTableRecord
100
AcDbBlockTableRecord
2
CLOSEDBLANK
0
BLOCK_RECORD
5
3c
100
AcDbSymbolTableRecord
100
AcDbBlockTableRecord
2
HALFCLOSE_R
0
BLOCK_RECORD
5
3d
100
AcDbSymbolTableRecord
100
AcDbBlockTableRecord
2
DOT
0
BLOCK_RECORD
5
3e
100
AcDbSymbolTableRecord
100
AcDbBlockTableRecord
2
HALFOPEN_R
0
BLOCK_RECORD
5
3f
100
AcDbSymbolTableRecord
100
AcDbBlockTableRecord
2
CLOSEDF
0
BLOCK_RECORD
5
40
100
AcDbSymbolTableRecord
100
AcDbBlockTableRecord
2
HALF_R
0
ENDTAB
0
ENDSEC
0
SECTION
2
BLOCKS
0
BLOCK
5
41
100
AcDbEntity
8
0
100
AcDbBlockBegin
2
*MODEL_SPACE
70
0
10
0.0
20
0.0
30
0.0
3
*MODEL_SPACE
1

0
ENDBLK
5
42
100
AcDbEntity
8
0
100
AcDbBlockEnd
0
BLOCK
5
43
100
AcDbEntity
67
1
8
0
100
AcDbBlockBegin
2
*PAPER_SPACE
70
0
10
0.0
20
0.0
30
0.0
3
*PAPER_SPACE
1

0
ENDBLK
5
44
100
AcDbEntity
67
1
8
0
100
AcDbBlockEnd
0
BLOCK
5
45
100
AcDbEntity
8
0
100
AcDbBlockBegin
2
OPEN
70
0
10
0.0
20
0.0
30
0.0
3
OPEN
1

0
LINE
5
46
100
AcDbEntity
8
0
6
BYBLOCK
62
0
100
AcDbLine
10
0.000000
20
0.000000
11
-1.000000
21
0.000000
0
LINE
5
47
100
AcDbEntity
8
0
6
BYBLOCK
62
0
100
AcDbLine
10
-1.000000
20
-0.166667
11
0.000000
21
0.000000
0
LINE
5
48
100
AcDbEntity
8
0
6
BYBLOCK
62
0
100
AcDbLine
10
-1.000000
20
0.166667
11
0.000000
21
0.000000
0
ENDBLK
5
49
100
AcDbEntity
8
0
100
AcDbBlockEnd
0
BLOCK
5
4a
100
AcDbEntity
8
0
100
AcDbBlockBegin
2
HALF
70
0
10
0.0
20
0.0
30
0.0
3
HALF
1

0
SOLID
5
4b
100
AcDbEntity
8
0
6
BYBLOCK
62
0
100
AcDbTrace
10
-1.000000
20
0.166667
11
-1.000000
21
-0.166667
12
0.000000
22
0.000000
13
0.000000
23
0.000000
0
ENDBLK
5
4c
100
AcDbEntity
8
0
100
AcDbBlockEnd
0
BLOCK
5
4d
100
AcDbEntity
8
0
100
AcDbBlockBegin
2
CLOSEDBLANK
70
0
10
0.0
20
0.0
30
0.0
3
CLOSEDBLANK
1

0
LINE
5
4e
100
AcDbEntity
8
0
6
BYBLOCK
62
0
100
AcDbLine
10
-1.000000
20
0.166667
11
-1.000000
21
-0.166667
0
LINE
5
4f
100
AcDbEntity
8
0
6
BYBLOCK
62
0
100
AcDbLine
10
0.000000
20
0.000000
11
-1.000000
21
-0.166667
0
LINE
5
50
100
AcDbEntity
8
0
6
BYBLOCK
62
0
100
AcDbLine
10
-1.000000
20
0.166667
11
0.000000
21
0.000000
0
ENDBLK
5
51
100
AcDbEntity
8
0
100
AcDbBlockEnd
0
BLOCK
5
52
100
AcDbEntity
8
0
100
AcDbBlockBegin
2
HALFCLOSE_R
70
0
10
0.0
20
0.0
30
0.0
3
HALFCLOSE_R
1

0
LINE
5
53
100
AcDbEntity
8
0
6
BYBLOCK
62
0
100
AcDbLine
10
-1.000000
20
-0.166667
11
-1.000000
21
0.000000
0
LINE
5
54
100
AcDbEntity
8
0
6
BYBLOCK
62
0
100
AcDbLine
10
-1.000000
20
-0.166667
11
0.000000
21
0.000000
0
LINE
5
55
100
AcDbEntity
8
0
6
BYBLOCK
62
0
100
AcDbLine
10
0.000000
20
0.000000
11
-1.000000
21
0.000000
0
ENDBLK
5
56
100
AcDbEntity
8
0
100
AcDbBlockEnd
0
BLOCK
5
57
100
AcDbEntity
8
0
100
AcDbBlockBegin
2
DOT
70
0
10
0.0
20
0.0
30
0.0
3
DOT
1

0
LINE
5
58
100
AcDbEntity
8
0
6
BYBLOCK
62
0
100
AcDbLine
10
0.000000
20
0.000000
11
-1.000000
21
0.000000
0
POLYLINE
5
59
100
AcDbEntity
8
0
6
BYBLOCK
62
0
100
AcDb2dPolyline
66
1
10
0.0
20
0.0
30
0.0
70
1
40
0.166667
41
0.166667
0
VERTEX
5
5a
100
AcDbEntity
8
0
100
AcDbVertex
100
AcDb2dVertex
62
10
10
-0.083333
20
0.000000
42
1.000000
0
VERTEX
5
5b
100
AcDbEntity
8
0
100
AcDbVertex
100
AcDb2dVertex
62
10
10
0.083333
20
0.000000
42
1.000000
0
SEQEND
5
5c
100
AcDbEntity
8
0
0
ENDBLK
5
5d
100
AcDbEntity
8
0
100
AcDbBlockEnd
0
BLOCK
5
5e
100
AcDbEntity
8
0
100
AcDbBlockBegin
2
HALFOPEN_R
70
0
10
0.0
20
0.0
30
0.0
3
HALFOPEN_R
1

0
LINE
5
5f
100
AcDbEntity
8
0
6
BYBLOCK
62
0
100
AcDbLine
10
-1.000000
20
-0.166667
11
0.000000
21
0.000000
0
LINE
5
60
100
AcDbEntity
8
0
6
BYBLOCK
62
0
100
AcDbLine
10
0.000000
20
0.000000
11
-1.000000
21
0.000000
0
ENDBLK
5
61
100
AcDbEntity
8
0
100
AcDbBlockEnd
0
BLOCK
5
62
100
AcDbEntity
8
0
100
AcDbBlockBegin
2
CLOSEDF
70
0
10
0.0
20
0.0
30
0.0
3
CLOSEDF
1

0
SOLID
5
63
100
AcDbEntity
8
0
6
BYBLOCK
62
0
100
AcDbTrace
10
-1.000000
20
0.166667
11
-1.000000
21
-0.166667
12
0.000000
22
0.000000
13
0.000000
23
0.000000
0
ENDBLK
5
64
100
AcDbEntity
8
0
100
AcDbBlockEnd
0
BLOCK
5
65
100
AcDbEntity
8
0
100
AcDbBlockBegin
2
HALF_R
70
0
10
0.0
20
0.0
30
0.0
3
HALF_R
1

0
SOLID
5
66
100
AcDbEntity
8
0
6
BYBLOCK
62
0
100
AcDbTrace
10
-1.000000
20
-0.166667
11
-1.000000
21
0.000000
12
0.000000
22
0.000000
13
0.000000
23
0.000000
0
ENDBLK
5
67
100
AcDbEntity
8
0
100
AcDbBlockEnd
0
ENDSEC
0
SECTION
2
ENTITIES
0
POLYLINE
5
68
100
AcDbEntity
8
1
6
CONTINUOUS
62
5
100
AcDb2dPolyline
66
1
10
0.0
20
0.0
30
0.0
70
0
0
VERTEX
5
69
100
AcDbEntity
8
1
100
AcDbVertex
100
AcDb2dVertex
62
5
10
291.500000
20
339.000000
0
VERTEX
5
6a
100
AcDbEntity
8
1
100
AcDbVertex
100
AcDb2dVertex
62
5
10
296.250000
20
339.000000
0
VERTEX
5
6b
100
AcDbEntity
8
1
100
AcDbVertex
100
AcDb2dVertex
62
5
10
293.750000
20
337.125000
0
VERTEX
5
6c
100
AcDbEntity
8
1
100
AcDbVertex
100
AcDb2dVertex
62
5
10
293.750000
20
330.875000
0
VERTEX
5
6d
100
AcDbEntity
8
1
100
AcDbVertex
100
AcDb2dVertex
62
5
10
292.750000
20
331.187500
0
SEQEND
5
6e
100
AcDbEntity
8
1
0
LINE
5
6f
100
AcDbEntity
8
1
100
AcDbLine
6
CONTINUOUS
62
5
10
290.250000
20
335.250000
11
297.250000
21
335.250000
0
POLYLINE
5
70
100
AcDbEntity
8
1
6
CONTINUOUS
62
5
100
AcDb2dPolyline
66
1
10
0.0
20
0.0
30
0.0
70
1
0
VERTEX
5
71
100
AcDbEntity
8
1
100
AcDbVertex
100
AcDb2dVertex
62
5
10
299.000000
20
339.000000
0
VERTEX
5
72
100
AcDbEntity
8
1
100
AcDbVertex
100
AcDb2dVertex
62
5
10
301.250000
20
339.000000
0
VERTEX
5
73
100
AcDbEntity
8
1
100
AcDbVertex
100
AcDb2dVertex
62
5
10
301.250000
20
337.125000
0
VERTEX
5
74
100
AcDbEntity
8
1
100
AcDbVertex
100
AcDb2dVertex
62
5
10
299.000000
20
337.125000
0
VERTEX
5
75
100
AcDbEntity
8
1
100
AcDbVertex
100
AcDb2dVertex
62
5
10
299.000000
20
339.000000
0
SEQEND
5
76
100
AcDbEntity
8
1
0
POLYLINE
5
77
100
AcDbEntity
8
1
6
CONTINUOUS
62
5
100
AcDb2dPolyline
66
1
10
0.0
20
0.0
30
0.0
70
1
0
VERTEX
5
78
100
AcDbEntity
8
1
100
AcDbVertex
100
AcDb2dVertex
62
5
10
302.500000
20
339.000000
0
VERTEX
5
79
100
AcDbEntity
8
1
100
AcDbVertex
100
AcDb2dVertex
62
5
10
304.750000
20
339.000000
0
VERTEX
5
7a
100
AcDbEntity
8
1
100
AcDbVertex
100
AcDb2dVertex
62
5
10
304.750000
20
337.125000
0
VERTEX
5
7b
100
AcDbEntity
8
1
100
AcDbVertex
100
AcDb2dVertex
62
5
10
302.500000
20
337.125000
0
VERTEX
5
7c
100
AcDbEntity
8
1
100
AcDbVertex
100
AcDb2dVertex
62
5
10
302.500000
20
339.000000
0
SEQEND
5
7d
100
AcDbEntity
8
1
0
LINE
5
7e
100
AcDbEntity
8
1
100
AcDbLine
6
CONTINUOUS
62
5
10
298.500000
20
335.562500
11
305.250000
21
335.562500
0
POLYLINE
5
7f
100
AcDbEntity
8
1
6
CONTINUOUS
62
5
100
AcDb2dPolyline
66
1
10
0.0
20
0.0
30
0.0
70
0
0
VERTEX
5
80
100
AcDbEntity
8
1
100
AcDbVertex
100
AcDb2dVertex
62
5
10
302.000000
20
336.812500
0
VERTEX
5
81
100
AcDbEntity
8
1
100
AcDbVertex
100
AcDb2dVertex
62
5
10
301.250000
20
335.250000
0
VERTEX
5
82
100
AcDbEntity
8
1
100
AcDbVertex
100
AcDb2dVertex
62
5
10
300.250000
20
334.000000
0
VERTEX
5
83
100
AcDbEntity
8
1
100
AcDbVertex
100
AcDb2dVertex
62
5
10
298.250000
20
332.750000
0
SEQEND
5
84
100
AcDbEntity
8
1
0
POLYLINE
5
85
100
AcDbEntity
8
1
6
CONTINUOUS
62
5
100
AcDb2dPolyline
66
1
10
0.0
20
0.0
30
0.0
70
0
0
VERTEX
5
86
100
AcDbEntity
8
1
100
AcDbVertex
100
AcDb2dVertex
62
5
10
302.250000
20
335.562500
0
VERTEX
5
87
100
AcDbEntity
8
1
100
AcDbVertex
100
AcDb2dVertex
62
5
10
303.000000
20
334.625000
0
VERTEX
5
88
100
AcDbEntity
8
1
100
AcDbVertex
100
AcDb2dVertex
62
5
10
304.250000
20
333.375000
0
VERTEX
5
89
100
AcDbEntity
8
1
100
AcDbVertex
100
AcDb2dVertex
62
5
10
305.500000
20
332.750000
0
SEQEND
5
8a
100
AcDbEntity
8
1
0
POLYLINE
5
8b
100
AcDbEntity
8
1
6
CONTINUOUS
62
5
100
AcDb2dPolyline
66
1
10
0.0
20
0.0
30
0.0
70
1
0
VERTEX
5
8c
100
AcDbEntity
8
1
100
AcDbVertex
100
AcDb2dVertex
62
5
10
299.250000
20
333.062500
0
VERTEX
5
8d
100
AcDbEntity
8
1
100
AcDbVertex
100
AcDb2dVertex
62
5
10
301.250000
20
333.062500
0
VERTEX
5
8e
100
AcDbEntity
8
1
100
AcDbVertex
100
AcDb2dVertex
62
5
10
301.250000
20
330.875000
0
VERTEX
5
8f
100
AcDbEntity
8
1
100
AcDbVertex
100
AcDb2dVertex
62
5
10
299.250000
20
330.875000
0
VERTEX
5
90
100
AcDbEntity
8
1
100
AcDbVertex
100
AcDb2dVertex
62
5
10
299.250000
20
333.062500
0
SEQEND
5
91
100
AcDbEntity
8
1
0
POLYLINE
5
92
100
AcDbEntity
8
1
6
CONTINUOUS
62
5
100
AcDb2dPolyline
66
1
10
0.0
20
0.0
30
0.0
70
1
0
VERTEX
5
93
100
AcDbEntity
8
1
100
AcDbVertex
100
AcDb2dVertex
62
5
10
302.500000
20
333.062500
0
VERTEX
5
94
100
AcDbEntity
8
1
100
AcDbVertex
100
AcDb2dVertex
62
5
10
304.500000
20
333.062500
0
VERTEX
5
95
100
AcDbEntity
8
1
100
AcDbVertex
100
AcDb2dVertex
62
5
10
304.500000
20
330.875000
0
VERTEX
5
96
100
AcDbEntity
8
1
100
AcDbVertex
100
AcDb2dVertex
62
5
10
302.500000
20
330.875000
0
VERTEX
5
97
100
AcDbEntity
8
1
100
AcDbVertex
100
AcDb2dVertex
62
5
10
302.500000
20
333.062500
0
SEQEND
5
98
100
AcDbEntity
8
1
0
POLYLINE
5
99
100
AcDbEntity
8
1
6
CONTINUOUS
62
5
100
AcDb2dPolyline
66
1
10
0.0
20
0.0
30
0.0
70
0
0
VERTEX
5
9a
100
AcDbEntity
8
1
100
AcDbVertex
100
AcDb2dVertex
62
5
10
283.500000
20
339.000000
0
VERTEX
5
9b
100
AcDbEntity
8
1
100
AcDbVertex
100
AcDb2dVertex
62
5
10
283.500000
20
333.375000
0
VERTEX
5
9c
100
AcDbEntity
8
1
100
AcDbVertex
100
AcDb2dVertex
62
5
10
283.000000
20
332.125000
0
VERTEX
5
9d
100
AcDbEntity
8
1
100
AcDbVertex
100
AcDb2dVertex
62
5
10
282.500000
20
331.187500
0
SEQEND
5
9e
100
AcDbEntity
8
1
0
POLYLINE
5
9f
100
AcDbEntity
8
1
6
CONTINUOUS
62
5
100
AcDb2dPolyline
66
1
10
0.0
20
0.0
30
0.0
70
0
0
VERTEX
5
a0
100
AcDbEntity
8
1
100
AcDbVertex
100
AcDb2dVertex
62
5
10
287.500000
20
331.500000
0
VERTEX
5
a1
100
AcDbEntity
8
1
100
AcDbVertex
100
AcDb2dVertex
62
5
10
288.500000
20
330.875000
0
VERTEX
5
a2
100
AcDbEntity
8
1
100
AcDbVertex
100
AcDb2dVertex
62
5
10
288.500000
20
339.000000
0
VERTEX
5
a3
100
AcDbEntity
8
1
100
AcDbVertex
100
AcDb2dVertex
62
5
10
283.500000
20
339.000000
0
SEQEND
5
a4
100
AcDbEntity
8
1
0
LINE
5
a5
100
AcDbEntity
8
1
100
AcDbLine
6
CONTINUOUS
62
5
10
283.500000
20
336.500000
11
288.500000
21
336.500000
0
LINE
5
a6
100
AcDbEntity
8
1
100
AcDbLine
6
CONTINUOUS
62
5
10
286.000000
20
339.000000
11
286.000000
21
330.875000
0
LINE
5
a7
100
AcDbEntity
8
1
100
AcDbLine
6
CONTINUOUS
62
5
10
283.500000
20
334.000000
11
288.500000
21
334.000000
0
LINE
5
a8
100
AcDbEntity
8
1
100
AcDbLine
6
CONTINUOUS
62
5
10
251.000000
20
339.000000
11
257.000000
21
339.000000
0
POLYLINE
5
a9
100
AcDbEntity
8
1
6
CONTINUOUS
62
5
100
AcDb2dPolyline
66
1
10
0.0
20
0.0
30
0.0
70
0
0
VERTEX
5
aa
100
AcDbEntity
8
1
100
AcDbVertex
100
AcDb2dVertex
62
5
10
250.500000
20
331.187500
0
VERTEX
5
ab
100
AcDbEntity
8
1
100
AcDbVertex
100
AcDb2dVertex
62
5
10
251.250000
20
333.375000
0
VERTEX
5
ac
100
AcDbEntity
8
1
100
AcDbVertex
100
AcDb2dVertex
62
5
10
251.500000
20
336.187500
0
VERTEX
5
ad
100
AcDbEntity
8
1
100
AcDbVertex
100
AcDb2dVertex
62
5
10
251.500000
20
338.062500
0
VERTEX
5
ae
100
AcDbEntity
8
1
100
AcDbVertex
100
AcDb2dVertex
62
5
10
256.750000
20
338.062500
0
VERTEX
5
af
100
AcDbEntity
8
1
100
AcDbVertex
100
AcDb2dVertex
62
5
10
256.750000
20
336.187500
0
VERTEX
5
b0
100
AcDbEntity
8
1
100
AcDbVertex
100
AcDb2dVertex
62
5
10
251.500000
20
336.187500
0
SEQEND
5
b1
100
AcDbEntity
8
1
0
POLYLINE
5
b2
100
AcDbEntity
8
1
6
CONTINUOUS
62
5
100
AcDb2dPolyline
66
1
10
0.0
20
0.0
30
0.0
70
0
0
VERTEX
5
b3
100
AcDbEntity
8
1
100
AcDbVertex
100
AcDb2dVertex
62
5
10
252.000000
20
335.250000
0
VERTEX
5
b4
100
AcDbEntity
8
1
100
AcDbVertex
100
AcDb2dVertex
62
5
10
254.000000
20
335.250000
0
VERTEX
5
b5
100
AcDbEntity
8
1
100
AcDbVertex
100
AcDb2dVertex
62
5
10
254.000000
20
331.812500
0
VERTEX
5
b6
100
AcDbEntity
8
1
100
AcDbVertex
100
AcDb2dVertex
62
5
10
253.500000
20
331.187500
0
VERTEX
5
b7
100
AcDbEntity
8
1
100
AcDbVertex
100
AcDb2dVertex
62
5
10
253.000000
20
331.187500
0
SEQEND
5
b8
100
AcDbEntity
8
1
0
LINE
5
b9
100
AcDbEntity
8
1
100
AcDbLine
6
CONTINUOUS
62
5
10
252.250000
20
334.312500
11
253.000000
21
333.687500
0
LINE
5
ba
100
AcDbEntity
8
1
100
AcDbLine
6
CONTINUOUS
62
5
10
253.250000
20
333.062500
11
251.750000
21
331.812500
0
POLYLINE
5
bb
100
AcDbEntity
8
1
6
CONTINUOUS
62
5
100
AcDb2dPolyline
66
1
10
0.0
20
0.0
30
0.0
70
0
0
VERTEX
5
bc
100
AcDbEntity
8
1
100
AcDbVertex
100
AcDb2dVertex
62
5
10
254.750000
20
335.250000
0
VERTEX
5
bd
100
AcDbEntity
8
1
100
AcDbVertex
100
AcDb2dVertex
62
5
10
257.000000
20
335.250000
0
VERTEX
5
be
100
AcDbEntity
8
1
100
AcDbVertex
100
AcDb2dVertex
62
5
10
257.000000
20
331.812500
0
VERTEX
5
bf
100
AcDbEntity
8
1
100
AcDbVertex
100
AcDb2dVertex
62
5
10
256.500000
20
331.187500
0
VERTEX
5
c0
100
AcDbEntity
8
1
100
AcDbVertex
100
AcDb2dVertex
62
5
10
256.000000
20
331.187500
0
SEQEND
5
c1
100
AcDbEntity
8
1
0
LINE
5
c2
100
AcDbEntity
8
1
100
AcDbLine
6
CONTINUOUS
62
5
10
255.000000
20
334.312500
11
255.750000
21
333.687500
0
LINE
5
c3
100
AcDbEntity
8
1
100
AcDbLine
6
CONTINUOUS
62
5
10
256.250000
20
333.062500
11
254.750000
21
331.812500
0
LINE
5
c4
100
AcDbEntity
8
1
100
AcDbLine
6
CONTINUOUS
62
5
10
258.250000
20
337.437500
11
260.500000
21
337.437500
0
POLYLINE
5
c5
100
AcDbEntity
8
1
6
CONTINUOUS
62
5
100
AcDb2dPolyline
66
1
10
0.0
20
0.0
30
0.0
70
0
0
VERTEX
5
c6
100
AcDbEntity
8
1
100
AcDbVertex
100
AcDb2dVertex
62
5
10
259.500000
20
339.312500
0
VERTEX
5
c7
100
AcDbEntity
8
1
100
AcDbVertex
100
AcDb2dVertex
62
5
10
259.500000
20
331.500000
0
VERTEX
5
c8
100
AcDbEntity
8
1
100
AcDbVertex
100
AcDb2dVertex
62
5
10
259.000000
20
330.875000
0
VERTEX
5
c9
100
AcDbEntity
8
1
100
AcDbVertex
100
AcDb2dVertex
62
5
10
258.500000
20
330.875000
0
SEQEND
5
ca
100
AcDbEntity
8
1
0
LINE
5
cb
100
AcDbEntity
8
1
100
AcDbLine
6
CONTINUOUS
62
5
10
258.500000
20
334.312500
11
260.250000
21
335.562500
0
LINE
5
cc
100
AcDbEntity
8
1
100
AcDbLine
6
CONTINUOUS
62
5
10
261.000000
20
338.375000
11
265.000000
21
338.375000
0
LINE
5
cd
100
AcDbEntity
8
1
100
AcDbLine
6
CONTINUOUS
62
5
10
260.750000
20
336.187500
11
265.250000
21
336.187500
0
LINE
5
ce
100
AcDbEntity
8
1
100
AcDbLine
6
CONTINUOUS
62
5
10
261.750000
20
338.375000
11
262.500000
21
336.187500
0
LINE
5
cf
100
AcDbEntity
8
1
100
AcDbLine
6
CONTINUOUS
62
5
10
263.500000
20
336.187500
11
264.250000
21
338.375000
0
LINE
5
d0
100
AcDbEntity
8
1
100
AcDbLine
6
CONTINUOUS
62
5
10
263.000000
20
338.375000
11
263.000000
21
339.625000
0
POLYLINE
5
d1
100
AcDbEntity
8
1
6
CONTINUOUS
62
5
100
AcDb2dPolyline
66
1
10
0.0
20
0.0
30
0.0
70
0
0
VERTEX
5
d2
100
AcDbEntity
8
1
100
AcDbVertex
100
AcDb2dVertex
62
5
10
263.000000
20
336.187500
0
VERTEX
5
d3
100
AcDbEntity
8
1
100
AcDbVertex
100
AcDb2dVertex
62
5
10
261.750000
20
333.062500
0
VERTEX
5
d4
100
AcDbEntity
8
1
100
AcDbVertex
100
AcDb2dVertex
62
5
10
263.250000
20
332.750000
0
VERTEX
5
d5
100
AcDbEntity
8
1
100
AcDbVertex
100
AcDb2dVertex
62
5
10
264.500000
20
332.125000
0
VERTEX
5
d6
100
AcDbEntity
8
1
100
AcDbVertex
100
AcDb2dVertex
62
5
10
265.250000
20
331.187500
0
SEQEND
5
d7
100
AcDbEntity
8
1
0
POLYLINE
5
d8
100
AcDbEntity
8
1
6
CONTINUOUS
62
5
100
AcDb2dPolyline
66
1
10
0.0
20
0.0
30
0.0
70
0
0
VERTEX
5
d9
100
AcDbEntity
8
1
100
AcDbVertex
100
AcDb2dVertex
62
5
10
264.000000
20
334.625000
0
VERTEX
5
da
100
AcDbEntity
8
1
100
AcDbVertex
100
AcDb2dVertex
62
5
10
263.250000
20
332.750000
0
VERTEX
5
db
100
AcDbEntity
8
1
100
AcDbVertex
100
AcDb2dVertex
62
5
10
262.500000
20
331.500000
0
VERTEX
5
dc
100
AcDbEntity
8
1
100
AcDbVertex
100
AcDb2dVertex
62
5
10
261.750000
20
331.187500
0
VERTEX
5
dd
100
AcDbEntity
8
1
100
AcDbVertex
100
AcDb2dVertex
62
5
10
261.000000
20
331.187500
0
SEQEND
5
de
100
AcDbEntity
8
1
0
LINE
5
df
100
AcDbEntity
8
1
100
AcDbLine
6
CONTINUOUS
62
5
10
261.000000
20
334.625000
11
265.250000
21
334.625000
0
LINE
5
e0
100
AcDbEntity
8
1
100
AcDbLine
6
CONTINUOUS
62
5
10
268.250000
20
339.312500
11
267.250000
21
337.750000
0
LINE
5
e1
100
AcDbEntity
8
1
100
AcDbLine
6
CONTINUOUS
62
5
10
267.000000
20
338.062500
11
268.000000
21
336.812500
0
LINE
5
e2
100
AcDbEntity
8
1
100
AcDbLine
6
CONTINUOUS
62
5
10
268.750000
20
338.062500
11
267.000000
21
335.250000
0
LINE
5
e3
100
AcDbEntity
8
1
100
AcDbLine
6
CONTINUOUS
62
5
10
266.500000
20
335.250000
11
269.000000
21
335.250000
0
LINE
5
e4
100
AcDbEntity
8
1
100
AcDbLine
6
CONTINUOUS
62
5
10
268.750000
20
336.187500
11
269.250000
21
334.625000
0
LINE
5
e5
100
AcDbEntity
8
1
100
AcDbLine
6
CONTINUOUS
62
5
10
268.000000
20
335.250000
11
268.000000
21
330.875000
0
LINE
5
e6
100
AcDbEntity
8
1
100
AcDbLine
6
CONTINUOUS
62
5
10
267.250000
20
334.312500
11
266.750000
21
332.437500
0
LINE
5
e7
100
AcDbEntity
8
1
100
AcDbLine
6
CONTINUOUS
62
5
10
268.750000
20
334.312500
11
269.250000
21
332.750000
0
LINE
5
e8
100
AcDbEntity
8
1
100
AcDbLine
6
CONTINUOUS
62
5
10
269.500000
20
338.375000
11
273.500000
21
338.375000
0
LINE
5
e9
100
AcDbEntity
8
1
100
AcDbLine
6
CONTINUOUS
62
5
10
271.500000
20
339.625000
11
271.500000
21
336.812500
0
LINE
5
ea
100
AcDbEntity
8
1
100
AcDbLine
6
CONTINUOUS
62
5
10
270.000000
20
336.812500
11
273.000000
21
336.812500
0
POLYLINE
5
eb
100
AcDbEntity
8
1
6
CONTINUOUS
62
5
100
AcDb2dPolyline
66
1
10
0.0
20
0.0
30
0.0
70
0
0
VERTEX
5
ec
100
AcDbEntity
8
1
100
AcDbVertex
100
AcDb2dVertex
62
5
10
269.750000
20
334.625000
0
VERTEX
5
ed
100
AcDbEntity
8
1
100
AcDbVertex
100
AcDb2dVertex
62
5
10
269.750000
20
335.875000
0
VERTEX
5
ee
100
AcDbEntity
8
1
100
AcDbVertex
100
AcDb2dVertex
62
5
10
273.500000
20
335.875000
0
VERTEX
5
ef
100
AcDbEntity
8
1
100
AcDbVertex
100
AcDb2dVertex
62
5
10
273.500000
20
334.625000
0
SEQEND
5
f0
100
AcDbEntity
8
1
0
POLYLINE
5
f1
100
AcDbEntity
8
1
6
CONTINUOUS
62
5
100
AcDb2dPolyline
66
1
10
0.0
20
0.0
30
0.0
70
0
0
VERTEX
5
f2
100
AcDbEntity
8
1
100
AcDbVertex
100
AcDb2dVertex
62
5
10
271.000000
20
334.625000
0
VERTEX
5
f3
100
AcDbEntity
8
1
100
AcDbVertex
100
AcDb2dVertex
62
5
10
271.000000
20
333.062500
0
VERTEX
5
f4
100
AcDbEntity
8
1
100
AcDbVertex
100
AcDb2dVertex
62
5
10
270.500000
20
331.812500
0
VERTEX
5
f5
100
AcDbEntity
8
1
100
AcDbVertex
100
AcDb2dVertex
62
5
10
269.750000
20
331.187500
0
SEQEND
5
f6
100
AcDbEntity
8
1
0
POLYLINE
5
f7
100
AcDbEntity
8
1
6
CONTINUOUS
62
5
100
AcDb2dPolyline
66
1
10
0.0
20
0.0
30
0.0
70
0
0
VERTEX
5
f8
100
AcDbEntity
8
1
100
AcDbVertex
100
AcDb2dVertex
62
5
10
272.000000
20
334.625000
0
VERTEX
5
f9
100
AcDbEntity
8
1
100
AcDbVertex
100
AcDb2dVertex
62
5
10
272.000000
20
331.500000
0
VERTEX
5
fa
100
AcDbEntity
8
1
100
AcDbVertex
100
AcDb2dVertex
62
5
10
272.250000
20
331.187500
0
VERTEX
5
fb
100
AcDbEntity
8
1
100
AcDbVertex
100
AcDb2dVertex
62
5
10
273.500000
20
331.187500
0
VERTEX
5
fc
100
AcDbEntity
8
1
100
AcDbVertex
100
AcDb2dVertex
62
5
10
273.500000
20
332.125000
0
SEQEND
5
fd
100
AcDbEntity
8
1
0
POLYLINE
5
fe
100
AcDbEntity
8
1
6
CONTINUOUS
62
5
100
AcDb2dPolyline
66
1
10
0.0
20
0.0
30
0.0
70
0
0
VERTEX
5
ff
100
AcDbEntity
8
1
100
AcDbVertex
100
AcDb2dVertex
62
5
10
242.500000
20
336.812500
0
VERTEX
5
100
100
AcDbEntity
8
1
100
AcDbVertex
100
AcDb2dVertex
62
5
10
243.250000
20
337.437500
0
VERTEX
5
101
100
AcDbEntity
8
1
100
AcDbVertex
100
AcDb2dVertex
62
5
10
244.000000
20
338.687500
0
VERTEX
5
102
100
AcDbEntity
8
1
100
AcDbVertex
100
AcDb2dVertex
62
5
10
244.500000
20
339.625000
0
SEQEND
5
103
100
AcDbEntity
8
1
0
LINE
5
104
100
AcDbEntity
8
1
100
AcDbLine
6
CONTINUOUS
62
5
10
244.000000
20
338.687500
11
248.750000
21
338.687500
0
LINE
5
105
100
AcDbEntity
8
1
100
AcDbLine
6
CONTINUOUS
62
5
10
244.250000
20
337.125000
11
248.000000
21
337.125000
0
POLYLINE
5
106
100
AcDbEntity
8
1
6
CONTINUOUS
62
5
100
AcDb2dPolyline
66
1
10
0.0
20
0.0
30
0.0
70
0
0
VERTEX
5
107
100
AcDbEntity
8
1
100
AcDbVertex
100
AcDb2dVertex
62
5
10
243.250000
20
335.875000
0
VERTEX
5
108
100
AcDbEntity
8
1
100
AcDbVertex
100
AcDb2dVertex
62
5
10
248.000000
20
335.875000
0
VERTEX
5
109
100
AcDbEntity
8
1
100
AcDbVertex
100
AcDb2dVertex
62
5
10
248.000000
20
332.750000
0
VERTEX
5
10a
100
AcDbEntity
8
1
100
AcDbVertex
100
AcDb2dVertex
62
5
10
248.250000
20
331.812500
0
VERTEX
5
10b
100
AcDbEntity
8
1
100
AcDbVertex
100
AcDb2dVertex
62
5
10
248.750000
20
330.875000
0
VERTEX
5
10c
100
AcDbEntity
8
1
100
AcDbVertex
100
AcDb2dVertex
62
5
10
249.250000
20
332.750000
0
SEQEND
5
10d
100
AcDbEntity
8
1
0
POLYLINE
5
10e
100
AcDbEntity
8
1
6
CONTINUOUS
62
5
100
AcDb2dPolyline
66
1
10
0.0
20
0.0
30
0.0
70
0
0
VERTEX
5
10f
100
AcDbEntity
8
1
100
AcDbVertex
100
AcDb2dVertex
62
5
10
244.250000
20
334.000000
0
VERTEX
5
110
100
AcDbEntity
8
1
100
AcDbVertex
100
AcDb2dVertex
62
5
10
245.500000
20
333.062500
0
VERTEX
5
111
100
AcDbEntity
8
1
100
AcDbVertex
100
AcDb2dVertex
62
5
10
246.500000
20
332.125000
0
SEQEND
5
112
100
AcDbEntity
8
1
0
POLYLINE
5
113
100
AcDbEntity
8
1
6
CONTINUOUS
62
5
100
AcDb2dPolyline
66
1
10
0.0
20
0.0
30
0.0
70
0
0
VERTEX
5
114
100
AcDbEntity
8
1
100
AcDbVertex
100
AcDb2dVertex
62
5
10
246.500000
20
334.625000
0
VERTEX
5
115
100
AcDbEntity
8
1
100
AcDbVertex
100
AcDb2dVertex
62
5
10
245.000000
20
332.750000
0
VERTEX
5
116
100
AcDbEntity
8
1
100
AcDbVertex
100
AcDb2dVertex
62
5
10
243.750000
20
331.812500
0
VERTEX
5
117
100
AcDbEntity
8
1
100
AcDbVertex
100
AcDb2dVertex
62
5
10
242.500000
20
331.187500
0
SEQEND
5
118
100
AcDbEntity
8
1
0
LINE
5
119
100
AcDbEntity
8
1
100
AcDbLine
6
CONTINUOUS
62
5
10
274.750000
20
338.687500
11
281.000000
21
338.687500
0
POLYLINE
5
11a
100
AcDbEntity
8
1
6
CONTINUOUS
62
5
100
AcDb2dPolyline
66
1
10
0.0
20
0.0
30
0.0
70
1
0
VERTEX
5
11b
100
AcDbEntity
8
1
100
AcDbVertex
100
AcDb2dVertex
62
5
10
275.500000
20
337.750000
0
VERTEX
5
11c
100
AcDbEntity
8
1
100
AcDbVertex
100
AcDb2dVertex
62
5
10
280.000000
20
337.750000
0
VERTEX
5
11d
100
AcDbEntity
8
1
100
AcDbVertex
100
AcDb2dVertex
62
5
10
280.000000
20
335.250000
0
VERTEX
5
11e
100
AcDbEntity
8
1
100
AcDbVertex
100
AcDb2dVertex
62
5
10
275.500000
20
335.250000
0
VERTEX
5
11f
100
AcDbEntity
8
1
100
AcDbVertex
100
AcDb2dVertex
62
5
10
275.500000
20
337.750000
0
SEQEND
5
120
100
AcDbEntity
8
1
0
LINE
5
121
100
AcDbEntity
8
1
100
AcDbLine
6
CONTINUOUS
62
5
10
275.500000
20
336.500000
11
280.000000
21
336.500000
0
LINE
5
122
100
AcDbEntity
8
1
100
AcDbLine
6
CONTINUOUS
62
5
10
277.750000
20
335.250000
11
277.750000
21
339.625000
0
LINE
5
123
100
AcDbEntity
8
1
100
AcDbLine
6
CONTINUOUS
62
5
10
274.500000
20
333.687500
11
281.500000
21
333.687500
0
POLYLINE
5
124
100
AcDbEntity
8
1
6
CONTINUOUS
62
5
100
AcDb2dPolyline
66
1
10
0.0
20
0.0
30
0.0
70
0
0
VERTEX
5
125
100
AcDbEntity
8
1
100
AcDbVertex
100
AcDb2dVertex
62
5
10
279.500000
20
335.250000
0
VERTEX
5
126
100
AcDbEntity
8
1
100
AcDbVertex
100
AcDb2dVertex
62
5
10
279.500000
20
331.500000
0
VERTEX
5
127
100
AcDbEntity
8
1
100
AcDbVertex
100
AcDb2dVertex
62
5
10
279.000000
20
330.875000
0
VERTEX
5
128
100
AcDbEntity
8
1
100
AcDbVertex
100
AcDb2dVertex
62
5
10
278.500000
20
330.875000
0
SEQEND
5
129
100
AcDbEntity
8
1
0
LINE
5
12a
100
AcDbEntity
8
1
100
AcDbLine
6
CONTINUOUS
62
5
10
276.250000
20
332.750000
11
277.250000
21
331.500000
0
POLYLINE
5
12b
100
AcDbEntity
8
1
6
CONTINUOUS
62
5
100
AcDb2dPolyline
66
1
10
0.0
20
0.0
30
0.0
70
0
0
VERTEX
5
12c
100
AcDbEntity
8
1
100
AcDbVertex
100
AcDb2dVertex
62
5
10
211.750000
20
339.312500
0
VERTEX
5
12d
100
AcDbEntity
8
1
100
AcDbVertex
100
AcDb2dVertex
62
5
10
211.250000
20
337.750000
0
VERTEX
5
12e
100
AcDbEntity
8
1
100
AcDbVertex
100
AcDb2dVertex
62
5
10
210.500000
20
336.500000
0
SEQEND
5
12f
100
AcDbEntity
8
1
0
LINE
5
130
100
AcDbEntity
8
1
100
AcDbLine
6
CONTINUOUS
62
5
10
211.250000
20
337.750000
11
213.500000
21
337.750000
0
POLYLINE
5
131
100
AcDbEntity
8
1
6
CONTINUOUS
62
5
100
AcDb2dPolyline
66
1
10
0.0
20
0.0
30
0.0
70
0
0
VERTEX
5
132
100
AcDbEntity
8
1
100
AcDbVertex
100
AcDb2dVertex
62
5
10
212.250000
20
337.750000
0
VERTEX
5
133
100
AcDbEntity
8
1
100
AcDbVertex
100
AcDb2dVertex
62
5
10
212.250000
20
334.000000
0
VERTEX
5
134
100
AcDbEntity
8
1
100
AcDbVertex
100
AcDb2dVertex
62
5
10
211.750000
20
332.750000
0
VERTEX
5
135
100
AcDbEntity
8
1
100
AcDbVertex
100
AcDb2dVertex
62
5
10
211.000000
20
331.812500
0
VERTEX
5
136
100
AcDbEntity
8
1
100
AcDbVertex
100
AcDb2dVertex
62
5
10
210.250000
20
331.187500
0
SEQEND
5
137
100
AcDbEntity
8
1
0
LINE
5
138
100
AcDbEntity
8
1
100
AcDbLine
6
CONTINUOUS
62
5
10
212.250000
20
334.000000
11
213.750000
21
332.437500
0
LINE
5
139
100
AcDbEntity
8
1
100
AcDbLine
6
CONTINUOUS
62
5
10
210.500000
20
335.250000
11
213.750000
21
335.250000
0
POLYLINE
5
13a
100
AcDbEntity
8
1
6
CONTINUOUS
62
5
100
AcDb2dPolyline
66
1
10
0.0
20
0.0
30
0.0
70
1
0
VERTEX
5
13b
100
AcDbEntity
8
1
100
AcDbVertex
100
AcDb2dVertex
62
5
10
214.750000
20
337.750000
0
VERTEX
5
13c
100
AcDbEntity
8
1
100
AcDbVertex
100
AcDb2dVertex
62
5
10
214.750000
20
332.437500
0
VERTEX
5
13d
100
AcDbEntity
8
1
100
AcDbVertex
100
AcDb2dVertex
62
5
10
216.750000
20
332.437500
0
VERTEX
5
13e
100
AcDbEntity
8
1
100
AcDbVertex
100
AcDb2dVertex
62
5
10
216.750000
20
337.750000
0
VERTEX
5
13f
100
AcDbEntity
8
1
100
AcDbVertex
100
AcDb2dVertex
62
5
10
214.750000
20
337.750000
0
SEQEND
5
140
100
AcDbEntity
8
1
0
LINE
5
141
100
AcDbEntity
8
1
100
AcDbLine
6
CONTINUOUS
62
5
10
218.500000
20
339.000000
11
222.000000
21
339.000000
0
LINE
5
142
100
AcDbEntity
8
1
100
AcDbLine
6
CONTINUOUS
62
5
10
218.250000
20
335.875000
11
222.500000
21
335.875000
0
POLYLINE
5
143
100
AcDbEntity
8
1
6
CONTINUOUS
62
5
100
AcDb2dPolyline
66
1
10
0.0
20
0.0
30
0.0
70
0
0
VERTEX
5
144
100
AcDbEntity
8
1
100
AcDbVertex
100
AcDb2dVertex
62
5
10
219.500000
20
339.000000
0
VERTEX
5
145
100
AcDbEntity
8
1
100
AcDbVertex
100
AcDb2dVertex
62
5
10
219.500000
20
334.625000
0
VERTEX
5
146
100
AcDbEntity
8
1
100
AcDbVertex
100
AcDb2dVertex
62
5
10
219.250000
20
332.437500
0
VERTEX
5
147
100
AcDbEntity
8
1
100
AcDbVertex
100
AcDb2dVertex
62
5
10
218.500000
20
330.562500
0
SEQEND
5
148
100
AcDbEntity
8
1
0
LINE
5
149
100
AcDbEntity
8
1
100
AcDbLine
6
CONTINUOUS
62
5
10
221.000000
20
339.000000
11
221.000000
21
330.562500
0
POLYLINE
5
14a
100
AcDbEntity
8
1
6
CONTINUOUS
62
5
100
AcDb2dPolyline
66
1
10
0.0
20
0.0
30
0.0
70
0
0
VERTEX
5
14b
100
AcDbEntity
8
1
100
AcDbVertex
100
AcDb2dVertex
62
5
10
224.750000
20
339.312500
0
VERTEX
5
14c
100
AcDbEntity
8
1
100
AcDbVertex
100
AcDb2dVertex
62
5
10
223.250000
20
337.750000
0
VERTEX
5
14d
100
AcDbEntity
8
1
100
AcDbVertex
100
AcDb2dVertex
62
5
10
222.000000
20
336.812500
0
SEQEND
5
14e
100
AcDbEntity
8
1
0
POLYLINE
5
14f
100
AcDbEntity
8
1
6
CONTINUOUS
62
5
100
AcDb2dPolyline
66
1
10
0.0
20
0.0
30
0.0
70
0
0
VERTEX
5
150
100
AcDbEntity
8
1
100
AcDbVertex
100
AcDb2dVertex
62
5
10
225.000000
20
336.812500
0
VERTEX
5
151
100
AcDbEntity
8
1
100
AcDbVertex
100
AcDb2dVertex
62
5
10
224.000000
20
335.562500
0
VERTEX
5
152
100
AcDbEntity
8
1
100
AcDbVertex
100
AcDb2dVertex
62
5
10
223.250000
20
334.937500
0
VERTEX
5
153
100
AcDbEntity
8
1
100
AcDbVertex
100
AcDb2dVertex
62
5
10
222.500000
20
334.312500
0
SEQEND
5
154
100
AcDbEntity
8
1
0
POLYLINE
5
155
100
AcDbEntity
8
1
6
CONTINUOUS
62
5
100
AcDb2dPolyline
66
1
10
0.0
20
0.0
30
0.0
70
0
0
VERTEX
5
156
100
AcDbEntity
8
1
100
AcDbVertex
100
AcDb2dVertex
62
5
10
225.250000
20
334.000000
0
VERTEX
5
157
100
AcDbEntity
8
1
100
AcDbVertex
100
AcDb2dVertex
62
5
10
224.500000
20
333.062500
0
VERTEX
5
158
100
AcDbEntity
8
1
100
AcDbVertex
100
AcDb2dVertex
62
5
10
223.750000
20
332.125000
0
VERTEX
5
159
100
AcDbEntity
8
1
100
AcDbVertex
100
AcDb2dVertex
62
5
10
222.250000
20
330.875000
0
SEQEND
5
15a
100
AcDbEntity
8
1
0
POLYLINE
5
15b
100
AcDbEntity
8
1
6
CONTINUOUS
62
5
100
AcDb2dPolyline
66
1
10
0.0
20
0.0
30
0.0
70
0
0
VERTEX
5
15c
100
AcDbEntity
8
1
100
AcDbVertex
100
AcDb2dVertex
62
5
10
194.750000
20
336.500000
0
VERTEX
5
15d
100
AcDbEntity
8
1
100
AcDbVertex
100
AcDb2dVertex
62
5
10
196.000000
20
338.062500
0
VERTEX
5
15e
100
AcDbEntity
8
1
100
AcDbVertex
100
AcDb2dVertex
62
5
10
196.750000
20
339.625000
0
SEQEND
5
15f
100
AcDbEntity
8
1
0
POLYLINE
5
160
100
AcDbEntity
8
1
6
CONTINUOUS
62
5
100
AcDb2dPolyline
66
1
10
0.0
20
0.0
30
0.0
70
0
0
VERTEX
5
161
100
AcDbEntity
8
1
100
AcDbVertex
100
AcDb2dVertex
62
5
10
196.500000
20
339.000000
0
VERTEX
5
162
100
AcDbEntity
8
1
100
AcDbVertex
100
AcDb2dVertex
62
5
10
199.750000
20
339.000000
0
VERTEX
5
163
100
AcDbEntity
8
1
100
AcDbVertex
100
AcDb2dVertex
62
5
10
198.500000
20
337.125000
0
VERTEX
5
164
100
AcDbEntity
8
1
100
AcDbVertex
100
AcDb2dVertex
62
5
10
198.500000
20
333.375000
0
SEQEND
5
165
100
AcDbEntity
8
1
0
POLYLINE
5
166
100
AcDbEntity
8
1
6
CONTINUOUS
62
5
100
AcDb2dPolyline
66
1
10
0.0
20
0.0
30
0.0
70
0
0
VERTEX
5
167
100
AcDbEntity
8
1
100
AcDbVertex
100
AcDb2dVertex
62
5
10
196.000000
20
337.125000
0
VERTEX
5
168
100
AcDbEntity
8
1
100
AcDbVertex
100
AcDb2dVertex
62
5
10
196.000000
20
333.375000
0
VERTEX
5
169
100
AcDbEntity
8
1
100
AcDbVertex
100
AcDb2dVertex
62
5
10
195.500000
20
331.812500
0
VERTEX
5
16a
100
AcDbEntity
8
1
100
AcDbVertex
100
AcDb2dVertex
62
5
10
194.750000
20
330.562500
0
SEQEND
5
16b
100
AcDbEntity
8
1
0
POLYLINE
5
16c
100
AcDbEntity
8
1
6
CONTINUOUS
62
5
100
AcDb2dPolyline
66
1
10
0.0
20
0.0
30
0.0
70
0
0
VERTEX
5
16d
100
AcDbEntity
8
1
100
AcDbVertex
100
AcDb2dVertex
62
5
10
196.000000
20
337.125000
0
VERTEX
5
16e
100
AcDbEntity
8
1
100
AcDbVertex
100
AcDb2dVertex
62
5
10
201.000000
20
337.125000
0
VERTEX
5
16f
100
AcDbEntity
8
1
100
AcDbVertex
100
AcDb2dVertex
62
5
10
201.000000
20
330.875000
0
VERTEX
5
170
100
AcDbEntity
8
1
100
AcDbVertex
100
AcDb2dVertex
62
5
10
200.750000
20
330.562500
0
VERTEX
5
171
100
AcDbEntity
8
1
100
AcDbVertex
100
AcDb2dVertex
62
5
10
200.000000
20
330.562500
0
SEQEND
5
172
100
AcDbEntity
8
1
0
LINE
5
173
100
AcDbEntity
8
1
100
AcDbLine
6
CONTINUOUS
62
5
10
196.000000
20
335.250000
11
201.000000
21
335.250000
0
LINE
5
174
100
AcDbEntity
8
1
100
AcDbLine
6
CONTINUOUS
62
5
10
196.000000
20
333.375000
11
201.000000
21
333.375000
0
LINE
5
175
100
AcDbEntity
8
1
100
AcDbLine
6
CONTINUOUS
62
5
10
202.250000
20
337.125000
11
204.750000
21
337.125000
0
LINE
5
176
100
AcDbEntity
8
1
100
AcDbLine
6
CONTINUOUS
62
5
10
203.750000
20
339.312500
11
203.750000
21
330.562500
0
POLYLINE
5
177
100
AcDbEntity
8
1
6
CONTINUOUS
62
5
100
AcDb2dPolyline
66
1
10
0.0
20
0.0
30
0.0
70
0
0
VERTEX
5
178
100
AcDbEntity
8
1
100
AcDbVertex
100
AcDb2dVertex
62
5
10
203.750000
20
337.125000
0
VERTEX
5
179
100
AcDbEntity
8
1
100
AcDbVertex
100
AcDb2dVertex
62
5
10
203.250000
20
335.250000
0
VERTEX
5
17a
100
AcDbEntity
8
1
100
AcDbVertex
100
AcDb2dVertex
62
5
10
202.750000
20
334.000000
0
VERTEX
5
17b
100
AcDbEntity
8
1
100
AcDbVertex
100
AcDb2dVertex
62
5
10
202.250000
20
333.062500
0
SEQEND
5
17c
100
AcDbEntity
8
1
0
LINE
5
17d
100
AcDbEntity
8
1
100
AcDbLine
6
CONTINUOUS
62
5
10
203.750000
20
336.187500
11
204.750000
21
334.312500
0
POLYLINE
5
17e
100
AcDbEntity
8
1
6
CONTINUOUS
62
5
100
AcDb2dPolyline
66
1
10
0.0
20
0.0
30
0.0
70
0
0
VERTEX
5
17f
100
AcDbEntity
8
1
100
AcDbVertex
100
AcDb2dVertex
62
5
10
204.750000
20
336.500000
0
VERTEX
5
180
100
AcDbEntity
8
1
100
AcDbVertex
100
AcDb2dVertex
62
5
10
205.750000
20
337.750000
0
VERTEX
5
181
100
AcDbEntity
8
1
100
AcDbVertex
100
AcDb2dVertex
62
5
10
206.750000
20
339.312500
0
VERTEX
5
182
100
AcDbEntity
8
1
100
AcDbVertex
100
AcDb2dVertex
62
5
10
207.750000
20
337.750000
0
VERTEX
5
183
100
AcDbEntity
8
1
100
AcDbVertex
100
AcDb2dVertex
62
5
10
209.250000
20
336.500000
0
SEQEND
5
184
100
AcDbEntity
8
1
0
LINE
5
185
100
AcDbEntity
8
1
100
AcDbLine
6
CONTINUOUS
62
5
10
205.500000
20
336.812500
11
208.000000
21
336.812500
0
POLYLINE
5
186
100
AcDbEntity
8
1
6
CONTINUOUS
62
5
100
AcDb2dPolyline
66
1
10
0.0
20
0.0
30
0.0
70
1
0
VERTEX
5
187
100
AcDbEntity
8
1
100
AcDbVertex
100
AcDb2dVertex
62
5
10
205.250000
20
335.562500
0
VERTEX
5
188
100
AcDbEntity
8
1
100
AcDbVertex
100
AcDb2dVertex
62
5
10
205.250000
20
334.000000
0
VERTEX
5
189
100
AcDbEntity
8
1
100
AcDbVertex
100
AcDb2dVertex
62
5
10
208.250000
20
334.000000
0
VERTEX
5
18a
100
AcDbEntity
8
1
100
AcDbVertex
100
AcDb2dVertex
62
5
10
208.250000
20
335.562500
0
VERTEX
5
18b
100
AcDbEntity
8
1
100
AcDbVertex
100
AcDb2dVertex
62
5
10
205.250000
20
335.562500
0
SEQEND
5
18c
100
AcDbEntity
8
1
0
POLYLINE
5
18d
100
AcDbEntity
8
1
6
CONTINUOUS
62
5
100
AcDb2dPolyline
66
1
10
0.0
20
0.0
30
0.0
70
0
0
VERTEX
5
18e
100
AcDbEntity
8
1
100
AcDbVertex
100
AcDb2dVertex
62
5
10
206.750000
20
336.812500
0
VERTEX
5
18f
100
AcDbEntity
8
1
100
AcDbVertex
100
AcDb2dVertex
62
5
10
206.750000
20
334.000000
0
VERTEX
5
190
100
AcDbEntity
8
1
100
AcDbVertex
100
AcDb2dVertex
62
5
10
206.250000
20
332.437500
0
VERTEX
5
191
100
AcDbEntity
8
1
100
AcDbVertex
100
AcDb2dVertex
62
5
10
205.500000
20
331.500000
0
VERTEX
5
192
100
AcDbEntity
8
1
100
AcDbVertex
100
AcDb2dVertex
62
5
10
204.750000
20
330.875000
0
SEQEND
5
193
100
AcDbEntity
8
1
0
POLYLINE
5
194
100
AcDbEntity
8
1
6
CONTINUOUS
62
5
100
AcDb2dPolyline
66
1
10
0.0
20
0.0
30
0.0
70
0
0
VERTEX
5
195
100
AcDbEntity
8
1
100
AcDbVertex
100
AcDb2dVertex
62
5
10
206.750000
20
334.000000
0
VERTEX
5
196
100
AcDbEntity
8
1
100
AcDbVertex
100
AcDb2dVertex
62
5
10
207.250000
20
332.437500
0
VERTEX
5
197
100
AcDbEntity
8
1
100
AcDbVertex
100
AcDb2dVertex
62
5
10
208.000000
20
331.500000
0
VERTEX
5
198
100
AcDbEntity
8
1
100
AcDbVertex
100
AcDb2dVertex
62
5
10
209.000000
20
330.875000
0
SEQEND
5
199
100
AcDbEntity
8
1
0
LINE
5
19a
100
AcDbEntity
8
1
100
AcDbLine
6
CONTINUOUS
62
5
10
164.250000
20
335.562500
11
164.500000
21
334.312500
0
LINE
5
19b
100
AcDbEntity
8
1
100
AcDbLine
6
CONTINUOUS
62
5
10
165.750000
20
335.875000
11
166.000000
21
334.625000
0
POLYLINE
5
19c
100
AcDbEntity
8
1
6
CONTINUOUS
62
5
100
AcDb2dPolyline
66
1
10
0.0
20
0.0
30
0.0
70
0
0
VERTEX
5
19d
100
AcDbEntity
8
1
100
AcDbVertex
100
AcDb2dVertex
62
5
10
167.750000
20
335.875000
0
VERTEX
5
19e
100
AcDbEntity
8
1
100
AcDbVertex
100
AcDb2dVertex
62
5
10
167.500000
20
334.312500
0
VERTEX
5
19f
100
AcDbEntity
8
1
100
AcDbVertex
100
AcDb2dVertex
62
5
10
166.250000
20
332.437500
0
VERTEX
5
1a0
100
AcDbEntity
8
1
100
AcDbVertex
100
AcDb2dVertex
62
5
10
165.250000
20
331.500000
0
SEQEND
5
1a1
100
AcDbEntity
8
1
0
LINE
5
1a2
100
AcDbEntity
8
1
100
AcDbLine
6
CONTINUOUS
62
5
10
172.000000
20
337.437500
11
175.750000
21
338.062500
0
LINE
5
1a3
100
AcDbEntity
8
1
100
AcDbLine
6
CONTINUOUS
62
5
10
170.750000
20
335.562500
11
176.750000
21
335.562500
0
POLYLINE
5
1a4
100
AcDbEntity
8
1
6
CONTINUOUS
62
5
100
AcDb2dPolyline
66
1
10
0.0
20
0.0
30
0.0
70
0
0
VERTEX
5
1a5
100
AcDbEntity
8
1
100
AcDbVertex
100
AcDb2dVertex
62
5
10
174.000000
20
337.750000
0
VERTEX
5
1a6
100
AcDbEntity
8
1
100
AcDbVertex
100
AcDb2dVertex
62
5
10
174.000000
20
335.562500
0
VERTEX
5
1a7
100
AcDbEntity
8
1
100
AcDbVertex
100
AcDb2dVertex
62
5
10
173.750000
20
334.000000
0
VERTEX
5
1a8
100
AcDbEntity
8
1
100
AcDbVertex
100
AcDb2dVertex
62
5
10
173.000000
20
332.750000
0
VERTEX
5
1a9
100
AcDbEntity
8
1
100
AcDbVertex
100
AcDb2dVertex
62
5
10
172.250000
20
331.812500
0
SEQEND
5
1aa
100
AcDbEntity
8
1
0
POLYLINE
5
1ab
100
AcDbEntity
8
1
6
CONTINUOUS
62
5
100
AcDb2dPolyline
66
1
10
0.0
20
0.0
30
0.0
70
0
0
VERTEX
5
1ac
100
AcDbEntity
8
1
100
AcDbVertex
100
AcDb2dVertex
62
5
10
159.750000
20
338.687500
0
VERTEX
5
1ad
100
AcDbEntity
8
1
100
AcDbVertex
100
AcDb2dVertex
62
5
10
157.750000
20
336.187500
0
VERTEX
5
1ae
100
AcDbEntity
8
1
100
AcDbVertex
100
AcDb2dVertex
62
5
10
155.500000
20
334.625000
0
SEQEND
5
1af
100
AcDbEntity
8
1
0
LINE
5
1b0
100
AcDbEntity
8
1
100
AcDbLine
6
CONTINUOUS
62
5
10
158.250000
20
336.812500
11
158.250000
21
331.500000
0
LINE
5
1b1
100
AcDbEntity
8
1
100
AcDbLine
6
CONTINUOUS
62
5
10
190.250000
20
339.625000
11
190.250000
21
338.062500
0
POLYLINE
5
1b2
100
AcDbEntity
8
1
6
CONTINUOUS
62
5
100
AcDb2dPolyline
66
1
10
0.0
20
0.0
30
0.0
70
0
0
VERTEX
5
1b3
100
AcDbEntity
8
1
100
AcDbVertex
100
AcDb2dVertex
62
5
10
193.250000
20
338.062500
0
VERTEX
5
1b4
100
AcDbEntity
8
1
100
AcDbVertex
100
AcDb2dVertex
62
5
10
187.500000
20
338.062500
0
VERTEX
5
1b5
100
AcDbEntity
8
1
100
AcDbVertex
100
AcDb2dVertex
62
5
10
187.500000
20
334.312500
0
VERTEX
5
1b6
100
AcDbEntity
8
1
100
AcDbVertex
100
AcDb2dVertex
62
5
10
187.000000
20
332.125000
0
VERTEX
5
1b7
100
AcDbEntity
8
1
100
AcDbVertex
100
AcDb2dVertex
62
5
10
186.500000
20
331.187500
0
SEQEND
5
1b8
100
AcDbEntity
8
1
0
LINE
5
1b9
100
AcDbEntity
8
1
100
AcDbLine
6
CONTINUOUS
62
5
10
190.250000
20
336.812500
11
188.500000
21
331.812500
0
POLYLINE
5
1ba
100
AcDbEntity
8
1
6
CONTINUOUS
62
5
100
AcDb2dPolyline
66
1
10
0.0
20
0.0
30
0.0
70
0
0
VERTEX
5
1bb
100
AcDbEntity
8
1
100
AcDbVertex
100
AcDb2dVertex
62
5
10
187.750000
20
331.812500
0
VERTEX
5
1bc
100
AcDbEntity
8
1
100
AcDbVertex
100
AcDb2dVertex
62
5
10
188.500000
20
331.812500
0
VERTEX
5
1bd
100
AcDbEntity
8
1
100
AcDbVertex
100
AcDb2dVertex
62
5
10
192.250000
20
332.750000
0
SEQEND
5
1be
100
AcDbEntity
8
1
0
LINE
5
1bf
100
AcDbEntity
8
1
100
AcDbLine
6
CONTINUOUS
62
5
10
191.500000
20
334.000000
11
193.000000
21
331.812500
0
LINE
5
1c0
100
AcDbEntity
8
1
100
AcDbLine
6
CONTINUOUS
62
5
10
234.250000
20
337.125000
11
236.250000
21
337.125000
0
LINE
5
1c1
100
AcDbEntity
8
1
100
AcDbLine
6
CONTINUOUS
62
5
10
234.250000
20
334.000000
11
236.250000
21
335.562500
0
POLYLINE
5
1c2
100
AcDbEntity
8
1
6
CONTINUOUS
62
5
100
AcDb2dPolyline
66
1
10
0.0
20
0.0
30
0.0
70
0
0
VERTEX
5
1c3
100
AcDbEntity
8
1
100
AcDbVertex
100
AcDb2dVertex
62
5
10
235.250000
20
339.312500
0
VERTEX
5
1c4
100
AcDbEntity
8
1
100
AcDbVertex
100
AcDb2dVertex
62
5
10
235.250000
20
330.875000
0
VERTEX
5
1c5
100
AcDbEntity
8
1
100
AcDbVertex
100
AcDb2dVertex
62
5
10
234.750000
20
330.875000
0
SEQEND
5
1c6
100
AcDbEntity
8
1
0
LINE
5
1c7
100
AcDbEntity
8
1
100
AcDbLine
6
CONTINUOUS
62
5
10
236.750000
20
337.750000
11
237.750000
21
339.625000
0
POLYLINE
5
1c8
100
AcDbEntity
8
1
6
CONTINUOUS
62
5
100
AcDb2dPolyline
66
1
10
0.0
20
0.0
30
0.0
70
0
0
VERTEX
5
1c9
100
AcDbEntity
8
1
100
AcDbVertex
100
AcDb2dVertex
62
5
10
237.500000
20
339.000000
0
VERTEX
5
1ca
100
AcDbEntity
8
1
100
AcDbVertex
100
AcDb2dVertex
62
5
10
239.500000
20
339.000000
0
VERTEX
5
1cb
100
AcDbEntity
8
1
100
AcDbVertex
100
AcDb2dVertex
62
5
10
238.500000
20
337.125000
0
SEQEND
5
1cc
100
AcDbEntity
8
1
0
POLYLINE
5
1cd
100
AcDbEntity
8
1
6
CONTINUOUS
62
5
100
AcDb2dPolyline
66
1
10
0.0
20
0.0
30
0.0
70
0
0
VERTEX
5
1ce
100
AcDbEntity
8
1
100
AcDbVertex
100
AcDb2dVertex
62
5
10
237.000000
20
334.312500
0
VERTEX
5
1cf
100
AcDbEntity
8
1
100
AcDbVertex
100
AcDb2dVertex
62
5
10
237.000000
20
337.125000
0
VERTEX
5
1d0
100
AcDbEntity
8
1
100
AcDbVertex
100
AcDb2dVertex
62
5
10
240.500000
20
337.125000
0
VERTEX
5
1d1
100
AcDbEntity
8
1
100
AcDbVertex
100
AcDb2dVertex
62
5
10
240.500000
20
334.312500
0
SEQEND
5
1d2
100
AcDbEntity
8
1
0
POLYLINE
5
1d3
100
AcDbEntity
8
1
6
CONTINUOUS
62
5
100
AcDb2dPolyline
66
1
10
0.0
20
0.0
30
0.0
70
0
0
VERTEX
5
1d4
100
AcDbEntity
8
1
100
AcDbVertex
100
AcDb2dVertex
62
5
10
238.250000
20
337.125000
0
VERTEX
5
1d5
100
AcDbEntity
8
1
100
AcDbVertex
100
AcDb2dVertex
62
5
10
238.250000
20
335.875000
0
VERTEX
5
1d6
100
AcDbEntity
8
1
100
AcDbVertex
100
AcDb2dVertex
62
5
10
237.500000
20
334.937500
0
SEQEND
5
1d7
100
AcDbEntity
8
1
0
POLYLINE
5
1d8
100
AcDbEntity
8
1
6
CONTINUOUS
62
5
100
AcDb2dPolyline
66
1
10
0.0
20
0.0
30
0.0
70
0
0
VERTEX
5
1d9
100
AcDbEntity
8
1
100
AcDbVertex
100
AcDb2dVertex
62
5
10
239.250000
20
337.125000
0
VERTEX
5
1da
100
AcDbEntity
8
1
100
AcDbVertex
100
AcDb2dVertex
62
5
10
239.250000
20
334.937500
0
VERTEX
5
1db
100
AcDbEntity
8
1
100
AcDbVertex
100
AcDb2dVertex
62
5
10
240.250000
20
334.937500
0
SEQEND
5
1dc
100
AcDbEntity
8
1
0
LINE
5
1dd
100
AcDbEntity
8
1
100
AcDbLine
6
CONTINUOUS
62
5
10
236.000000
20
333.375000
11
241.500000
21
333.375000
0
POLYLINE
5
1de
100
AcDbEntity
8
1
6
CONTINUOUS
62
5
100
AcDb2dPolyline
66
1
10
0.0
20
0.0
30
0.0
70
0
0
VERTEX
5
1df
100
AcDbEntity
8
1
100
AcDbVertex
100
AcDb2dVertex
62
5
10
238.500000
20
334.625000
0
VERTEX
5
1e0
100
AcDbEntity
8
1
100
AcDbVertex
100
AcDb2dVertex
62
5
10
238.500000
20
333.375000
0
VERTEX
5
1e1
100
AcDbEntity
8
1
100
AcDbVertex
100
AcDb2dVertex
62
5
10
238.000000
20
332.125000
0
VERTEX
5
1e2
100
AcDbEntity
8
1
100
AcDbVertex
100
AcDb2dVertex
62
5
10
237.250000
20
331.187500
0
VERTEX
5
1e3
100
AcDbEntity
8
1
100
AcDbVertex
100
AcDb2dVertex
62
5
10
236.000000
20
330.562500
0
SEQEND
5
1e4
100
AcDbEntity
8
1
0
POLYLINE
5
1e5
100
AcDbEntity
8
1
6
CONTINUOUS
62
5
100
AcDb2dPolyline
66
1
10
0.0
20
0.0
30
0.0
70
0
0
VERTEX
5
1e6
100
AcDbEntity
8
1
100
AcDbVertex
100
AcDb2dVertex
62
5
10
238.500000
20
333.375000
0
VERTEX
5
1e7
100
AcDbEntity
8
1
100
AcDbVertex
100
AcDb2dVertex
62
5
10
239.250000
20
332.125000
0
VERTEX
5
1e8
100
AcDbEntity
8
1
100
AcDbVertex
100
AcDb2dVertex
62
5
10
240.250000
20
331.187500
0
VERTEX
5
1e9
100
AcDbEntity
8
1
100
AcDbVertex
100
AcDb2dVertex
62
5
10
241.250000
20
330.562500
0
SEQEND
5
1ea
100
AcDbEntity
8
1
0
LINE
5
1eb
100
AcDbEntity
8
1
100
AcDbLine
6
DOT2
62
5
10
246.925000
20
261.875540
11
246.300000
21
261.250540
0
POLYLINE
5
1ec
100
AcDbEntity
8
1
6
DOT2
62
5
100
AcDb2dPolyline
66
1
10
0.0
20
0.0
30
0.0
70
0
0
VERTEX
5
1ed
100
AcDbEntity
8
1
100
AcDbVertex
100
AcDb2dVertex
62
5
10
246.300000
20
261.875540
0
VERTEX
5
1ee
100
AcDbEntity
8
1
100
AcDbVertex
100
AcDb2dVertex
62
5
10
246.925000
20
261.250540
0
VERTEX
5
1ef
100
AcDbEntity
8
1
100
AcDbVertex
100
AcDb2dVertex
62
5
10
246.300000
20
261.250540
0
VERTEX
5
1f0
100
AcDbEntity
8
1
100
AcDbVertex
100
AcDb2dVertex
62
5
10
246.300000
20
261.875540
0
VERTEX
5
1f1
100
AcDbEntity
8
1
100
AcDbVertex
100
AcDb2dVertex
62
5
10
246.925000
20
261.875540
0
VERTEX
5
1f2
100
AcDbEntity
8
1
100
AcDbVertex
100
AcDb2dVertex
62
5
10
246.925000
20
261.250540
0
SEQEND
5
1f3
100
AcDbEntity
8
1
0
POLYLINE
5
1f4
100
AcDbEntity
8
1
6
DOT2
62
5
100
AcDb2dPolyline
66
1
10
0.0
20
0.0
30
0.0
70
0
0
VERTEX
5
1f5
100
AcDbEntity
8
1
100
AcDbVertex
100
AcDb2dVertex
62
5
10
251.300000
20
266.875540
0
VERTEX
5
1f6
100
AcDbEntity
8
1
100
AcDbVertex
100
AcDb2dVertex
62
5
10
251.612500
20
268.125540
0
VERTEX
5
1f7
100
AcDbEntity
8
1
100
AcDbVertex
100
AcDb2dVertex
62
5
10
252.237500
20
268.750540
0
VERTEX
5
1f8
100
AcDbEntity
8
1
100
AcDbVertex
100
AcDb2dVertex
62
5
10
253.175000
20
268.750540
0
VERTEX
5
1f9
100
AcDbEntity
8
1
100
AcDbVertex
100
AcDb2dVertex
62
5
10
253.800000
20
268.438040
0
VERTEX
5
1fa
100
AcDbEntity
8
1
100
AcDbVertex
100
AcDb2dVertex
62
5
10
254.112500
20
267.500540
0
VERTEX
5
1fb
100
AcDbEntity
8
1
100
AcDbVertex
100
AcDb2dVertex
62
5
10
254.112500
20
266.250540
0
VERTEX
5
1fc
100
AcDbEntity
8
1
100
AcDbVertex
100
AcDb2dVertex
62
5
10
253.800000
20
265.625540
0
VERTEX
5
1fd
100
AcDbEntity
8
1
100
AcDbVertex
100
AcDb2dVertex
62
5
10
253.175000
20
265.000540
0
VERTEX
5
1fe
100
AcDbEntity
8
1
100
AcDbVertex
100
AcDb2dVertex
62
5
10
252.237500
20
265.000540
0
SEQEND
5
1ff
100
AcDbEntity
8
1
0
POLYLINE
5
200
100
AcDbEntity
8
1
6
DOT2
62
5
100
AcDb2dPolyline
66
1
10
0.0
20
0.0
30
0.0
70
0
0
VERTEX
5
201
100
AcDbEntity
8
1
100
AcDbVertex
100
AcDb2dVertex
62
5
10
253.175000
20
265.000540
0
VERTEX
5
202
100
AcDbEntity
8
1
100
AcDbVertex
100
AcDb2dVertex
62
5
10
254.112500
20
264.375540
0
VERTEX
5
203
100
AcDbEntity
8
1
100
AcDbVertex
100
AcDb2dVertex
62
5
10
254.425000
20
263.438040
0
VERTEX
5
204
100
AcDbEntity
8
1
100
AcDbVertex
100
AcDb2dVertex
62
5
10
254.425000
20
262.500540
0
VERTEX
5
205
100
AcDbEntity
8
1
100
AcDbVertex
100
AcDb2dVertex
62
5
10
254.112500
20
261.875540
0
VERTEX
5
206
100
AcDbEntity
8
1
100
AcDbVertex
100
AcDb2dVertex
62
5
10
253.175000
20
261.250540
0
VERTEX
5
207
100
AcDbEntity
8
1
100
AcDbVertex
100
AcDb2dVertex
62
5
10
252.237500
20
261.250540
0
VERTEX
5
208
100
AcDbEntity
8
1
100
AcDbVertex
100
AcDb2dVertex
62
5
10
251.612500
20
261.563040
0
VERTEX
5
209
100
AcDbEntity
8
1
100
AcDbVertex
100
AcDb2dVertex
62
5
10
250.987500
20
262.500540
0
SEQEND
5
20a
100
AcDbEntity
8
1
0
POLYLINE
5
20b
100
AcDbEntity
8
1
6
DOT2
62
5
100
AcDb2dPolyline
66
1
10
0.0
20
0.0
30
0.0
70
0
0
VERTEX
5
20c
100
AcDbEntity
8
1
100
AcDbVertex
100
AcDb2dVertex
62
5
10
236.300000
20
267.813040
0
VERTEX
5
20d
100
AcDbEntity
8
1
100
AcDbVertex
100
AcDb2dVertex
62
5
10
236.300000
20
268.750540
0
VERTEX
5
20e
100
AcDbEntity
8
1
100
AcDbVertex
100
AcDb2dVertex
62
5
10
239.425000
20
268.750540
0
VERTEX
5
20f
100
AcDbEntity
8
1
100
AcDbVertex
100
AcDb2dVertex
62
5
10
239.425000
20
268.125540
0
VERTEX
5
210
100
AcDbEntity
8
1
100
AcDbVertex
100
AcDb2dVertex
62
5
10
238.800000
20
266.563040
0
VERTEX
5
211
100
AcDbEntity
8
1
100
AcDbVertex
100
AcDb2dVertex
62
5
10
238.175000
20
264.375540
0
VERTEX
5
212
100
AcDbEntity
8
1
100
AcDbVertex
100
AcDb2dVertex
62
5
10
237.550000
20
261.250540
0
SEQEND
5
213
100
AcDbEntity
8
1
0
POLYLINE
5
214
100
AcDbEntity
8
1
6
DOT2
62
5
100
AcDb2dPolyline
66
1
10
0.0
20
0.0
30
0.0
70
1
0
VERTEX
5
215
100
AcDbEntity
8
1
100
AcDbVertex
100
AcDb2dVertex
62
5
10
242.550000
20
268.750540
0
VERTEX
5
216
100
AcDbEntity
8
1
100
AcDbVertex
100
AcDb2dVertex
62
5
10
243.175000
20
268.750540
0
VERTEX
5
217
100
AcDbEntity
8
1
100
AcDbVertex
100
AcDb2dVertex
62
5
10
243.487500
20
268.438040
0
VERTEX
5
218
100
AcDbEntity
8
1
100
AcDbVertex
100
AcDb2dVertex
62
5
10
244.112500
20
267.188040
0
VERTEX
5
219
100
AcDbEntity
8
1
100
AcDbVertex
100
AcDb2dVertex
62
5
10
244.425000
20
265.938040
0
VERTEX
5
21a
100
AcDbEntity
8
1
100
AcDbVertex
100
AcDb2dVertex
62
5
10
244.425000
20
264.063040
0
VERTEX
5
21b
100
AcDbEntity
8
1
100
AcDbVertex
100
AcDb2dVertex
62
5
10
244.112500
20
262.813040
0
VERTEX
5
21c
100
AcDbEntity
8
1
100
AcDbVertex
100
AcDb2dVertex
62
5
10
243.487500
20
261.563040
0
VERTEX
5
21d
100
AcDbEntity
8
1
100
AcDbVertex
100
AcDb2dVertex
62
5
10
243.175000
20
261.250540
0
VERTEX
5
21e
100
AcDbEntity
8
1
100
AcDbVertex
100
AcDb2dVertex
62
5
10
242.550000
20
261.250540
0
VERTEX
5
21f
100
AcDbEntity
8
1
100
AcDbVertex
100
AcDb2dVertex
62
5
10
242.237500
20
261.563040
0
VERTEX
5
220
100
AcDbEntity
8
1
100
AcDbVertex
100
AcDb2dVertex
62
5
10
241.612500
20
262.813040
0
VERTEX
5
221
100
AcDbEntity
8
1
100
AcDbVertex
100
AcDb2dVertex
62
5
10
241.300000
20
264.063040
0
VERTEX
5
222
100
AcDbEntity
8
1
100
AcDbVertex
100
AcDb2dVertex
62
5
10
241.300000
20
265.938040
0
VERTEX
5
223
100
AcDbEntity
8
1
100
AcDbVertex
100
AcDb2dVertex
62
5
10
241.612500
20
267.188040
0
VERTEX
5
224
100
AcDbEntity
8
1
100
AcDbVertex
100
AcDb2dVertex
62
5
10
242.237500
20
268.438040
0
VERTEX
5
225
100
AcDbEntity
8
1
100
AcDbVertex
100
AcDb2dVertex
62
5
10
242.550000
20
268.750540
0
SEQEND
5
226
100
AcDbEntity
8
1
0
POLYLINE
5
227
100
AcDbEntity
8
1
6
DOT2
62
5
100
AcDb2dPolyline
66
1
10
0.0
20
0.0
30
0.0
70
1
0
VERTEX
5
228
100
AcDbEntity
8
1
100
AcDbVertex
100
AcDb2dVertex
62
5
10
237.400000
20
243.750540
0
VERTEX
5
229
100
AcDbEntity
8
1
100
AcDbVertex
100
AcDb2dVertex
62
5
10
238.025000
20
243.750540
0
VERTEX
5
22a
100
AcDbEntity
8
1
100
AcDbVertex
100
AcDb2dVertex
62
5
10
238.337500
20
243.438040
0
VERTEX
5
22b
100
AcDbEntity
8
1
100
AcDbVertex
100
AcDb2dVertex
62
5
10
238.962500
20
242.188040
0
VERTEX
5
22c
100
AcDbEntity
8
1
100
AcDbVertex
100
AcDb2dVertex
62
5
10
239.275000
20
240.938040
0
VERTEX
5
22d
100
AcDbEntity
8
1
100
AcDbVertex
100
AcDb2dVertex
62
5
10
239.275000
20
239.063040
0
VERTEX
5
22e
100
AcDbEntity
8
1
100
AcDbVertex
100
AcDb2dVertex
62
5
10
238.962500
20
237.813040
0
VERTEX
5
22f
100
AcDbEntity
8
1
100
AcDbVertex
100
AcDb2dVertex
62
5
10
238.337500
20
236.563040
0
VERTEX
5
230
100
AcDbEntity
8
1
100
AcDbVertex
100
AcDb2dVertex
62
5
10
238.025000
20
236.250540
0
VERTEX
5
231
100
AcDbEntity
8
1
100
AcDbVertex
100
AcDb2dVertex
62
5
10
237.400000
20
236.250540
0
VERTEX
5
232
100
AcDbEntity
8
1
100
AcDbVertex
100
AcDb2dVertex
62
5
10
237.087500
20
236.563040
0
VERTEX
5
233
100
AcDbEntity
8
1
100
AcDbVertex
100
AcDb2dVertex
62
5
10
236.462500
20
237.813040
0
VERTEX
5
234
100
AcDbEntity
8
1
100
AcDbVertex
100
AcDb2dVertex
62
5
10
236.150000
20
239.063040
0
VERTEX
5
235
100
AcDbEntity
8
1
100
AcDbVertex
100
AcDb2dVertex
62
5
10
236.150000
20
240.938040
0
VERTEX
5
236
100
AcDbEntity
8
1
100
AcDbVertex
100
AcDb2dVertex
62
5
10
236.462500
20
242.188040
0
VERTEX
5
237
100
AcDbEntity
8
1
100
AcDbVertex
100
AcDb2dVertex
62
5
10
237.087500
20
243.438040
0
VERTEX
5
238
100
AcDbEntity
8
1
100
AcDbVertex
100
AcDb2dVertex
62
5
10
237.400000
20
243.750540
0
SEQEND
5
239
100
AcDbEntity
8
1
0
LINE
5
23a
100
AcDbEntity
8
1
100
AcDbLine
6
CONTINUOUS
62
5
10
260.100000
20
190.519552
11
259.900000
21
190.519552
0
LINE
5
23b
100
AcDbEntity
8
1
100
AcDbLine
6
CONTINUOUS
62
5
10
259.900000
20
191.200539
11
260.100000
21
191.200539
0
POLYLINE
5
23c
100
AcDbEntity
8
1
6
CONTINUOUS
62
5
100
AcDb2dPolyline
66
1
10
0.0
20
0.0
30
0.0
70
0
0
VERTEX
5
23d
100
AcDbEntity
8
1
100
AcDbVertex
100
AcDb2dVertex
62
5
10
259.900000
20
184.949289
0
VERTEX
5
23e
100
AcDbEntity
8
1
100
AcDbVertex
100
AcDb2dVertex
62
5
10
259.899741
20
184.959947
0
VERTEX
5
23f
100
AcDbEntity
8
1
100
AcDbVertex
100
AcDb2dVertex
62
5
10
259.898936
20
184.970605
0
VERTEX
5
240
100
AcDbEntity
8
1
100
AcDbVertex
100
AcDb2dVertex
62
5
10
259.897578
20
184.981256
0
VERTEX
5
241
100
AcDbEntity
8
1
100
AcDbVertex
100
AcDb2dVertex
62
5
10
259.895667
20
184.991896
0
VERTEX
5
242
100
AcDbEntity
8
1
100
AcDbVertex
100
AcDb2dVertex
62
5
10
259.893205
20
185.002520
0
VERTEX
5
243
100
AcDbEntity
8
1
100
AcDbVertex
100
AcDb2dVertex
62
5
10
259.890192
20
185.013121
0
VERTEX
5
244
100
AcDbEntity
8
1
100
AcDbVertex
100
AcDb2dVertex
62
5
10
259.886631
20
185.023694
0
VERTEX
5
245
100
AcDbEntity
8
1
100
AcDbVertex
100
AcDb2dVertex
62
5
10
259.882521
20
185.034233
0
VERTEX
5
246
100
AcDbEntity
8
1
100
AcDbVertex
100
AcDb2dVertex
62
5
10
259.877863
20
185.044733
0
VERTEX
5
247
100
AcDbEntity
8
1
100
AcDbVertex
100
AcDb2dVertex
62
5
10
259.872659
20
185.055188
0
VERTEX
5
248
100
AcDbEntity
8
1
100
AcDbVertex
100
AcDb2dVertex
62
5
10
259.866909
20
185.065594
0
VERTEX
5
249
100
AcDbEntity
8
1
100
AcDbVertex
100
AcDb2dVertex
62
5
10
259.860614
20
185.075943
0
VERTEX
5
24a
100
AcDbEntity
8
1
100
AcDbVertex
100
AcDb2dVertex
62
5
10
259.853775
20
185.086231
0
VERTEX
5
24b
100
AcDbEntity
8
1
100
AcDbVertex
100
AcDb2dVertex
62
5
10
259.846394
20
185.096452
0
VERTEX
5
24c
100
AcDbEntity
8
1
100
AcDbVertex
100
AcDb2dVertex
62
5
10
259.838473
20
185.106600
0
VERTEX
5
24d
100
AcDbEntity
8
1
100
AcDbVertex
100
AcDb2dVertex
62
5
10
259.830013
20
185.116670
0
VERTEX
5
24e
100
AcDbEntity
8
1
100
AcDbVertex
100
AcDb2dVertex
62
5
10
259.821018
20
185.126656
0
VERTEX
5
24f
100
AcDbEntity
8
1
100
AcDbVertex
100
AcDb2dVertex
62
5
10
259.811491
20
185.136552
0
VERTEX
5
250
100
AcDbEntity
8
1
100
AcDbVertex
100
AcDb2dVertex
62
5
10
259.801433
20
185.146352
0
VERTEX
5
251
100
AcDbEntity
8
1
100
AcDbVertex
100
AcDb2dVertex
62
5
10
259.790848
20
185.156051
0
VERTEX
5
252
100
AcDbEntity
8
1
100
AcDbVertex
100
AcDb2dVertex
62
5
10
259.779738
20
185.165643
0
VERTEX
5
253
100
AcDbEntity
8
1
100
AcDbVertex
100
AcDb2dVertex
62
5
10
259.768106
20
185.175123
0
VERTEX
5
254
100
AcDbEntity
8
1
100
AcDbVertex
100
AcDb2dVertex
62
5
10
259.755954
20
185.184483
0
VERTEX
5
255
100
AcDbEntity
8
1
100
AcDbVertex
100
AcDb2dVertex
62
5
10
259.743285
20
185.193719
0
VERTEX
5
256
100
AcDbEntity
8
1
100
AcDbVertex
100
AcDb2dVertex
62
5
10
259.730101
20
185.202826
0
VERTEX
5
257
100
AcDbEntity
8
1
100
AcDbVertex
100
AcDb2dVertex
62
5
10
259.716406
20
185.211796
0
VERTEX
5
258
100
AcDbEntity
8
1
100
AcDbVertex
100
AcDb2dVertex
62
5
10
259.702201
20
185.220625
0
VERTEX
5
259
100
AcDbEntity
8
1
100
AcDbVertex
100
AcDb2dVertex
62
5
10
259.687491
20
185.229308
0
VERTEX
5
25a
100
AcDbEntity
8
1
100
AcDbVertex
100
AcDb2dVertex
62
5
10
259.672282
20
185.237839
0
VERTEX
5
25b
100
AcDbEntity
8
1
100
AcDbVertex
100
AcDb2dVertex
62
5
10
259.656581
20
185.246217
0
VERTEX
5
25c
100
AcDbEntity
8
1
100
AcDbVertex
100
AcDb2dVertex
62
5
10
259.640395
20
185.254436
0
VERTEX
5
25d
100
AcDbEntity
8
1
100
AcDbVertex
100
AcDb2dVertex
62
5
10
259.623733
20
185.262494
0
VERTEX
5
25e
100
AcDbEntity
8
1
100
AcDbVertex
100
AcDb2dVertex
62
5
10
259.606600
20
185.270386
0
VERTEX
5
25f
100
AcDbEntity
8
1
100
AcDbVertex
100
AcDb2dVertex
62
5
10
259.589005
20
185.278109
0
VERTEX
5
260
100
AcDbEntity
8
1
100
AcDbVertex
100
AcDb2dVertex
62
5
10
259.570954
20
185.285659
0
VERTEX
5
261
100
AcDbEntity
8
1
100
AcDbVertex
100
AcDb2dVertex
62
5
10
259.552455
20
185.293033
0
VERTEX
5
262
100
AcDbEntity
8
1
100
AcDbVertex
100
AcDb2dVertex
62
5
10
259.533514
20
185.300227
0
VERTEX
5
263
100
AcDbEntity
8
1
100
AcDbVertex
100
AcDb2dVertex
62
5
10
259.514140
20
185.307237
0
VERTEX
5
264
100
AcDbEntity
8
1
100
AcDbVertex
100
AcDb2dVertex
62
5
10
259.494339
20
185.314059
0
VERTEX
5
265
100
AcDbEntity
8
1
100
AcDbVertex
100
AcDb2dVertex
62
5
10
259.474119
20
185.320690
0
VERTEX
5
266
100
AcDbEntity
8
1
100
AcDbVertex
100
AcDb2dVertex
62
5
10
259.453490
20
185.327122
0
VERTEX
5
267
100
AcDbEntity
8
1
100
AcDbVertex
100
AcDb2dVertex
62
5
10
259.432465
20
185.333340
0
VERTEX
5
268
100
AcDbEntity
8
1
100
AcDbVertex
100
AcDb2dVertex
62
5
10
259.411059
20
185.339332
0
VERTEX
5
269
100
AcDbEntity
8
1
100
AcDbVertex
100
AcDb2dVertex
62
5
10
259.389286
20
185.345084
0
VERTEX
5
26a
100
AcDbEntity
8
1
100
AcDbVertex
100
AcDb2dVertex
62
5
10
259.367160
20
185.350583
0
VERTEX
5
26b
100
AcDbEntity
8
1
100
AcDbVertex
100
AcDb2dVertex
62
5
10
259.344694
20
185.355816
0
VERTEX
5
26c
100
AcDbEntity
8
1
100
AcDbVertex
100
AcDb2dVertex
62
5
10
259.321902
20
185.360768
0
VERTEX
5
26d
100
AcDbEntity
8
1
100
AcDbVertex
100
AcDb2dVertex
62
5
10
259.298799
20
185.365427
0
VERTEX
5
26e
100
AcDbEntity
8
1
100
AcDbVertex
100
AcDb2dVertex
62
5
10
259.275398
20
185.369779
0
VERTEX
5
26f
100
AcDbEntity
8
1
100
AcDbVertex
100
AcDb2dVertex
62
5
10
259.251714
20
185.373810
0
VERTEX
5
270
100
AcDbEntity
8
1
100
AcDbVertex
100
AcDb2dVertex
62
5
10
259.227759
20
185.377507
0
VERTEX
5
271
100
AcDbEntity
8
1
100
AcDbVertex
100
AcDb2dVertex
62
5
10
259.203548
20
185.380858
0
VERTEX
5
272
100
AcDbEntity
8
1
100
AcDbVertex
100
AcDb2dVertex
62
5
10
259.179098
20
185.383860
0
VERTEX
5
273
100
AcDbEntity
8
1
100
AcDbVertex
100
AcDb2dVertex
62
5
10
259.154427
20
185.386542
0
VERTEX
5
274
100
AcDbEntity
8
1
100
AcDbVertex
100
AcDb2dVertex
62
5
10
259.129555
20
185.388931
0
VERTEX
5
275
100
AcDbEntity
8
1
100
AcDbVertex
100
AcDb2dVertex
62
5
10
259.104503
20
185.391058
0
VERTEX
5
276
100
AcDbEntity
8
1
100
AcDbVertex
100
AcDb2dVertex
62
5
10
259.079291
20
185.392951
0
VERTEX
5
277
100
AcDbEntity
8
1
100
AcDbVertex
100
AcDb2dVertex
62
5
10
259.053938
20
185.394640
0
VERTEX
5
278
100
AcDbEntity
8
1
100
AcDbVertex
100
AcDb2dVertex
62
5
10
259.028465
20
185.396153
0
VERTEX
5
279
100
AcDbEntity
8
1
100
AcDbVertex
100
AcDb2dVertex
62
5
10
259.002892
20
185.397520
0
VERTEX
5
27a
100
AcDbEntity
8
1
100
AcDbVertex
100
AcDb2dVertex
62
5
10
258.977239
20
185.398771
0
VERTEX
5
27b
100
AcDbEntity
8
1
100
AcDbVertex
100
AcDb2dVertex
62
5
10
258.951525
20
185.399934
0
VERTEX
5
27c
100
AcDbEntity
8
1
100
AcDbVertex
100
AcDb2dVertex
62
5
10
258.925772
20
185.401038
0
VERTEX
5
27d
100
AcDbEntity
8
1
100
AcDbVertex
100
AcDb2dVertex
62
5
10
258.899998
20
185.402113
0
SEQEND
5
27e
100
AcDbEntity
8
1
0
LINE
5
27f
100
AcDbEntity
8
1
100
AcDbLine
6
DOT2
62
5
10
231.150000
20
243.750540
11
233.962500
21
243.750540
0
POLYLINE
5
280
100
AcDbEntity
8
1
6
DOT2
62
5
100
AcDb2dPolyline
66
1
10
0.0
20
0.0
30
0.0
70
0
0
VERTEX
5
281
100
AcDbEntity
8
1
100
AcDbVertex
100
AcDb2dVertex
62
5
10
231.150000
20
243.750540
0
VERTEX
5
282
100
AcDbEntity
8
1
100
AcDbVertex
100
AcDb2dVertex
62
5
10
231.150000
20
240.000540
0
VERTEX
5
283
100
AcDbEntity
8
1
100
AcDbVertex
100
AcDb2dVertex
62
5
10
231.775000
20
240.625540
0
VERTEX
5
284
100
AcDbEntity
8
1
100
AcDbVertex
100
AcDb2dVertex
62
5
10
232.400000
20
240.938040
0
VERTEX
5
285
100
AcDbEntity
8
1
100
AcDbVertex
100
AcDb2dVertex
62
5
10
233.337500
20
240.938040
0
VERTEX
5
286
100
AcDbEntity
8
1
100
AcDbVertex
100
AcDb2dVertex
62
5
10
233.962500
20
240.625540
0
VERTEX
5
287
100
AcDbEntity
8
1
100
AcDbVertex
100
AcDb2dVertex
62
5
10
234.275000
20
239.688040
0
VERTEX
5
288
100
AcDbEntity
8
1
100
AcDbVertex
100
AcDb2dVertex
62
5
10
234.275000
20
237.813040
0
VERTEX
5
289
100
AcDbEntity
8
1
100
AcDbVertex
100
AcDb2dVertex
62
5
10
233.650000
20
236.875540
0
VERTEX
5
28a
100
AcDbEntity
8
1
100
AcDbVertex
100
AcDb2dVertex
62
5
10
232.712500
20
236.250540
0
VERTEX
5
28b
100
AcDbEntity
8
1
100
AcDbVertex
100
AcDb2dVertex
62
5
10
231.150000
20
236.250540
0
SEQEND
5
28c
100
AcDbEntity
8
1
0
POLYLINE
5
28d
100
AcDbEntity
8
1
6
DOT2
62
5
100
AcDb2dPolyline
66
1
10
0.0
20
0.0
30
0.0
70
0
0
VERTEX
5
28e
100
AcDbEntity
8
1
100
AcDbVertex
100
AcDb2dVertex
62
5
10
181.674999
20
243.125540
0
VERTEX
5
28f
100
AcDbEntity
8
1
100
AcDbVertex
100
AcDb2dVertex
62
5
10
182.612499
20
243.750540
0
VERTEX
5
290
100
AcDbEntity
8
1
100
AcDbVertex
100
AcDb2dVertex
62
5
10
182.612499
20
236.250540
0
SEQEND
5
291
100
AcDbEntity
8
1
0
LINE
5
292
100
AcDbEntity
8
1
100
AcDbLine
6
DOT2
62
5
10
181.987499
20
236.250540
11
183.237499
21
236.250540
0
LINE
5
293
100
AcDbEntity
8
1
100
AcDbLine
6
DOT2
62
5
10
176.674999
20
236.875540
11
176.049999
21
236.250540
0
POLYLINE
5
294
100
AcDbEntity
8
1
6
DOT2
62
5
100
AcDb2dPolyline
66
1
10
0.0
20
0.0
30
0.0
70
0
0
VERTEX
5
295
100
AcDbEntity
8
1
100
AcDbVertex
100
AcDb2dVertex
62
5
10
176.049999
20
236.875540
0
VERTEX
5
296
100
AcDbEntity
8
1
100
AcDbVertex
100
AcDb2dVertex
62
5
10
176.674999
20
236.250540
0
VERTEX
5
297
100
AcDbEntity
8
1
100
AcDbVertex
100
AcDb2dVertex
62
5
10
176.049999
20
236.250540
0
VERTEX
5
298
100
AcDbEntity
8
1
100
AcDbVertex
100
AcDb2dVertex
62
5
10
176.049999
20
236.875540
0
VERTEX
5
299
100
AcDbEntity
8
1
100
AcDbVertex
100
AcDb2dVertex
62
5
10
176.674999
20
236.875540
0
VERTEX
5
29a
100
AcDbEntity
8
1
100
AcDbVertex
100
AcDb2dVertex
62
5
10
176.674999
20
236.250540
0
SEQEND
5
29b
100
AcDbEntity
8
1
0
POLYLINE
5
29c
100
AcDbEntity
8
1
6
DOT2
62
5
100
AcDb2dPolyline
66
1
10
0.0
20
0.0
30
0.0
70
0
0
VERTEX
5
29d
100
AcDbEntity
8
1
100
AcDbVertex
100
AcDb2dVertex
62
5
10
166.674999
20
243.125540
0
VERTEX
5
29e
100
AcDbEntity
8
1
100
AcDbVertex
100
AcDb2dVertex
62
5
10
167.612499
20
243.750540
0
VERTEX
5
29f
100
AcDbEntity
8
1
100
AcDbVertex
100
AcDb2dVertex
62
5
10
167.612499
20
236.250540
0
SEQEND
5
2a0
100
AcDbEntity
8
1
0
LINE
5
2a1
100
AcDbEntity
8
1
100
AcDbLine
6
DOT2
62
5
10
166.987499
20
236.250540
11
168.237499
21
236.250540
0
LINE
5
2a2
100
AcDbEntity
8
1
100
AcDbLine
6
DOT2
62
5
10
171.049999
20
243.750540
11
173.862499
21
243.750540
0
POLYLINE
5
2a3
100
AcDbEntity
8
1
6
DOT2
62
5
100
AcDb2dPolyline
66
1
10
0.0
20
0.0
30
0.0
70
0
0
VERTEX
5
2a4
100
AcDbEntity
8
1
100
AcDbVertex
100
AcDb2dVertex
62
5
10
171.049999
20
243.750540
0
VERTEX
5
2a5
100
AcDbEntity
8
1
100
AcDbVertex
100
AcDb2dVertex
62
5
10
171.049999
20
240.000540
0
VERTEX
5
2a6
100
AcDbEntity
8
1
100
AcDbVertex
100
AcDb2dVertex
62
5
10
171.674999
20
240.625540
0
VERTEX
5
2a7
100
AcDbEntity
8
1
100
AcDbVertex
100
AcDb2dVertex
62
5
10
172.299999
20
240.938040
0
VERTEX
5
2a8
100
AcDbEntity
8
1
100
AcDbVertex
100
AcDb2dVertex
62
5
10
173.237499
20
240.938040
0
VERTEX
5
2a9
100
AcDbEntity
8
1
100
AcDbVertex
100
AcDb2dVertex
62
5
10
173.862499
20
240.625540
0
VERTEX
5
2aa
100
AcDbEntity
8
1
100
AcDbVertex
100
AcDb2dVertex
62
5
10
174.174999
20
239.688040
0
VERTEX
5
2ab
100
AcDbEntity
8
1
100
AcDbVertex
100
AcDb2dVertex
62
5
10
174.174999
20
237.813040
0
VERTEX
5
2ac
100
AcDbEntity
8
1
100
AcDbVertex
100
AcDb2dVertex
62
5
10
173.549999
20
236.875540
0
VERTEX
5
2ad
100
AcDbEntity
8
1
100
AcDbVertex
100
AcDb2dVertex
62
5
10
172.612499
20
236.250540
0
VERTEX
5
2ae
100
AcDbEntity
8
1
100
AcDbVertex
100
AcDb2dVertex
62
5
10
171.049999
20
236.250540
0
SEQEND
5
2af
100
AcDbEntity
8
1
0
LINE
5
2b0
100
AcDbEntity
8
1
100
AcDbLine
6
CONTINUOUS
62
5
10
220.899999
20
184.083729
11
209.899999
21
184.083729
0
POLYLINE
5
2b1
100
AcDbEntity
8
1
6
CONTINUOUS
62
5
100
AcDb2dPolyline
66
1
10
0.0
20
0.0
30
0.0
70
0
0
VERTEX
5
2b2
100
AcDbEntity
8
1
100
AcDbVertex
100
AcDb2dVertex
62
5
10
220.399999
20
194.000542
0
VERTEX
5
2b3
100
AcDbEntity
8
1
100
AcDbVertex
100
AcDb2dVertex
62
5
10
220.399999
20
188.600542
0
VERTEX
5
2b4
100
AcDbEntity
8
1
100
AcDbVertex
100
AcDb2dVertex
62
5
10
210.399999
20
188.600542
0
VERTEX
5
2b5
100
AcDbEntity
8
1
100
AcDbVertex
100
AcDb2dVertex
62
5
10
210.399999
20
194.000542
0
SEQEND
5
2b6
100
AcDbEntity
8
1
0
LINE
5
2b7
100
AcDbEntity
8
1
100
AcDbLine
6
CONTINUOUS
62
5
10
209.899999
20
211.500000
11
209.899999
21
262.000540
0
LINE
5
2b8
100
AcDbEntity
8
1
100
AcDbLine
6
CONTINUOUS
62
5
10
280.200001
20
194.000000
11
280.200001
21
262.000540
0
POLYLINE
5
2b9
100
AcDbEntity
8
1
6
CONTINUOUS
62
5
100
AcDb2dPolyline
66
1
10
0.0
20
0.0
30
0.0
70
0
0
VERTEX
5
2ba
100
AcDbEntity
8
1
100
AcDbVertex
100
AcDb2dVertex
62
5
10
245.050000
20
260.000540
0
VERTEX
5
2bb
100
AcDbEntity
8
1
100
AcDbVertex
100
AcDb2dVertex
62
5
10
209.899999
20
260.000540
0
VERTEX
5
2bc
100
AcDbEntity
8
1
100
AcDbVertex
100
AcDb2dVertex
62
5
10
215.899999
20
261.000540
0
VERTEX
5
2bd
100
AcDbEntity
8
1
100
AcDbVertex
100
AcDb2dVertex
62
5
10
215.899999
20
259.000540
0
VERTEX
5
2be
100
AcDbEntity
8
1
100
AcDbVertex
100
AcDb2dVertex
62
5
10
209.899999
20
260.000540
0
VERTEX
5
2bf
100
AcDbEntity
8
1
100
AcDbVertex
100
AcDb2dVertex
62
5
10
215.899999
20
260.500540
0
VERTEX
5
2c0
100
AcDbEntity
8
1
100
AcDbVertex
100
AcDb2dVertex
62
5
10
215.899999
20
259.500540
0
VERTEX
5
2c1
100
AcDbEntity
8
1
100
AcDbVertex
100
AcDb2dVertex
62
5
10
209.899999
20
260.000540
0
SEQEND
5
2c2
100
AcDbEntity
8
1
0
POLYLINE
5
2c3
100
AcDbEntity
8
1
6
CONTINUOUS
62
5
100
AcDb2dPolyline
66
1
10
0.0
20
0.0
30
0.0
70
0
0
VERTEX
5
2c4
100
AcDbEntity
8
1
100
AcDbVertex
100
AcDb2dVertex
62
5
10
245.050000
20
260.000540
0
VERTEX
5
2c5
100
AcDbEntity
8
1
100
AcDbVertex
100
AcDb2dVertex
62
5
10
280.200001
20
260.000540
0
VERTEX
5
2c6
100
AcDbEntity
8
1
100
AcDbVertex
100
AcDb2dVertex
62
5
10
274.200001
20
259.000540
0
VERTEX
5
2c7
100
AcDbEntity
8
1
100
AcDbVertex
100
AcDb2dVertex
62
5
10
274.200001
20
261.000540
0
VERTEX
5
2c8
100
AcDbEntity
8
1
100
AcDbVertex
100
AcDb2dVertex
62
5
10
280.200001
20
260.000540
0
VERTEX
5
2c9
100
AcDbEntity
8
1
100
AcDbVertex
100
AcDb2dVertex
62
5
10
274.200001
20
259.500540
0
VERTEX
5
2ca
100
AcDbEntity
8
1
100
AcDbVertex
100
AcDb2dVertex
62
5
10
274.200001
20
260.500540
0
VERTEX
5
2cb
100
AcDbEntity
8
1
100
AcDbVertex
100
AcDb2dVertex
62
5
10
280.200001
20
260.000540
0
SEQEND
5
2cc
100
AcDbEntity
8
1
0
LINE
5
2cd
100
AcDbEntity
8
1
100
AcDbLine
6
CONTINUOUS
62
5
10
259.900000
20
194.226993
11
259.900000
21
237.000540
0
POLYLINE
5
2ce
100
AcDbEntity
8
1
6
CONTINUOUS
62
5
100
AcDb2dPolyline
66
1
10
0.0
20
0.0
30
0.0
70
0
0
VERTEX
5
2cf
100
AcDbEntity
8
1
100
AcDbVertex
100
AcDb2dVertex
62
5
10
234.900000
20
235.000540
0
VERTEX
5
2d0
100
AcDbEntity
8
1
100
AcDbVertex
100
AcDb2dVertex
62
5
10
209.899999
20
235.000540
0
VERTEX
5
2d1
100
AcDbEntity
8
1
100
AcDbVertex
100
AcDb2dVertex
62
5
10
215.899999
20
236.000540
0
VERTEX
5
2d2
100
AcDbEntity
8
1
100
AcDbVertex
100
AcDb2dVertex
62
5
10
215.899999
20
234.000540
0
VERTEX
5
2d3
100
AcDbEntity
8
1
100
AcDbVertex
100
AcDb2dVertex
62
5
10
209.899999
20
235.000540
0
VERTEX
5
2d4
100
AcDbEntity
8
1
100
AcDbVertex
100
AcDb2dVertex
62
5
10
215.899999
20
235.500540
0
VERTEX
5
2d5
100
AcDbEntity
8
1
100
AcDbVertex
100
AcDb2dVertex
62
5
10
215.899999
20
234.500540
0
VERTEX
5
2d6
100
AcDbEntity
8
1
100
AcDbVertex
100
AcDb2dVertex
62
5
10
209.899999
20
235.000540
0
SEQEND
5
2d7
100
AcDbEntity
8
1
0
POLYLINE
5
2d8
100
AcDbEntity
8
1
6
CONTINUOUS
62
5
100
AcDb2dPolyline
66
1
10
0.0
20
0.0
30
0.0
70
0
0
VERTEX
5
2d9
100
AcDbEntity
8
1
100
AcDbVertex
100
AcDb2dVertex
62
5
10
234.900000
20
235.000540
0
VERTEX
5
2da
100
AcDbEntity
8
1
100
AcDbVertex
100
AcDb2dVertex
62
5
10
259.900000
20
235.000540
0
VERTEX
5
2db
100
AcDbEntity
8
1
100
AcDbVertex
100
AcDb2dVertex
62
5
10
253.900000
20
234.000540
0
VERTEX
5
2dc
100
AcDbEntity
8
1
100
AcDbVertex
100
AcDb2dVertex
62
5
10
253.900000
20
236.000540
0
VERTEX
5
2dd
100
AcDbEntity
8
1
100
AcDbVertex
100
AcDb2dVertex
62
5
10
259.900000
20
235.000540
0
VERTEX
5
2de
100
AcDbEntity
8
1
100
AcDbVertex
100
AcDb2dVertex
62
5
10
253.900000
20
234.500540
0
VERTEX
5
2df
100
AcDbEntity
8
1
100
AcDbVertex
100
AcDb2dVertex
62
5
10
253.900000
20
235.500540
0
VERTEX
5
2e0
100
AcDbEntity
8
1
100
AcDbVertex
100
AcDb2dVertex
62
5
10
259.900000
20
235.000540
0
SEQEND
5
2e1
100
AcDbEntity
8
1
0
LINE
5
2e2
100
AcDbEntity
8
1
100
AcDbLine
6
CONTINUOUS
62
5
10
258.899998
20
185.402113
11
220.899999
21
185.402113
0
LINE
5
2e3
100
AcDbEntity
8
1
100
AcDbLine
6
CONTINUOUS
62
5
10
131.750000
20
337.437500
11
132.750000
21
336.187500
0
POLYLINE
5
2e4
100
AcDbEntity
8
1
6
CONTINUOUS
62
5
100
AcDb2dPolyline
66
1
10
0.0
20
0.0
30
0.0
70
0
0
VERTEX
5
2e5
100
AcDbEntity
8
1
100
AcDbVertex
100
AcDb2dVertex
62
5
10
131.500000
20
332.437500
0
VERTEX
5
2e6
100
AcDbEntity
8
1
100
AcDbVertex
100
AcDb2dVertex
62
5
10
133.250000
20
333.375000
0
VERTEX
5
2e7
100
AcDbEntity
8
1
100
AcDbVertex
100
AcDb2dVertex
62
5
10
134.750000
20
334.625000
0
VERTEX
5
2e8
100
AcDbEntity
8
1
100
AcDbVertex
100
AcDb2dVertex
62
5
10
136.250000
20
336.187500
0
SEQEND
5
2e9
100
AcDbEntity
8
1
0
POLYLINE
5
2ea
100
AcDbEntity
8
1
6
CONTINUOUS
62
5
100
AcDb2dPolyline
66
1
10
0.0
20
0.0
30
0.0
70
0
0
VERTEX
5
2eb
100
AcDbEntity
8
1
100
AcDbVertex
100
AcDb2dVertex
62
5
10
117.250000
20
326.187500
0
VERTEX
5
2ec
100
AcDbEntity
8
1
100
AcDbVertex
100
AcDb2dVertex
62
5
10
117.500000
20
326.187500
0
VERTEX
5
2ed
100
AcDbEntity
8
1
100
AcDbVertex
100
AcDb2dVertex
62
5
10
119.250000
20
324.937500
0
SEQEND
5
2ee
100
AcDbEntity
8
1
0
LINE
5
2ef
100
AcDbEntity
8
1
100
AcDbLine
6
CONTINUOUS
62
5
10
117.250000
20
329.000000
11
117.250000
21
321.500000
0
POLYLINE
5
2f0
100
AcDbEntity
8
1
6
CONTINUOUS
62
5
100
AcDb2dPolyline
66
1
10
0.0
20
0.0
30
0.0
70
0
0
VERTEX
5
2f1
100
AcDbEntity
8
1
100
AcDbVertex
100
AcDb2dVertex
62
5
10
125.250000
20
329.625000
0
VERTEX
5
2f2
100
AcDbEntity
8
1
100
AcDbVertex
100
AcDb2dVertex
62
5
10
124.500000
20
328.375000
0
VERTEX
5
2f3
100
AcDbEntity
8
1
100
AcDbVertex
100
AcDb2dVertex
62
5
10
123.750000
20
327.437500
0
VERTEX
5
2f4
100
AcDbEntity
8
1
100
AcDbVertex
100
AcDb2dVertex
62
5
10
122.750000
20
326.500000
0
SEQEND
5
2f5
100
AcDbEntity
8
1
0
POLYLINE
5
2f6
100
AcDbEntity
8
1
6
CONTINUOUS
62
5
100
AcDb2dPolyline
66
1
10
0.0
20
0.0
30
0.0
70
0
0
VERTEX
5
2f7
100
AcDbEntity
8
1
100
AcDbVertex
100
AcDb2dVertex
62
5
10
125.000000
20
329.000000
0
VERTEX
5
2f8
100
AcDbEntity
8
1
100
AcDbVertex
100
AcDb2dVertex
62
5
10
127.250000
20
329.000000
0
VERTEX
5
2f9
100
AcDbEntity
8
1
100
AcDbVertex
100
AcDb2dVertex
62
5
10
126.000000
20
327.125000
0
SEQEND
5
2fa
100
AcDbEntity
8
1
0
POLYLINE
5
2fb
100
AcDbEntity
8
1
6
CONTINUOUS
62
5
100
AcDb2dPolyline
66
1
10
0.0
20
0.0
30
0.0
70
0
0
VERTEX
5
2fc
100
AcDbEntity
8
1
100
AcDbVertex
100
AcDb2dVertex
62
5
10
123.750000
20
327.125000
0
VERTEX
5
2fd
100
AcDbEntity
8
1
100
AcDbVertex
100
AcDb2dVertex
62
5
10
128.250000
20
327.125000
0
VERTEX
5
2fe
100
AcDbEntity
8
1
100
AcDbVertex
100
AcDb2dVertex
62
5
10
128.250000
20
324.312500
0
VERTEX
5
2ff
100
AcDbEntity
8
1
100
AcDbVertex
100
AcDb2dVertex
62
5
10
123.750000
20
324.312500
0
SEQEND
5
300
100
AcDbEntity
8
1
0
LINE
5
301
100
AcDbEntity
8
1
100
AcDbLine
6
CONTINUOUS
62
5
10
126.000000
20
327.125000
11
126.000000
21
324.312500
0
POLYLINE
5
302
100
AcDbEntity
8
1
6
CONTINUOUS
62
5
100
AcDb2dPolyline
66
1
10
0.0
20
0.0
30
0.0
70
0
0
VERTEX
5
303
100
AcDbEntity
8
1
100
AcDbVertex
100
AcDb2dVertex
62
5
10
123.750000
20
327.125000
0
VERTEX
5
304
100
AcDbEntity
8
1
100
AcDbVertex
100
AcDb2dVertex
62
5
10
123.750000
20
321.812500
0
VERTEX
5
305
100
AcDbEntity
8
1
100
AcDbVertex
100
AcDb2dVertex
62
5
10
124.250000
20
321.187500
0
VERTEX
5
306
100
AcDbEntity
8
1
100
AcDbVertex
100
AcDb2dVertex
62
5
10
129.250000
20
321.187500
0
VERTEX
5
307
100
AcDbEntity
8
1
100
AcDbVertex
100
AcDb2dVertex
62
5
10
129.250000
20
322.437500
0
SEQEND
5
308
100
AcDbEntity
8
1
0
POLYLINE
5
309
100
AcDbEntity
8
1
6
CONTINUOUS
62
5
100
AcDb2dPolyline
66
1
10
0.0
20
0.0
30
0.0
70
0
0
VERTEX
5
30a
100
AcDbEntity
8
1
100
AcDbVertex
100
AcDb2dVertex
62
5
10
123.000000
20
335.562500
0
VERTEX
5
30b
100
AcDbEntity
8
1
100
AcDbVertex
100
AcDb2dVertex
62
5
10
128.250000
20
336.187500
0
VERTEX
5
30c
100
AcDbEntity
8
1
100
AcDbVertex
100
AcDb2dVertex
62
5
10
128.250000
20
335.875000
0
VERTEX
5
30d
100
AcDbEntity
8
1
100
AcDbVertex
100
AcDb2dVertex
62
5
10
127.000000
20
334.312500
0
SEQEND
5
30e
100
AcDbEntity
8
1
0
POLYLINE
5
30f
100
AcDbEntity
8
1
6
CONTINUOUS
62
5
100
AcDb2dPolyline
66
1
10
0.0
20
0.0
30
0.0
70
0
0
VERTEX
5
310
100
AcDbEntity
8
1
100
AcDbVertex
100
AcDb2dVertex
62
5
10
125.000000
20
338.375000
0
VERTEX
5
311
100
AcDbEntity
8
1
100
AcDbVertex
100
AcDb2dVertex
62
5
10
125.000000
20
332.437500
0
VERTEX
5
312
100
AcDbEntity
8
1
100
AcDbVertex
100
AcDb2dVertex
62
5
10
125.500000
20
331.812500
0
VERTEX
5
313
100
AcDbEntity
8
1
100
AcDbVertex
100
AcDb2dVertex
62
5
10
128.250000
20
331.812500
0
SEQEND
5
314
100
AcDbEntity
8
1
0
LINE
5
315
100
AcDbEntity
8
1
100
AcDbLine
6
CONTINUOUS
62
5
10
140.500000
20
338.375000
11
140.500000
21
334.312500
0
LINE
5
316
100
AcDbEntity
8
1
100
AcDbLine
6
CONTINUOUS
62
5
10
138.750000
20
336.500000
11
145.000000
21
336.500000
0
POLYLINE
5
317
100
AcDbEntity
8
1
6
CONTINUOUS
62
5
100
AcDb2dPolyline
66
1
10
0.0
20
0.0
30
0.0
70
0
0
VERTEX
5
318
100
AcDbEntity
8
1
100
AcDbVertex
100
AcDb2dVertex
62
5
10
143.250000
20
338.687500
0
VERTEX
5
319
100
AcDbEntity
8
1
100
AcDbVertex
100
AcDb2dVertex
62
5
10
143.250000
20
334.937500
0
VERTEX
5
31a
100
AcDbEntity
8
1
100
AcDbVertex
100
AcDb2dVertex
62
5
10
143.000000
20
333.687500
0
VERTEX
5
31b
100
AcDbEntity
8
1
100
AcDbVertex
100
AcDb2dVertex
62
5
10
142.250000
20
332.437500
0
VERTEX
5
31c
100
AcDbEntity
8
1
100
AcDbVertex
100
AcDb2dVertex
62
5
10
141.500000
20
331.500000
0
SEQEND
5
31d
100
AcDbEntity
8
1
0
LINE
5
31e
100
AcDbEntity
8
1
100
AcDbLine
6
CONTINUOUS
62
5
10
115.000000
20
338.687500
11
117.500000
21
338.687500
0
LINE
5
31f
100
AcDbEntity
8
1
100
AcDbLine
6
CONTINUOUS
62
5
10
116.250000
20
339.625000
11
116.250000
21
337.437500
0
LINE
5
320
100
AcDbEntity
8
1
100
AcDbLine
6
CONTINUOUS
62
5
10
114.500000
20
337.437500
11
117.750000
21
337.437500
0
POLYLINE
5
321
100
AcDbEntity
8
1
6
CONTINUOUS
62
5
100
AcDb2dPolyline
66
1
10
0.0
20
0.0
30
0.0
70
0
0
VERTEX
5
322
100
AcDbEntity
8
1
100
AcDbVertex
100
AcDb2dVertex
62
5
10
115.750000
20
337.125000
0
VERTEX
5
323
100
AcDbEntity
8
1
100
AcDbVertex
100
AcDb2dVertex
62
5
10
115.500000
20
336.500000
0
VERTEX
5
324
100
AcDbEntity
8
1
100
AcDbVertex
100
AcDb2dVertex
62
5
10
114.750000
20
335.875000
0
SEQEND
5
325
100
AcDbEntity
8
1
0
POLYLINE
5
326
100
AcDbEntity
8
1
6
CONTINUOUS
62
5
100
AcDb2dPolyline
66
1
10
0.0
20
0.0
30
0.0
70
0
0
VERTEX
5
327
100
AcDbEntity
8
1
100
AcDbVertex
100
AcDb2dVertex
62
5
10
116.750000
20
337.125000
0
VERTEX
5
328
100
AcDbEntity
8
1
100
AcDbVertex
100
AcDb2dVertex
62
5
10
116.750000
20
336.187500
0
VERTEX
5
329
100
AcDbEntity
8
1
100
AcDbVertex
100
AcDb2dVertex
62
5
10
117.000000
20
335.875000
0
VERTEX
5
32a
100
AcDbEntity
8
1
100
AcDbVertex
100
AcDb2dVertex
62
5
10
117.750000
20
335.875000
0
VERTEX
5
32b
100
AcDbEntity
8
1
100
AcDbVertex
100
AcDb2dVertex
62
5
10
117.750000
20
336.500000
0
SEQEND
5
32c
100
AcDbEntity
8
1
0
LINE
5
32d
100
AcDbEntity
8
1
100
AcDbLine
6
CONTINUOUS
62
5
10
115.000000
20
335.250000
11
117.500000
21
335.250000
0
LINE
5
32e
100
AcDbEntity
8
1
100
AcDbLine
6
CONTINUOUS
62
5
10
116.250000
20
335.875000
11
116.250000
21
334.000000
0
LINE
5
32f
100
AcDbEntity
8
1
100
AcDbLine
6
CONTINUOUS
62
5
10
114.750000
20
333.687500
11
117.500000
21
334.312500
0
POLYLINE
5
330
100
AcDbEntity
8
1
6
CONTINUOUS
62
5
100
AcDb2dPolyline
66
1
10
0.0
20
0.0
30
0.0
70
0
0
VERTEX
5
331
100
AcDbEntity
8
1
100
AcDbVertex
100
AcDb2dVertex
62
5
10
118.250000
20
338.062500
0
VERTEX
5
332
100
AcDbEntity
8
1
100
AcDbVertex
100
AcDb2dVertex
62
5
10
120.500000
20
338.062500
0
VERTEX
5
333
100
AcDbEntity
8
1
100
AcDbVertex
100
AcDb2dVertex
62
5
10
120.500000
20
333.687500
0
VERTEX
5
334
100
AcDbEntity
8
1
100
AcDbVertex
100
AcDb2dVertex
62
5
10
121.000000
20
333.062500
0
VERTEX
5
335
100
AcDbEntity
8
1
100
AcDbVertex
100
AcDb2dVertex
62
5
10
121.500000
20
333.062500
0
VERTEX
5
336
100
AcDbEntity
8
1
100
AcDbVertex
100
AcDb2dVertex
62
5
10
121.500000
20
334.000000
0
SEQEND
5
337
100
AcDbEntity
8
1
0
POLYLINE
5
338
100
AcDbEntity
8
1
6
CONTINUOUS
62
5
100
AcDb2dPolyline
66
1
10
0.0
20
0.0
30
0.0
70
0
0
VERTEX
5
339
100
AcDbEntity
8
1
100
AcDbVertex
100
AcDb2dVertex
62
5
10
119.500000
20
339.312500
0
VERTEX
5
33a
100
AcDbEntity
8
1
100
AcDbVertex
100
AcDb2dVertex
62
5
10
119.250000
20
336.500000
0
VERTEX
5
33b
100
AcDbEntity
8
1
100
AcDbVertex
100
AcDb2dVertex
62
5
10
118.750000
20
334.625000
0
VERTEX
5
33c
100
AcDbEntity
8
1
100
AcDbVertex
100
AcDb2dVertex
62
5
10
118.000000
20
333.062500
0
SEQEND
5
33d
100
AcDbEntity
8
1
0
LINE
5
33e
100
AcDbEntity
8
1
100
AcDbLine
6
CONTINUOUS
62
5
10
118.500000
20
336.187500
11
119.750000
21
334.937500
0
LINE
5
33f
100
AcDbEntity
8
1
100
AcDbLine
6
CONTINUOUS
62
5
10
115.500000
20
332.750000
11
114.750000
21
331.187500
0
LINE
5
340
100
AcDbEntity
8
1
100
AcDbLine
6
CONTINUOUS
62
5
10
116.750000
20
332.750000
11
117.250000
21
331.187500
0
LINE
5
341
100
AcDbEntity
8
1
100
AcDbLine
6
CONTINUOUS
62
5
10
118.250000
20
332.750000
11
119.000000
21
331.187500
0
LINE
5
342
100
AcDbEntity
8
1
100
AcDbLine
6
CONTINUOUS
62
5
10
119.750000
20
332.750000
11
121.000000
21
331.187500
0
POLYLINE
5
343
100
AcDbEntity
8
1
6
CONTINUOUS
62
5
100
AcDb2dPolyline
66
1
10
0.0
20
0.0
30
0.0
70
0
0
VERTEX
5
344
100
AcDbEntity
8
1
100
AcDbVertex
100
AcDb2dVertex
62
5
10
99.750000
20
325.562500
0
VERTEX
5
345
100
AcDbEntity
8
1
100
AcDbVertex
100
AcDb2dVertex
62
5
10
99.750000
20
327.750000
0
VERTEX
5
346
100
AcDbEntity
8
1
100
AcDbVertex
100
AcDb2dVertex
62
5
10
103.750000
20
327.750000
0
VERTEX
5
347
100
AcDbEntity
8
1
100
AcDbVertex
100
AcDb2dVertex
62
5
10
103.750000
20
326.812500
0
VERTEX
5
348
100
AcDbEntity
8
1
100
AcDbVertex
100
AcDb2dVertex
62
5
10
103.500000
20
325.250000
0
VERTEX
5
349
100
AcDbEntity
8
1
100
AcDbVertex
100
AcDb2dVertex
62
5
10
103.000000
20
324.000000
0
VERTEX
5
34a
100
AcDbEntity
8
1
100
AcDbVertex
100
AcDb2dVertex
62
5
10
102.500000
20
323.062500
0
VERTEX
5
34b
100
AcDbEntity
8
1
100
AcDbVertex
100
AcDb2dVertex
62
5
10
101.500000
20
321.812500
0
SEQEND
5
34c
100
AcDbEntity
8
1
0
LINE
5
34d
100
AcDbEntity
8
1
100
AcDbLine
6
CONTINUOUS
62
5
10
91.250000
20
326.187500
11
96.250000
21
326.187500
0
POLYLINE
5
34e
100
AcDbEntity
8
1
6
CONTINUOUS
62
5
100
AcDb2dPolyline
66
1
10
0.0
20
0.0
30
0.0
70
0
0
VERTEX
5
34f
100
AcDbEntity
8
1
100
AcDbVertex
100
AcDb2dVertex
62
5
10
93.750000
20
328.062500
0
VERTEX
5
350
100
AcDbEntity
8
1
100
AcDbVertex
100
AcDb2dVertex
62
5
10
93.750000
20
321.812500
0
VERTEX
5
351
100
AcDbEntity
8
1
100
AcDbVertex
100
AcDb2dVertex
62
5
10
93.250000
20
321.812500
0
SEQEND
5
352
100
AcDbEntity
8
1
0
LINE
5
353
100
AcDbEntity
8
1
100
AcDbLine
6
CONTINUOUS
62
5
10
92.500000
20
324.625000
11
91.250000
21
322.750000
0
LINE
5
354
100
AcDbEntity
8
1
100
AcDbLine
6
CONTINUOUS
62
5
10
95.250000
20
324.625000
11
96.500000
21
323.062500
0
POLYLINE
5
355
100
AcDbEntity
8
1
6
CONTINUOUS
62
5
100
AcDb2dPolyline
66
1
10
0.0
20
0.0
30
0.0
70
0
0
VERTEX
5
356
100
AcDbEntity
8
1
100
AcDbVertex
100
AcDb2dVertex
62
5
10
76.500000
20
325.562500
0
VERTEX
5
357
100
AcDbEntity
8
1
100
AcDbVertex
100
AcDb2dVertex
62
5
10
78.500000
20
325.562500
0
VERTEX
5
358
100
AcDbEntity
8
1
100
AcDbVertex
100
AcDb2dVertex
62
5
10
78.250000
20
322.437500
0
SEQEND
5
359
100
AcDbEntity
8
1
0
LINE
5
35a
100
AcDbEntity
8
1
100
AcDbLine
6
CONTINUOUS
62
5
10
75.750000
20
322.437500
11
80.000000
21
322.437500
0
POLYLINE
5
35b
100
AcDbEntity
8
1
6
CONTINUOUS
62
5
100
AcDb2dPolyline
66
1
10
0.0
20
0.0
30
0.0
70
0
0
VERTEX
5
35c
100
AcDbEntity
8
1
100
AcDbVertex
100
AcDb2dVertex
62
5
10
67.750000
20
327.750000
0
VERTEX
5
35d
100
AcDbEntity
8
1
100
AcDbVertex
100
AcDb2dVertex
62
5
10
67.750000
20
322.437500
0
VERTEX
5
35e
100
AcDbEntity
8
1
100
AcDbVertex
100
AcDb2dVertex
62
5
10
68.250000
20
321.812500
0
VERTEX
5
35f
100
AcDbEntity
8
1
100
AcDbVertex
100
AcDb2dVertex
62
5
10
71.750000
20
321.812500
0
SEQEND
5
360
100
AcDbEntity
8
1
0
LINE
5
361
100
AcDbEntity
8
1
100
AcDbLine
6
CONTINUOUS
62
5
10
71.250000
20
325.875000
11
67.750000
21
324.937500
0
POLYLINE
5
362
100
AcDbEntity
8
1
6
CONTINUOUS
62
5
100
AcDb2dPolyline
66
1
10
0.0
20
0.0
30
0.0
70
1
0
VERTEX
5
363
100
AcDbEntity
8
1
100
AcDbVertex
100
AcDb2dVertex
62
5
10
71.250000
20
327.750000
0
VERTEX
5
364
100
AcDbEntity
8
1
100
AcDbVertex
100
AcDb2dVertex
62
5
10
71.750000
20
328.375000
0
VERTEX
5
365
100
AcDbEntity
8
1
100
AcDbVertex
100
AcDb2dVertex
62
5
10
72.000000
20
328.375000
0
VERTEX
5
366
100
AcDbEntity
8
1
100
AcDbVertex
100
AcDb2dVertex
62
5
10
72.500000
20
327.750000
0
VERTEX
5
367
100
AcDbEntity
8
1
100
AcDbVertex
100
AcDb2dVertex
62
5
10
72.500000
20
327.437500
0
VERTEX
5
368
100
AcDbEntity
8
1
100
AcDbVertex
100
AcDb2dVertex
62
5
10
72.000000
20
326.812500
0
VERTEX
5
369
100
AcDbEntity
8
1
100
AcDbVertex
100
AcDb2dVertex
62
5
10
71.750000
20
326.812500
0
VERTEX
5
36a
100
AcDbEntity
8
1
100
AcDbVertex
100
AcDb2dVertex
62
5
10
71.250000
20
327.437500
0
VERTEX
5
36b
100
AcDbEntity
8
1
100
AcDbVertex
100
AcDb2dVertex
62
5
10
71.250000
20
327.750000
0
SEQEND
5
36c
100
AcDbEntity
8
1
0
POLYLINE
5
36d
100
AcDbEntity
8
1
6
CONTINUOUS
62
5
100
AcDb2dPolyline
66
1
10
0.0
20
0.0
30
0.0
70
0
0
VERTEX
5
36e
100
AcDbEntity
8
1
100
AcDbVertex
100
AcDb2dVertex
62
5
10
83.000000
20
327.437500
0
VERTEX
5
36f
100
AcDbEntity
8
1
100
AcDbVertex
100
AcDb2dVertex
62
5
10
88.250000
20
327.437500
0
VERTEX
5
370
100
AcDbEntity
8
1
100
AcDbVertex
100
AcDb2dVertex
62
5
10
88.250000
20
327.125000
0
VERTEX
5
371
100
AcDbEntity
8
1
100
AcDbVertex
100
AcDb2dVertex
62
5
10
86.500000
20
325.250000
0
VERTEX
5
372
100
AcDbEntity
8
1
100
AcDbVertex
100
AcDb2dVertex
62
5
10
85.750000
20
325.250000
0
SEQEND
5
373
100
AcDbEntity
8
1
0
POLYLINE
5
374
100
AcDbEntity
8
1
6
CONTINUOUS
62
5
100
AcDb2dPolyline
66
1
10
0.0
20
0.0
30
0.0
70
0
0
VERTEX
5
375
100
AcDbEntity
8
1
100
AcDbVertex
100
AcDb2dVertex
62
5
10
85.750000
20
326.187500
0
VERTEX
5
376
100
AcDbEntity
8
1
100
AcDbVertex
100
AcDb2dVertex
62
5
10
85.750000
20
324.625000
0
VERTEX
5
377
100
AcDbEntity
8
1
100
AcDbVertex
100
AcDb2dVertex
62
5
10
85.000000
20
322.750000
0
VERTEX
5
378
100
AcDbEntity
8
1
100
AcDbVertex
100
AcDb2dVertex
62
5
10
84.000000
20
321.500000
0
SEQEND
5
379
100
AcDbEntity
8
1
0
LINE
5
37a
100
AcDbEntity
8
1
100
AcDbLine
6
CONTINUOUS
62
5
10
82.750000
20
338.375000
11
89.500000
21
338.375000
0
LINE
5
37b
100
AcDbEntity
8
1
100
AcDbLine
6
CONTINUOUS
62
5
10
83.000000
20
335.875000
11
88.750000
21
335.875000
0
POLYLINE
5
37c
100
AcDbEntity
8
1
6
CONTINUOUS
62
5
100
AcDb2dPolyline
66
1
10
0.0
20
0.0
30
0.0
70
0
0
VERTEX
5
37d
100
AcDbEntity
8
1
100
AcDbVertex
100
AcDb2dVertex
62
5
10
85.750000
20
338.375000
0
VERTEX
5
37e
100
AcDbEntity
8
1
100
AcDbVertex
100
AcDb2dVertex
62
5
10
85.750000
20
335.562500
0
VERTEX
5
37f
100
AcDbEntity
8
1
100
AcDbVertex
100
AcDb2dVertex
62
5
10
85.000000
20
334.000000
0
VERTEX
5
380
100
AcDbEntity
8
1
100
AcDbVertex
100
AcDb2dVertex
62
5
10
83.750000
20
332.125000
0
VERTEX
5
381
100
AcDbEntity
8
1
100
AcDbVertex
100
AcDb2dVertex
62
5
10
82.250000
20
331.187500
0
SEQEND
5
382
100
AcDbEntity
8
1
0
POLYLINE
5
383
100
AcDbEntity
8
1
6
CONTINUOUS
62
5
100
AcDb2dPolyline
66
1
10
0.0
20
0.0
30
0.0
70
0
0
VERTEX
5
384
100
AcDbEntity
8
1
100
AcDbVertex
100
AcDb2dVertex
62
5
10
85.750000
20
335.562500
0
VERTEX
5
385
100
AcDbEntity
8
1
100
AcDbVertex
100
AcDb2dVertex
62
5
10
86.750000
20
334.000000
0
VERTEX
5
386
100
AcDbEntity
8
1
100
AcDbVertex
100
AcDb2dVertex
62
5
10
88.000000
20
332.125000
0
VERTEX
5
387
100
AcDbEntity
8
1
100
AcDbVertex
100
AcDb2dVertex
62
5
10
89.500000
20
331.187500
0
SEQEND
5
388
100
AcDbEntity
8
1
0
LINE
5
389
100
AcDbEntity
8
1
100
AcDbLine
6
CONTINUOUS
62
5
10
95.250000
20
339.625000
11
95.250000
21
330.562500
0
LINE
5
38a
100
AcDbEntity
8
1
100
AcDbLine
6
CONTINUOUS
62
5
10
90.750000
20
337.437500
11
97.000000
21
337.437500
0
LINE
5
38b
100
AcDbEntity
8
1
100
AcDbLine
6
CONTINUOUS
62
5
10
90.250000
20
334.312500
11
97.500000
21
334.312500
0
POLYLINE
5
38c
100
AcDbEntity
8
1
6
CONTINUOUS
62
5
100
AcDb2dPolyline
66
1
10
0.0
20
0.0
30
0.0
70
0
0
VERTEX
5
38d
100
AcDbEntity
8
1
100
AcDbVertex
100
AcDb2dVertex
62
5
10
92.750000
20
339.625000
0
VERTEX
5
38e
100
AcDbEntity
8
1
100
AcDbVertex
100
AcDb2dVertex
62
5
10
92.750000
20
334.312500
0
VERTEX
5
38f
100
AcDbEntity
8
1
100
AcDbVertex
100
AcDb2dVertex
62
5
10
92.500000
20
333.375000
0
VERTEX
5
390
100
AcDbEntity
8
1
100
AcDbVertex
100
AcDb2dVertex
62
5
10
92.000000
20
331.812500
0
VERTEX
5
391
100
AcDbEntity
8
1
100
AcDbVertex
100
AcDb2dVertex
62
5
10
90.500000
20
330.562500
0
SEQEND
5
392
100
AcDbEntity
8
1
0
POLYLINE
5
393
100
AcDbEntity
8
1
6
CONTINUOUS
62
5
100
AcDb2dPolyline
66
1
10
0.0
20
0.0
30
0.0
70
0
0
VERTEX
5
394
100
AcDbEntity
8
1
100
AcDbVertex
100
AcDb2dVertex
62
5
10
99.500000
20
339.000000
0
VERTEX
5
395
100
AcDbEntity
8
1
100
AcDbVertex
100
AcDb2dVertex
62
5
10
99.500000
20
333.375000
0
VERTEX
5
396
100
AcDbEntity
8
1
100
AcDbVertex
100
AcDb2dVertex
62
5
10
99.000000
20
332.125000
0
VERTEX
5
397
100
AcDbEntity
8
1
100
AcDbVertex
100
AcDb2dVertex
62
5
10
98.500000
20
331.187500
0
SEQEND
5
398
100
AcDbEntity
8
1
0
POLYLINE
5
399
100
AcDbEntity
8
1
6
CONTINUOUS
62
5
100
AcDb2dPolyline
66
1
10
0.0
20
0.0
30
0.0
70
0
0
VERTEX
5
39a
100
AcDbEntity
8
1
100
AcDbVertex
100
AcDb2dVertex
62
5
10
103.500000
20
331.500000
0
VERTEX
5
39b
100
AcDbEntity
8
1
100
AcDbVertex
100
AcDb2dVertex
62
5
10
104.500000
20
330.875000
0
VERTEX
5
39c
100
AcDbEntity
8
1
100
AcDbVertex
100
AcDb2dVertex
62
5
10
104.500000
20
339.000000
0
VERTEX
5
39d
100
AcDbEntity
8
1
100
AcDbVertex
100
AcDb2dVertex
62
5
10
99.500000
20
339.000000
0
SEQEND
5
39e
100
AcDbEntity
8
1
0
LINE
5
39f
100
AcDbEntity
8
1
100
AcDbLine
6
CONTINUOUS
62
5
10
99.500000
20
336.500000
11
104.500000
21
336.500000
0
LINE
5
3a0
100
AcDbEntity
8
1
100
AcDbLine
6
CONTINUOUS
62
5
10
102.000000
20
339.000000
11
102.000000
21
330.875000
0
LINE
5
3a1
100
AcDbEntity
8
1
100
AcDbLine
6
CONTINUOUS
62
5
10
99.500000
20
334.000000
11
104.500000
21
334.000000
0
LINE
5
3a2
100
AcDbEntity
8
1
100
AcDbLine
6
CONTINUOUS
62
5
10
66.500000
20
336.500000
11
68.500000
21
336.500000
0
LINE
5
3a3
100
AcDbEntity
8
1
100
AcDbLine
6
CONTINUOUS
62
5
10
66.250000
20
332.125000
11
68.500000
21
333.375000
0
LINE
5
3a4
100
AcDbEntity
8
1
100
AcDbLine
6
CONTINUOUS
62
5
10
67.500000
20
339.000000
11
67.500000
21
332.750000
0
POLYLINE
5
3a5
100
AcDbEntity
8
1
6
CONTINUOUS
62
5
100
AcDb2dPolyline
66
1
10
0.0
20
0.0
30
0.0
70
1
0
VERTEX
5
3a6
100
AcDbEntity
8
1
100
AcDbVertex
100
AcDb2dVertex
62
5
10
69.500000
20
338.687500
0
VERTEX
5
3a7
100
AcDbEntity
8
1
100
AcDbVertex
100
AcDb2dVertex
62
5
10
69.500000
20
335.250000
0
VERTEX
5
3a8
100
AcDbEntity
8
1
100
AcDbVertex
100
AcDb2dVertex
62
5
10
72.500000
20
335.250000
0
VERTEX
5
3a9
100
AcDbEntity
8
1
100
AcDbVertex
100
AcDb2dVertex
62
5
10
72.500000
20
338.687500
0
VERTEX
5
3aa
100
AcDbEntity
8
1
100
AcDbVertex
100
AcDb2dVertex
62
5
10
69.500000
20
338.687500
0
SEQEND
5
3ab
100
AcDbEntity
8
1
0
LINE
5
3ac
100
AcDbEntity
8
1
100
AcDbLine
6
CONTINUOUS
62
5
10
69.500000
20
337.125000
11
72.500000
21
337.125000
0
LINE
5
3ad
100
AcDbEntity
8
1
100
AcDbLine
6
CONTINUOUS
62
5
10
71.000000
20
338.687500
11
71.000000
21
331.500000
0
LINE
5
3ae
100
AcDbEntity
8
1
100
AcDbLine
6
CONTINUOUS
62
5
10
69.000000
20
333.687500
11
73.000000
21
333.687500
0
LINE
5
3af
100
AcDbEntity
8
1
100
AcDbLine
6
CONTINUOUS
62
5
10
68.250000
20
331.500000
11
73.500000
21
331.500000
0
LINE
5
3b0
100
AcDbEntity
8
1
100
AcDbLine
6
CONTINUOUS
62
5
10
75.000000
20
339.000000
11
76.000000
21
338.062500
0
POLYLINE
5
3b1
100
AcDbEntity
8
1
6
CONTINUOUS
62
5
100
AcDb2dPolyline
66
1
10
0.0
20
0.0
30
0.0
70
0
0
VERTEX
5
3b2
100
AcDbEntity
8
1
100
AcDbVertex
100
AcDb2dVertex
62
5
10
74.750000
20
335.875000
0
VERTEX
5
3b3
100
AcDbEntity
8
1
100
AcDbVertex
100
AcDb2dVertex
62
5
10
76.000000
20
335.875000
0
VERTEX
5
3b4
100
AcDbEntity
8
1
100
AcDbVertex
100
AcDb2dVertex
62
5
10
76.000000
20
332.750000
0
VERTEX
5
3b5
100
AcDbEntity
8
1
100
AcDbVertex
100
AcDb2dVertex
62
5
10
74.750000
20
331.187500
0
SEQEND
5
3b6
100
AcDbEntity
8
1
0
POLYLINE
5
3b7
100
AcDbEntity
8
1
6
CONTINUOUS
62
5
100
AcDb2dPolyline
66
1
10
0.0
20
0.0
30
0.0
70
0
0
VERTEX
5
3b8
100
AcDbEntity
8
1
100
AcDbVertex
100
AcDb2dVertex
62
5
10
76.000000
20
332.750000
0
VERTEX
5
3b9
100
AcDbEntity
8
1
100
AcDbVertex
100
AcDb2dVertex
62
5
10
76.750000
20
331.500000
0
VERTEX
5
3ba
100
AcDbEntity
8
1
100
AcDbVertex
100
AcDb2dVertex
62
5
10
77.750000
20
331.187500
0
VERTEX
5
3bb
100
AcDbEntity
8
1
100
AcDbVertex
100
AcDb2dVertex
62
5
10
81.500000
20
331.187500
0
SEQEND
5
3bc
100
AcDbEntity
8
1
0
POLYLINE
5
3bd
100
AcDbEntity
8
1
6
CONTINUOUS
62
5
100
AcDb2dPolyline
66
1
10
0.0
20
0.0
30
0.0
70
0
0
VERTEX
5
3be
100
AcDbEntity
8
1
100
AcDbVertex
100
AcDb2dVertex
62
5
10
78.750000
20
336.500000
0
VERTEX
5
3bf
100
AcDbEntity
8
1
100
AcDbVertex
100
AcDb2dVertex
62
5
10
78.000000
20
334.625000
0
VERTEX
5
3c0
100
AcDbEntity
8
1
100
AcDbVertex
100
AcDb2dVertex
62
5
10
77.250000
20
333.375000
0
VERTEX
5
3c1
100
AcDbEntity
8
1
100
AcDbVertex
100
AcDb2dVertex
62
5
10
76.750000
20
332.750000
0
SEQEND
5
3c2
100
AcDbEntity
8
1
0
POLYLINE
5
3c3
100
AcDbEntity
8
1
6
CONTINUOUS
62
5
100
AcDb2dPolyline
66
1
10
0.0
20
0.0
30
0.0
70
0
0
VERTEX
5
3c4
100
AcDbEntity
8
1
100
AcDbVertex
100
AcDb2dVertex
62
5
10
77.500000
20
339.312500
0
VERTEX
5
3c5
100
AcDbEntity
8
1
100
AcDbVertex
100
AcDb2dVertex
62
5
10
78.750000
20
339.312500
0
VERTEX
5
3c6
100
AcDbEntity
8
1
100
AcDbVertex
100
AcDb2dVertex
62
5
10
78.750000
20
336.500000
0
VERTEX
5
3c7
100
AcDbEntity
8
1
100
AcDbVertex
100
AcDb2dVertex
62
5
10
79.500000
20
334.625000
0
VERTEX
5
3c8
100
AcDbEntity
8
1
100
AcDbVertex
100
AcDb2dVertex
62
5
10
80.500000
20
333.375000
0
VERTEX
5
3c9
100
AcDbEntity
8
1
100
AcDbVertex
100
AcDb2dVertex
62
5
10
81.250000
20
332.750000
0
SEQEND
5
3ca
100
AcDbEntity
8
1
0
POLYLINE
5
3cb
100
AcDbEntity
8
1
6
CONTINUOUS
62
5
100
AcDb2dPolyline
66
1
10
0.0
20
0.0
30
0.0
70
0
0
VERTEX
5
3cc
100
AcDbEntity
8
1
100
AcDbVertex
100
AcDb2dVertex
62
5
10
111.750000
20
328.687500
0
VERTEX
5
3cd
100
AcDbEntity
8
1
100
AcDbVertex
100
AcDb2dVertex
62
5
10
109.750000
20
326.187500
0
VERTEX
5
3ce
100
AcDbEntity
8
1
100
AcDbVertex
100
AcDb2dVertex
62
5
10
107.500000
20
324.625000
0
SEQEND
5
3cf
100
AcDbEntity
8
1
0
LINE
5
3d0
100
AcDbEntity
8
1
100
AcDbLine
6
CONTINUOUS
62
5
10
110.250000
20
326.812500
11
110.250000
21
321.500000
0
POLYLINE
5
3d1
100
AcDbEntity
8
1
6
CONTINUOUS
62
5
100
AcDb2dPolyline
66
1
10
0.0
20
0.0
30
0.0
70
0
0
VERTEX
5
3d2
100
AcDbEntity
8
1
100
AcDbVertex
100
AcDb2dVertex
62
5
10
106.250000
20
333.375000
0
VERTEX
5
3d3
100
AcDbEntity
8
1
100
AcDbVertex
100
AcDb2dVertex
62
5
10
106.750000
20
334.312500
0
VERTEX
5
3d4
100
AcDbEntity
8
1
100
AcDbVertex
100
AcDb2dVertex
62
5
10
107.250000
20
335.875000
0
VERTEX
5
3d5
100
AcDbEntity
8
1
100
AcDbVertex
100
AcDb2dVertex
62
5
10
107.250000
20
338.375000
0
VERTEX
5
3d6
100
AcDbEntity
8
1
100
AcDbVertex
100
AcDb2dVertex
62
5
10
113.000000
20
338.375000
0
SEQEND
5
3d7
100
AcDbEntity
8
1
0
LINE
5
3d8
100
AcDbEntity
8
1
100
AcDbLine
6
CONTINUOUS
62
5
10
111.750000
20
339.312500
11
112.250000
21
339.000000
0
POLYLINE
5
3d9
100
AcDbEntity
8
1
6
CONTINUOUS
62
5
100
AcDb2dPolyline
66
1
10
0.0
20
0.0
30
0.0
70
0
0
VERTEX
5
3da
100
AcDbEntity
8
1
100
AcDbVertex
100
AcDb2dVertex
62
5
10
110.500000
20
339.312500
0
VERTEX
5
3db
100
AcDbEntity
8
1
100
AcDbVertex
100
AcDb2dVertex
62
5
10
110.500000
20
337.125000
0
VERTEX
5
3dc
100
AcDbEntity
8
1
100
AcDbVertex
100
AcDb2dVertex
62
5
10
111.000000
20
335.562500
0
VERTEX
5
3dd
100
AcDbEntity
8
1
100
AcDbVertex
100
AcDb2dVertex
62
5
10
112.000000
20
334.000000
0
VERTEX
5
3de
100
AcDbEntity
8
1
100
AcDbVertex
100
AcDb2dVertex
62
5
10
113.250000
20
334.000000
0
VERTEX
5
3df
100
AcDbEntity
8
1
100
AcDbVertex
100
AcDb2dVertex
62
5
10
113.000000
20
334.937500
0
SEQEND
5
3e0
100
AcDbEntity
8
1
0
POLYLINE
5
3e1
100
AcDbEntity
8
1
6
CONTINUOUS
62
5
100
AcDb2dPolyline
66
1
10
0.0
20
0.0
30
0.0
70
0
0
VERTEX
5
3e2
100
AcDbEntity
8
1
100
AcDbVertex
100
AcDb2dVertex
62
5
10
112.250000
20
337.125000
0
VERTEX
5
3e3
100
AcDbEntity
8
1
100
AcDbVertex
100
AcDb2dVertex
62
5
10
111.500000
20
335.562500
0
VERTEX
5
3e4
100
AcDbEntity
8
1
100
AcDbVertex
100
AcDb2dVertex
62
5
10
110.750000
20
334.625000
0
VERTEX
5
3e5
100
AcDbEntity
8
1
100
AcDbVertex
100
AcDb2dVertex
62
5
10
110.000000
20
334.000000
0
SEQEND
5
3e6
100
AcDbEntity
8
1
0
LINE
5
3e7
100
AcDbEntity
8
1
100
AcDbLine
6
CONTINUOUS
62
5
10
108.000000
20
336.812500
11
109.750000
21
336.812500
0
POLYLINE
5
3e8
100
AcDbEntity
8
1
6
CONTINUOUS
62
5
100
AcDb2dPolyline
66
1
10
0.0
20
0.0
30
0.0
70
1
0
VERTEX
5
3e9
100
AcDbEntity
8
1
100
AcDbVertex
100
AcDb2dVertex
62
5
10
108.000000
20
335.875000
0
VERTEX
5
3ea
100
AcDbEntity
8
1
100
AcDbVertex
100
AcDb2dVertex
62
5
10
109.750000
20
335.875000
0
VERTEX
5
3eb
100
AcDbEntity
8
1
100
AcDbVertex
100
AcDb2dVertex
62
5
10
109.750000
20
334.312500
0
VERTEX
5
3ec
100
AcDbEntity
8
1
100
AcDbVertex
100
AcDb2dVertex
62
5
10
108.000000
20
334.312500
0
VERTEX
5
3ed
100
AcDbEntity
8
1
100
AcDbVertex
100
AcDb2dVertex
62
5
10
108.000000
20
335.875000
0
SEQEND
5
3ee
100
AcDbEntity
8
1
0
POLYLINE
5
3ef
100
AcDbEntity
8
1
6
CONTINUOUS
62
5
100
AcDb2dPolyline
66
1
10
0.0
20
0.0
30
0.0
70
0
0
VERTEX
5
3f0
100
AcDbEntity
8
1
100
AcDbVertex
100
AcDb2dVertex
62
5
10
107.250000
20
332.750000
0
VERTEX
5
3f1
100
AcDbEntity
8
1
100
AcDbVertex
100
AcDb2dVertex
62
5
10
107.000000
20
331.812500
0
VERTEX
5
3f2
100
AcDbEntity
8
1
100
AcDbVertex
100
AcDb2dVertex
62
5
10
106.500000
20
331.187500
0
SEQEND
5
3f3
100
AcDbEntity
8
1
0
POLYLINE
5
3f4
100
AcDbEntity
8
1
6
CONTINUOUS
62
5
100
AcDb2dPolyline
66
1
10
0.0
20
0.0
30
0.0
70
0
0
VERTEX
5
3f5
100
AcDbEntity
8
1
100
AcDbVertex
100
AcDb2dVertex
62
5
10
108.250000
20
333.062500
0
VERTEX
5
3f6
100
AcDbEntity
8
1
100
AcDbVertex
100
AcDb2dVertex
62
5
10
108.250000
20
331.500000
0
VERTEX
5
3f7
100
AcDbEntity
8
1
100
AcDbVertex
100
AcDb2dVertex
62
5
10
108.750000
20
330.875000
0
VERTEX
5
3f8
100
AcDbEntity
8
1
100
AcDbVertex
100
AcDb2dVertex
62
5
10
111.750000
20
330.875000
0
VERTEX
5
3f9
100
AcDbEntity
8
1
100
AcDbVertex
100
AcDb2dVertex
62
5
10
111.500000
20
331.812500
0
SEQEND
5
3fa
100
AcDbEntity
8
1
0
LINE
5
3fb
100
AcDbEntity
8
1
100
AcDbLine
6
CONTINUOUS
62
5
10
109.750000
20
333.062500
11
110.500000
21
332.125000
0
POLYLINE
5
3fc
100
AcDbEntity
8
1
6
CONTINUOUS
62
5
100
AcDb2dPolyline
66
1
10
0.0
20
0.0
30
0.0
70
0
0
VERTEX
5
3fd
100
AcDbEntity
8
1
100
AcDbVertex
100
AcDb2dVertex
62
5
10
112.500000
20
332.750000
0
VERTEX
5
3fe
100
AcDbEntity
8
1
100
AcDbVertex
100
AcDb2dVertex
62
5
10
113.000000
20
331.812500
0
VERTEX
5
3ff
100
AcDbEntity
8
1
100
AcDbVertex
100
AcDb2dVertex
62
5
10
113.250000
20
331.187500
0
SEQEND
5
400
100
AcDbEntity
8
1
0
LINE
5
401
100
AcDbEntity
8
1
100
AcDbLine
6
CONTINUOUS
62
5
10
72.500000
20
296.750000
11
75.625000
21
296.750000
0
POLYLINE
5
402
100
AcDbEntity
8
1
6
CONTINUOUS
62
5
100
AcDb2dPolyline
66
1
10
0.0
20
0.0
30
0.0
70
0
0
VERTEX
5
403
100
AcDbEntity
8
1
100
AcDbVertex
100
AcDb2dVertex
62
5
10
80.000000
20
300.500000
0
VERTEX
5
404
100
AcDbEntity
8
1
100
AcDbVertex
100
AcDb2dVertex
62
5
10
79.062500
20
300.500000
0
VERTEX
5
405
100
AcDbEntity
8
1
100
AcDbVertex
100
AcDb2dVertex
62
5
10
78.125000
20
300.187500
0
VERTEX
5
406
100
AcDbEntity
8
1
100
AcDbVertex
100
AcDb2dVertex
62
5
10
77.500000
20
298.937500
0
VERTEX
5
407
100
AcDbEntity
8
1
100
AcDbVertex
100
AcDb2dVertex
62
5
10
77.500000
20
294.562500
0
VERTEX
5
408
100
AcDbEntity
8
1
100
AcDbVertex
100
AcDb2dVertex
62
5
10
77.812500
20
293.625000
0
VERTEX
5
409
100
AcDbEntity
8
1
100
AcDbVertex
100
AcDb2dVertex
62
5
10
78.125000
20
293.312500
0
VERTEX
5
40a
100
AcDbEntity
8
1
100
AcDbVertex
100
AcDb2dVertex
62
5
10
78.750000
20
293.000000
0
VERTEX
5
40b
100
AcDbEntity
8
1
100
AcDbVertex
100
AcDb2dVertex
62
5
10
79.375000
20
293.000000
0
VERTEX
5
40c
100
AcDbEntity
8
1
100
AcDbVertex
100
AcDb2dVertex
62
5
10
80.000000
20
293.312500
0
VERTEX
5
40d
100
AcDbEntity
8
1
100
AcDbVertex
100
AcDb2dVertex
62
5
10
80.312500
20
293.625000
0
VERTEX
5
40e
100
AcDbEntity
8
1
100
AcDbVertex
100
AcDb2dVertex
62
5
10
80.625000
20
294.562500
0
VERTEX
5
40f
100
AcDbEntity
8
1
100
AcDbVertex
100
AcDb2dVertex
62
5
10
80.625000
20
296.437500
0
VERTEX
5
410
100
AcDbEntity
8
1
100
AcDbVertex
100
AcDb2dVertex
62
5
10
80.312500
20
297.062500
0
VERTEX
5
411
100
AcDbEntity
8
1
100
AcDbVertex
100
AcDb2dVertex
62
5
10
79.687500
20
297.375000
0
VERTEX
5
412
100
AcDbEntity
8
1
100
AcDbVertex
100
AcDb2dVertex
62
5
10
78.437500
20
297.375000
0
VERTEX
5
413
100
AcDbEntity
8
1
100
AcDbVertex
100
AcDb2dVertex
62
5
10
77.500000
20
297.062500
0
SEQEND
5
414
100
AcDbEntity
8
1
0
POLYLINE
5
415
100
AcDbEntity
8
1
6
CONTINUOUS
62
5
100
AcDb2dPolyline
66
1
10
0.0
20
0.0
30
0.0
70
0
0
VERTEX
5
416
100
AcDbEntity
8
1
100
AcDbVertex
100
AcDb2dVertex
62
5
10
67.187500
20
300.500000
0
VERTEX
5
417
100
AcDbEntity
8
1
100
AcDbVertex
100
AcDb2dVertex
62
5
10
68.125000
20
293.000000
0
VERTEX
5
418
100
AcDbEntity
8
1
100
AcDbVertex
100
AcDb2dVertex
62
5
10
69.062500
20
300.500000
0
VERTEX
5
419
100
AcDbEntity
8
1
100
AcDbVertex
100
AcDb2dVertex
62
5
10
70.000000
20
293.000000
0
VERTEX
5
41a
100
AcDbEntity
8
1
100
AcDbVertex
100
AcDb2dVertex
62
5
10
70.937500
20
300.500000
0
SEQEND
5
41b
100
AcDbEntity
8
1
0
LINE
5
41c
100
AcDbEntity
8
1
100
AcDbLine
6
CONTINUOUS
62
5
10
40.000000
20
350.000000
11
40.000000
21
318.000000
0
LINE
5
41d
100
AcDbEntity
8
1
100
AcDbLine
6
CONTINUOUS
62
5
10
52.500000
20
300.500000
11
52.500000
21
293.000000
0
LINE
5
41e
100
AcDbEntity
8
1
100
AcDbLine
6
CONTINUOUS
62
5
10
52.500000
20
296.750000
11
55.312500
21
296.750000
0
LINE
5
41f
100
AcDbEntity
8
1
100
AcDbLine
6
CONTINUOUS
62
5
10
55.312500
20
300.500000
11
55.312500
21
293.000000
0
POLYLINE
5
420
100
AcDbEntity
8
1
6
CONTINUOUS
62
5
100
AcDb2dPolyline
66
1
10
0.0
20
0.0
30
0.0
70
0
0
VERTEX
5
421
100
AcDbEntity
8
1
100
AcDbVertex
100
AcDb2dVertex
62
5
10
60.625000
20
298.937500
0
VERTEX
5
422
100
AcDbEntity
8
1
100
AcDbVertex
100
AcDb2dVertex
62
5
10
60.000000
20
300.187500
0
VERTEX
5
423
100
AcDbEntity
8
1
100
AcDbVertex
100
AcDb2dVertex
62
5
10
59.062500
20
300.500000
0
VERTEX
5
424
100
AcDbEntity
8
1
100
AcDbVertex
100
AcDb2dVertex
62
5
10
58.437500
20
300.500000
0
VERTEX
5
425
100
AcDbEntity
8
1
100
AcDbVertex
100
AcDb2dVertex
62
5
10
57.812500
20
300.187500
0
VERTEX
5
426
100
AcDbEntity
8
1
100
AcDbVertex
100
AcDb2dVertex
62
5
10
57.187500
20
299.250000
0
VERTEX
5
427
100
AcDbEntity
8
1
100
AcDbVertex
100
AcDb2dVertex
62
5
10
57.187500
20
298.312500
0
VERTEX
5
428
100
AcDbEntity
8
1
100
AcDbVertex
100
AcDb2dVertex
62
5
10
57.812500
20
297.375000
0
VERTEX
5
429
100
AcDbEntity
8
1
100
AcDbVertex
100
AcDb2dVertex
62
5
10
60.000000
20
296.125000
0
VERTEX
5
42a
100
AcDbEntity
8
1
100
AcDbVertex
100
AcDb2dVertex
62
5
10
60.625000
20
295.187500
0
VERTEX
5
42b
100
AcDbEntity
8
1
100
AcDbVertex
100
AcDb2dVertex
62
5
10
60.625000
20
294.250000
0
VERTEX
5
42c
100
AcDbEntity
8
1
100
AcDbVertex
100
AcDb2dVertex
62
5
10
60.000000
20
293.312500
0
VERTEX
5
42d
100
AcDbEntity
8
1
100
AcDbVertex
100
AcDb2dVertex
62
5
10
59.062500
20
293.000000
0
VERTEX
5
42e
100
AcDbEntity
8
1
100
AcDbVertex
100
AcDb2dVertex
62
5
10
58.437500
20
293.000000
0
VERTEX
5
42f
100
AcDbEntity
8
1
100
AcDbVertex
100
AcDb2dVertex
62
5
10
57.500000
20
293.625000
0
VERTEX
5
430
100
AcDbEntity
8
1
100
AcDbVertex
100
AcDb2dVertex
62
5
10
57.187500
20
294.875000
0
SEQEND
5
431
100
AcDbEntity
8
1
0
LINE
5
432
100
AcDbEntity
8
1
100
AcDbLine
6
CONTINUOUS
62
5
10
62.500000
20
300.500000
11
65.625000
21
300.500000
0
LINE
5
433
100
AcDbEntity
8
1
100
AcDbLine
6
CONTINUOUS
62
5
10
64.062500
20
300.500000
11
64.062500
21
293.000000
0
POLYLINE
5
434
100
AcDbEntity
8
1
6
DOT2
62
5
100
AcDb2dPolyline
66
1
10
0.0
20
0.0
30
0.0
70
1
0
VERTEX
5
435
100
AcDbEntity
8
1
100
AcDbVertex
100
AcDb2dVertex
62
5
10
89.799999
20
243.750540
0
VERTEX
5
436
100
AcDbEntity
8
1
100
AcDbVertex
100
AcDb2dVertex
62
5
10
90.424999
20
243.750540
0
VERTEX
5
437
100
AcDbEntity
8
1
100
AcDbVertex
100
AcDb2dVertex
62
5
10
90.737499
20
243.438040
0
VERTEX
5
438
100
AcDbEntity
8
1
100
AcDbVertex
100
AcDb2dVertex
62
5
10
91.362499
20
242.188040
0
VERTEX
5
439
100
AcDbEntity
8
1
100
AcDbVertex
100
AcDb2dVertex
62
5
10
91.674999
20
240.938040
0
VERTEX
5
43a
100
AcDbEntity
8
1
100
AcDbVertex
100
AcDb2dVertex
62
5
10
91.674999
20
239.063040
0
VERTEX
5
43b
100
AcDbEntity
8
1
100
AcDbVertex
100
AcDb2dVertex
62
5
10
91.362499
20
237.813040
0
VERTEX
5
43c
100
AcDbEntity
8
1
100
AcDbVertex
100
AcDb2dVertex
62
5
10
90.737499
20
236.563040
0
VERTEX
5
43d
100
AcDbEntity
8
1
100
AcDbVertex
100
AcDb2dVertex
62
5
10
90.424999
20
236.250540
0
VERTEX
5
43e
100
AcDbEntity
8
1
100
AcDbVertex
100
AcDb2dVertex
62
5
10
89.799999
20
236.250540
0
VERTEX
5
43f
100
AcDbEntity
8
1
100
AcDbVertex
100
AcDb2dVertex
62
5
10
89.487499
20
236.563040
0
VERTEX
5
440
100
AcDbEntity
8
1
100
AcDbVertex
100
AcDb2dVertex
62
5
10
88.862499
20
237.813040
0
VERTEX
5
441
100
AcDbEntity
8
1
100
AcDbVertex
100
AcDb2dVertex
62
5
10
88.549999
20
239.063040
0
VERTEX
5
442
100
AcDbEntity
8
1
100
AcDbVertex
100
AcDb2dVertex
62
5
10
88.549999
20
240.938040
0
VERTEX
5
443
100
AcDbEntity
8
1
100
AcDbVertex
100
AcDb2dVertex
62
5
10
88.862499
20
242.188040
0
VERTEX
5
444
100
AcDbEntity
8
1
100
AcDbVertex
100
AcDb2dVertex
62
5
10
89.487499
20
243.438040
0
VERTEX
5
445
100
AcDbEntity
8
1
100
AcDbVertex
100
AcDb2dVertex
62
5
10
89.799999
20
243.750540
0
SEQEND
5
446
100
AcDbEntity
8
1
0
POLYLINE
5
447
100
AcDbEntity
8
1
6
DOT2
62
5
100
AcDb2dPolyline
66
1
10
0.0
20
0.0
30
0.0
70
1
0
VERTEX
5
448
100
AcDbEntity
8
1
100
AcDbVertex
100
AcDb2dVertex
62
5
10
94.799999
20
243.750540
0
VERTEX
5
449
100
AcDbEntity
8
1
100
AcDbVertex
100
AcDb2dVertex
62
5
10
95.424999
20
243.750540
0
VERTEX
5
44a
100
AcDbEntity
8
1
100
AcDbVertex
100
AcDb2dVertex
62
5
10
95.737499
20
243.438040
0
VERTEX
5
44b
100
AcDbEntity
8
1
100
AcDbVertex
100
AcDb2dVertex
62
5
10
96.362499
20
242.188040
0
VERTEX
5
44c
100
AcDbEntity
8
1
100
AcDbVertex
100
AcDb2dVertex
62
5
10
96.674999
20
240.938040
0
VERTEX
5
44d
100
AcDbEntity
8
1
100
AcDbVertex
100
AcDb2dVertex
62
5
10
96.674999
20
239.063040
0
VERTEX
5
44e
100
AcDbEntity
8
1
100
AcDbVertex
100
AcDb2dVertex
62
5
10
96.362499
20
237.813040
0
VERTEX
5
44f
100
AcDbEntity
8
1
100
AcDbVertex
100
AcDb2dVertex
62
5
10
95.737499
20
236.563040
0
VERTEX
5
450
100
AcDbEntity
8
1
100
AcDbVertex
100
AcDb2dVertex
62
5
10
95.424999
20
236.250540
0
VERTEX
5
451
100
AcDbEntity
8
1
100
AcDbVertex
100
AcDb2dVertex
62
5
10
94.799999
20
236.250540
0
VERTEX
5
452
100
AcDbEntity
8
1
100
AcDbVertex
100
AcDb2dVertex
62
5
10
94.487499
20
236.563040
0
VERTEX
5
453
100
AcDbEntity
8
1
100
AcDbVertex
100
AcDb2dVertex
62
5
10
93.862499
20
237.813040
0
VERTEX
5
454
100
AcDbEntity
8
1
100
AcDbVertex
100
AcDb2dVertex
62
5
10
93.549999
20
239.063040
0
VERTEX
5
455
100
AcDbEntity
8
1
100
AcDbVertex
100
AcDb2dVertex
62
5
10
93.549999
20
240.938040
0
VERTEX
5
456
100
AcDbEntity
8
1
100
AcDbVertex
100
AcDb2dVertex
62
5
10
93.862499
20
242.188040
0
VERTEX
5
457
100
AcDbEntity
8
1
100
AcDbVertex
100
AcDb2dVertex
62
5
10
94.487499
20
243.438040
0
VERTEX
5
458
100
AcDbEntity
8
1
100
AcDbVertex
100
AcDb2dVertex
62
5
10
94.799999
20
243.750540
0
SEQEND
5
459
100
AcDbEntity
8
1
0
POLYLINE
5
45a
100
AcDbEntity
8
1
6
DOT2
62
5
100
AcDb2dPolyline
66
1
10
0.0
20
0.0
30
0.0
70
0
0
VERTEX
5
45b
100
AcDbEntity
8
1
100
AcDbVertex
100
AcDb2dVertex
62
5
10
84.174999
20
243.125540
0
VERTEX
5
45c
100
AcDbEntity
8
1
100
AcDbVertex
100
AcDb2dVertex
62
5
10
85.112499
20
243.750540
0
VERTEX
5
45d
100
AcDbEntity
8
1
100
AcDbVertex
100
AcDb2dVertex
62
5
10
85.112499
20
236.250540
0
SEQEND
5
45e
100
AcDbEntity
8
1
0
LINE
5
45f
100
AcDbEntity
8
1
100
AcDbLine
6
DOT2
62
5
10
84.487499
20
236.250540
11
85.737499
21
236.250540
0
ARC
5
460
100
AcDbEntity
8
1
100
AcDbCircle
6
CONTINUOUS
62
5
10
89.799999
20
160.000540
40
21.600000
100
AcDbArc
50
84.687225
51
95.312774
0
ARC
5
461
100
AcDbEntity
8
1
100
AcDbCircle
6
CONTINUOUS
62
5
10
89.799999
20
160.000540
40
21.600000
100
AcDbArc
50
84.687225
51
95.312774
0
POLYLINE
5
462
100
AcDbEntity
8
1
6
CONTINUOUS
62
5
100
AcDb2dPolyline
66
1
10
0.0
20
0.0
30
0.0
70
0
0
VERTEX
5
463
100
AcDbEntity
8
1
100
AcDbVertex
100
AcDb2dVertex
62
5
10
87.799999
20
182.813038
0
VERTEX
5
464
100
AcDbEntity
8
1
100
AcDbVertex
100
AcDb2dVertex
62
5
10
87.799999
20
181.500540
0
VERTEX
5
465
100
AcDbEntity
8
1
100
AcDbVertex
100
AcDb2dVertex
62
5
10
91.799999
20
181.507749
0
VERTEX
5
466
100
AcDbEntity
8
1
100
AcDbVertex
100
AcDb2dVertex
62
5
10
91.799999
20
182.813037
0
SEQEND
5
467
100
AcDbEntity
8
1
0
POLYLINE
5
468
100
AcDbEntity
8
1
6
CONTINUOUS
62
5
100
AcDb2dPolyline
66
1
10
0.0
20
0.0
30
0.0
70
0
0
VERTEX
5
469
100
AcDbEntity
8
1
100
AcDbVertex
100
AcDb2dVertex
62
5
10
87.799999
20
182.813038
0
VERTEX
5
46a
100
AcDbEntity
8
1
100
AcDbVertex
100
AcDb2dVertex
62
5
10
87.799999
20
181.500540
0
VERTEX
5
46b
100
AcDbEntity
8
1
100
AcDbVertex
100
AcDb2dVertex
62
5
10
91.799999
20
181.507749
0
VERTEX
5
46c
100
AcDbEntity
8
1
100
AcDbVertex
100
AcDb2dVertex
62
5
10
91.799999
20
182.813037
0
SEQEND
5
46d
100
AcDbEntity
8
1
0
POLYLINE
5
46e
100
AcDbEntity
8
1
6
CONTINUOUS
62
5
100
AcDb2dPolyline
66
1
10
0.0
20
0.0
30
0.0
70
0
0
VERTEX
5
46f
100
AcDbEntity
8
1
100
AcDbVertex
100
AcDb2dVertex
62
5
10
148.000000
20
337.125000
0
VERTEX
5
470
100
AcDbEntity
8
1
100
AcDbVertex
100
AcDb2dVertex
62
5
10
151.250000
20
337.125000
0
VERTEX
5
471
100
AcDbEntity
8
1
100
AcDbVertex
100
AcDb2dVertex
62
5
10
151.250000
20
336.812500
0
VERTEX
5
472
100
AcDbEntity
8
1
100
AcDbVertex
100
AcDb2dVertex
62
5
10
150.750000
20
335.562500
0
VERTEX
5
473
100
AcDbEntity
8
1
100
AcDbVertex
100
AcDb2dVertex
62
5
10
150.250000
20
334.625000
0
VERTEX
5
474
100
AcDbEntity
8
1
100
AcDbVertex
100
AcDb2dVertex
62
5
10
149.250000
20
333.375000
0
VERTEX
5
475
100
AcDbEntity
8
1
100
AcDbVertex
100
AcDb2dVertex
62
5
10
147.500000
20
331.812500
0
SEQEND
5
476
100
AcDbEntity
8
1
0
LINE
5
477
100
AcDbEntity
8
1
100
AcDbLine
6
CONTINUOUS
62
5
10
150.250000
20
334.625000
11
152.250000
21
331.812500
0
POLYLINE
5
478
100
AcDbEntity
8
1
6
DOT2
62
5
100
AcDb2dPolyline
66
1
10
0.0
20
0.0
30
0.0
70
1
0
VERTEX
5
479
100
AcDbEntity
8
1
100
AcDbVertex
100
AcDb2dVertex
62
5
10
296.450001
20
162.500000
0
VERTEX
5
47a
100
AcDbEntity
8
1
100
AcDbVertex
100
AcDb2dVertex
62
5
10
296.450001
20
163.125000
0
VERTEX
5
47b
100
AcDbEntity
8
1
100
AcDbVertex
100
AcDb2dVertex
62
5
10
296.762501
20
163.750000
0
VERTEX
5
47c
100
AcDbEntity
8
1
100
AcDbVertex
100
AcDb2dVertex
62
5
10
297.387501
20
164.062500
0
VERTEX
5
47d
100
AcDbEntity
8
1
100
AcDbVertex
100
AcDb2dVertex
62
5
10
298.637501
20
164.062500
0
VERTEX
5
47e
100
AcDbEntity
8
1
100
AcDbVertex
100
AcDb2dVertex
62
5
10
299.262501
20
163.750000
0
VERTEX
5
47f
100
AcDbEntity
8
1
100
AcDbVertex
100
AcDb2dVertex
62
5
10
300.512501
20
161.875000
0
VERTEX
5
480
100
AcDbEntity
8
1
100
AcDbVertex
100
AcDb2dVertex
62
5
10
301.450001
20
161.250000
0
VERTEX
5
481
100
AcDbEntity
8
1
100
AcDbVertex
100
AcDb2dVertex
62
5
10
302.700001
20
161.250000
0
VERTEX
5
482
100
AcDbEntity
8
1
100
AcDbVertex
100
AcDb2dVertex
62
5
10
303.325001
20
161.562500
0
VERTEX
5
483
100
AcDbEntity
8
1
100
AcDbVertex
100
AcDb2dVertex
62
5
10
303.637501
20
161.875000
0
VERTEX
5
484
100
AcDbEntity
8
1
100
AcDbVertex
100
AcDb2dVertex
62
5
10
303.950001
20
162.500000
0
VERTEX
5
485
100
AcDbEntity
8
1
100
AcDbVertex
100
AcDb2dVertex
62
5
10
303.950001
20
163.125000
0
VERTEX
5
486
100
AcDbEntity
8
1
100
AcDbVertex
100
AcDb2dVertex
62
5
10
303.637501
20
163.750000
0
VERTEX
5
487
100
AcDbEntity
8
1
100
AcDbVertex
100
AcDb2dVertex
62
5
10
303.325001
20
164.062500
0
VERTEX
5
488
100
AcDbEntity
8
1
100
AcDbVertex
100
AcDb2dVertex
62
5
10
302.700001
20
164.375000
0
VERTEX
5
489
100
AcDbEntity
8
1
100
AcDbVertex
100
AcDb2dVertex
62
5
10
301.450001
20
164.375000
0
VERTEX
5
48a
100
AcDbEntity
8
1
100
AcDbVertex
100
AcDb2dVertex
62
5
10
300.512501
20
163.750000
0
VERTEX
5
48b
100
AcDbEntity
8
1
100
AcDbVertex
100
AcDb2dVertex
62
5
10
299.262501
20
161.875000
0
VERTEX
5
48c
100
AcDbEntity
8
1
100
AcDbVertex
100
AcDb2dVertex
62
5
10
298.637501
20
161.562500
0
VERTEX
5
48d
100
AcDbEntity
8
1
100
AcDbVertex
100
AcDb2dVertex
62
5
10
297.387501
20
161.562500
0
VERTEX
5
48e
100
AcDbEntity
8
1
100
AcDbVertex
100
AcDb2dVertex
62
5
10
296.762501
20
161.875000
0
VERTEX
5
48f
100
AcDbEntity
8
1
100
AcDbVertex
100
AcDb2dVertex
62
5
10
296.450001
20
162.500000
0
SEQEND
5
490
100
AcDbEntity
8
1
0
POLYLINE
5
491
100
AcDbEntity
8
1
6
DOT2
62
5
100
AcDb2dPolyline
66
1
10
0.0
20
0.0
30
0.0
70
0
0
VERTEX
5
492
100
AcDbEntity
8
1
100
AcDbVertex
100
AcDb2dVertex
62
5
10
296.450001
20
158.750000
0
VERTEX
5
493
100
AcDbEntity
8
1
100
AcDbVertex
100
AcDb2dVertex
62
5
10
296.450001
20
157.812500
0
VERTEX
5
494
100
AcDbEntity
8
1
100
AcDbVertex
100
AcDb2dVertex
62
5
10
296.762501
20
156.875000
0
VERTEX
5
495
100
AcDbEntity
8
1
100
AcDbVertex
100
AcDb2dVertex
62
5
10
298.012501
20
156.250000
0
VERTEX
5
496
100
AcDbEntity
8
1
100
AcDbVertex
100
AcDb2dVertex
62
5
10
302.387501
20
156.250000
0
VERTEX
5
497
100
AcDbEntity
8
1
100
AcDbVertex
100
AcDb2dVertex
62
5
10
303.325001
20
156.562500
0
VERTEX
5
498
100
AcDbEntity
8
1
100
AcDbVertex
100
AcDb2dVertex
62
5
10
303.637501
20
156.875000
0
VERTEX
5
499
100
AcDbEntity
8
1
100
AcDbVertex
100
AcDb2dVertex
62
5
10
303.950001
20
157.500000
0
VERTEX
5
49a
100
AcDbEntity
8
1
100
AcDbVertex
100
AcDb2dVertex
62
5
10
303.950001
20
158.125000
0
VERTEX
5
49b
100
AcDbEntity
8
1
100
AcDbVertex
100
AcDb2dVertex
62
5
10
303.637501
20
158.750000
0
VERTEX
5
49c
100
AcDbEntity
8
1
100
AcDbVertex
100
AcDb2dVertex
62
5
10
303.325001
20
159.062500
0
VERTEX
5
49d
100
AcDbEntity
8
1
100
AcDbVertex
100
AcDb2dVertex
62
5
10
302.387501
20
159.375000
0
VERTEX
5
49e
100
AcDbEntity
8
1
100
AcDbVertex
100
AcDb2dVertex
62
5
10
300.512501
20
159.375000
0
VERTEX
5
49f
100
AcDbEntity
8
1
100
AcDbVertex
100
AcDb2dVertex
62
5
10
299.887501
20
159.062500
0
VERTEX
5
4a0
100
AcDbEntity
8
1
100
AcDbVertex
100
AcDb2dVertex
62
5
10
299.575001
20
158.437500
0
VERTEX
5
4a1
100
AcDbEntity
8
1
100
AcDbVertex
100
AcDb2dVertex
62
5
10
299.575001
20
157.187500
0
VERTEX
5
4a2
100
AcDbEntity
8
1
100
AcDbVertex
100
AcDb2dVertex
62
5
10
299.887501
20
156.250000
0
SEQEND
5
4a3
100
AcDbEntity
8
1
0
LINE
5
4a4
100
AcDbEntity
8
1
100
AcDbLine
6
CONTINUOUS
62
5
10
252.900001
20
159.500541
11
254.400000
21
159.500541
0
LINE
5
4a5
100
AcDbEntity
8
1
100
AcDbLine
6
CONTINUOUS
62
5
10
247.399999
20
175.800541
11
246.399999
21
174.800541
0
ARC
5
4a6
100
AcDbEntity
8
1
100
AcDbCircle
6
CONTINUOUS
62
5
10
258.900000
20
176.800541
40
1.000000
100
AcDbArc
50
-89.999999
51
0.000000
0
LINE
5
4a7
100
AcDbEntity
8
1
100
AcDbLine
6
CONTINUOUS
62
5
10
259.900000
20
176.800541
11
259.900000
21
176.800541
0
LINE
5
4a8
100
AcDbEntity
8
1
100
AcDbLine
6
CONTINUOUS
62
5
10
247.399999
20
174.800540
11
247.399999
21
174.800541
0
ARC
5
4a9
100
AcDbEntity
8
1
100
AcDbCircle
6
CONTINUOUS
62
5
10
248.399999
20
174.800541
40
1.000000
100
AcDbArc
50
89.999999
51
-179.999989
0
LINE
5
4aa
100
AcDbEntity
8
1
100
AcDbLine
6
CONTINUOUS
62
5
10
248.399999
20
175.800541
11
258.900000
21
175.800541
0
LINE
5
4ab
100
AcDbEntity
8
1
100
AcDbLine
6
CONTINUOUS
62
5
10
262.370933
20
153.000540
11
259.900000
21
153.000540
0
LINE
5
4ac
100
AcDbEntity
8
1
100
AcDbLine
6
CONTINUOUS
62
5
10
262.370933
20
152.842355
11
265.570933
21
152.842355
0
LINE
5
4ad
100
AcDbEntity
8
1
100
AcDbLine
6
CONTINUOUS
62
5
10
259.900000
20
149.000540
11
262.370933
21
149.000540
0
LINE
5
4ae
100
AcDbEntity
8
1
100
AcDbLine
6
CONTINUOUS
62
5
10
262.370933
20
149.158726
11
265.570933
21
149.158726
0
POLYLINE
5
4af
100
AcDbEntity
8
1
6
CONTINUOUS
62
5
100
AcDb2dPolyline
66
1
10
0.0
20
0.0
30
0.0
70
1
0
VERTEX
5
4b0
100
AcDbEntity
8
1
100
AcDbVertex
100
AcDb2dVertex
62
5
10
265.570933
20
147.500540
0
VERTEX
5
4b1
100
AcDbEntity
8
1
100
AcDbVertex
100
AcDb2dVertex
62
5
10
265.570933
20
154.500540
0
VERTEX
5
4b2
100
AcDbEntity
8
1
100
AcDbVertex
100
AcDb2dVertex
62
5
10
262.370933
20
154.500540
0
VERTEX
5
4b3
100
AcDbEntity
8
1
100
AcDbVertex
100
AcDb2dVertex
62
5
10
262.370933
20
147.500540
0
SEQEND
5
4b4
100
AcDbEntity
8
1
0
POLYLINE
5
4b5
100
AcDbEntity
8
1
6
CONTINUOUS
62
5
100
AcDb2dPolyline
66
1
10
0.0
20
0.0
30
0.0
70
0
0
VERTEX
5
4b6
100
AcDbEntity
8
1
100
AcDbVertex
100
AcDb2dVertex
62
5
10
256.899998
20
149.866317
0
VERTEX
5
4b7
100
AcDbEntity
8
1
100
AcDbVertex
100
AcDb2dVertex
62
5
10
258.899998
20
149.866317
0
VERTEX
5
4b8
100
AcDbEntity
8
1
100
AcDbVertex
100
AcDb2dVertex
62
5
10
259.095088
20
149.872045
0
VERTEX
5
4b9
100
AcDbEntity
8
1
100
AcDbVertex
100
AcDb2dVertex
62
5
10
259.282682
20
149.889006
0
VERTEX
5
4ba
100
AcDbEntity
8
1
100
AcDbVertex
100
AcDb2dVertex
62
5
10
259.455569
20
149.916550
0
VERTEX
5
4bb
100
AcDbEntity
8
1
100
AcDbVertex
100
AcDb2dVertex
62
5
10
259.607107
20
149.953619
0
VERTEX
5
4bc
100
AcDbEntity
8
1
100
AcDbVertex
100
AcDb2dVertex
62
5
10
259.731468
20
149.998786
0
VERTEX
5
4bd
100
AcDbEntity
8
1
100
AcDbVertex
100
AcDb2dVertex
62
5
10
259.823877
20
150.050318
0
VERTEX
5
4be
100
AcDbEntity
8
1
100
AcDbVertex
100
AcDb2dVertex
62
5
10
259.880785
20
150.106233
0
VERTEX
5
4bf
100
AcDbEntity
8
1
100
AcDbVertex
100
AcDb2dVertex
62
5
10
259.900000
20
150.164383
0
SEQEND
5
4c0
100
AcDbEntity
8
1
0
ARC
5
4c1
100
AcDbEntity
8
1
100
AcDbCircle
6
CONTINUOUS
62
5
10
265.570933
20
151.000540
40
3.000000
100
AcDbArc
50
-89.999999
51
89.999999
0
LINE
5
4c2
100
AcDbEntity
8
1
100
AcDbLine
6
CONTINUOUS
62
5
10
252.900001
20
154.500540
11
254.400000
21
154.500540
0
ARC
5
4c3
100
AcDbEntity
8
1
100
AcDbCircle
6
CONTINUOUS
62
5
10
251.889004
20
160.500540
40
2.500000
100
AcDbArc
50
0.045816
51
89.999999
0
LINE
5
4c4
100
AcDbEntity
8
1
100
AcDbLine
6
CONTINUOUS
62
5
10
251.889004
20
163.000540
11
251.399999
21
163.000540
0
ARC
5
4c5
100
AcDbEntity
8
1
100
AcDbCircle
6
CONTINUOUS
62
5
10
251.399999
20
164.000540
40
1.000000
100
AcDbArc
50
179.999998
51
-89.999999
0
POLYLINE
5
4c6
100
AcDbEntity
8
1
6
CONTINUOUS
62
5
100
AcDb2dPolyline
66
1
10
0.0
20
0.0
30
0.0
70
0
0
VERTEX
5
4c7
100
AcDbEntity
8
1
100
AcDbVertex
100
AcDb2dVertex
62
5
10
250.399999
20
164.000540
0
VERTEX
5
4c8
100
AcDbEntity
8
1
100
AcDbVertex
100
AcDb2dVertex
62
5
10
250.399999
20
174.750540
0
VERTEX
5
4c9
100
AcDbEntity
8
1
100
AcDbVertex
100
AcDb2dVertex
62
5
10
248.899998
20
174.750540
0
VERTEX
5
4ca
100
AcDbEntity
8
1
100
AcDbVertex
100
AcDb2dVertex
62
5
10
248.899998
20
164.000540
0
SEQEND
5
4cb
100
AcDbEntity
8
1
0
ARC
5
4cc
100
AcDbEntity
8
1
100
AcDbCircle
6
CONTINUOUS
62
5
10
251.399998
20
164.000540
40
2.500000
100
AcDbArc
50
179.999998
51
-89.999999
0
LINE
5
4cd
100
AcDbEntity
8
1
100
AcDbLine
6
CONTINUOUS
62
5
10
251.399998
20
161.500540
11
251.900001
21
161.500540
0
ARC
5
4ce
100
AcDbEntity
8
1
100
AcDbCircle
6
CONTINUOUS
62
5
10
251.900001
20
160.500540
40
1.000000
100
AcDbArc
50
0.000000
51
89.999999
0
POLYLINE
5
4cf
100
AcDbEntity
8
1
6
CONTINUOUS
62
5
100
AcDb2dPolyline
66
1
10
0.0
20
0.0
30
0.0
70
0
0
VERTEX
5
4d0
100
AcDbEntity
8
1
100
AcDbVertex
100
AcDb2dVertex
62
5
10
252.900001
20
160.500540
0
VERTEX
5
4d1
100
AcDbEntity
8
1
100
AcDbVertex
100
AcDb2dVertex
62
5
10
252.900001
20
146.750540
0
VERTEX
5
4d2
100
AcDbEntity
8
1
100
AcDbVertex
100
AcDb2dVertex
62
5
10
254.400000
20
146.750540
0
VERTEX
5
4d3
100
AcDbEntity
8
1
100
AcDbVertex
100
AcDb2dVertex
62
5
10
254.389003
20
160.502540
0
SEQEND
5
4d4
100
AcDbEntity
8
1
0
LINE
5
4d5
100
AcDbEntity
8
1
100
AcDbLine
6
CONTINUOUS
62
5
10
260.100000
20
129.481529
11
259.900000
21
129.481529
0
LINE
5
4d6
100
AcDbEntity
8
1
100
AcDbLine
6
CONTINUOUS
62
5
10
259.900000
20
128.800541
11
260.100000
21
128.800541
0
POLYLINE
5
4d7
100
AcDbEntity
8
1
6
CONTINUOUS
62
5
100
AcDb2dPolyline
66
1
10
0.0
20
0.0
30
0.0
70
0
0
VERTEX
5
4d8
100
AcDbEntity
8
1
100
AcDbVertex
100
AcDb2dVertex
62
5
10
258.899998
20
134.598966
0
VERTEX
5
4d9
100
AcDbEntity
8
1
100
AcDbVertex
100
AcDb2dVertex
62
5
10
258.925772
20
134.600041
0
VERTEX
5
4da
100
AcDbEntity
8
1
100
AcDbVertex
100
AcDb2dVertex
62
5
10
258.951525
20
134.601146
0
VERTEX
5
4db
100
AcDbEntity
8
1
100
AcDbVertex
100
AcDb2dVertex
62
5
10
258.977239
20
134.602308
0
VERTEX
5
4dc
100
AcDbEntity
8
1
100
AcDbVertex
100
AcDb2dVertex
62
5
10
259.002892
20
134.603559
0
VERTEX
5
4dd
100
AcDbEntity
8
1
100
AcDbVertex
100
AcDb2dVertex
62
5
10
259.028465
20
134.604926
0
VERTEX
5
4de
100
AcDbEntity
8
1
100
AcDbVertex
100
AcDb2dVertex
62
5
10
259.053938
20
134.606439
0
VERTEX
5
4df
100
AcDbEntity
8
1
100
AcDbVertex
100
AcDb2dVertex
62
5
10
259.079291
20
134.608128
0
VERTEX
5
4e0
100
AcDbEntity
8
1
100
AcDbVertex
100
AcDb2dVertex
62
5
10
259.104503
20
134.610021
0
VERTEX
5
4e1
100
AcDbEntity
8
1
100
AcDbVertex
100
AcDb2dVertex
62
5
10
259.129555
20
134.612148
0
VERTEX
5
4e2
100
AcDbEntity
8
1
100
AcDbVertex
100
AcDb2dVertex
62
5
10
259.154427
20
134.614537
0
VERTEX
5
4e3
100
AcDbEntity
8
1
100
AcDbVertex
100
AcDb2dVertex
62
5
10
259.179098
20
134.617219
0
VERTEX
5
4e4
100
AcDbEntity
8
1
100
AcDbVertex
100
AcDb2dVertex
62
5
10
259.203549
20
134.620222
0
VERTEX
5
4e5
100
AcDbEntity
8
1
100
AcDbVertex
100
AcDb2dVertex
62
5
10
259.227759
20
134.623572
0
VERTEX
5
4e6
100
AcDbEntity
8
1
100
AcDbVertex
100
AcDb2dVertex
62
5
10
259.251714
20
134.627270
0
VERTEX
5
4e7
100
AcDbEntity
8
1
100
AcDbVertex
100
AcDb2dVertex
62
5
10
259.275398
20
134.631302
0
VERTEX
5
4e8
100
AcDbEntity
8
1
100
AcDbVertex
100
AcDb2dVertex
62
5
10
259.298799
20
134.635654
0
VERTEX
5
4e9
100
AcDbEntity
8
1
100
AcDbVertex
100
AcDb2dVertex
62
5
10
259.321902
20
134.640313
0
VERTEX
5
4ea
100
AcDbEntity
8
1
100
AcDbVertex
100
AcDb2dVertex
62
5
10
259.344694
20
134.645265
0
VERTEX
5
4eb
100
AcDbEntity
8
1
100
AcDbVertex
100
AcDb2dVertex
62
5
10
259.367160
20
134.650498
0
VERTEX
5
4ec
100
AcDbEntity
8
1
100
AcDbVertex
100
AcDb2dVertex
62
5
10
259.389286
20
134.655997
0
VERTEX
5
4ed
100
AcDbEntity
8
1
100
AcDbVertex
100
AcDb2dVertex
62
5
10
259.411059
20
134.661750
0
VERTEX
5
4ee
100
AcDbEntity
8
1
100
AcDbVertex
100
AcDb2dVertex
62
5
10
259.432465
20
134.667742
0
VERTEX
5
4ef
100
AcDbEntity
8
1
100
AcDbVertex
100
AcDb2dVertex
62
5
10
259.453489
20
134.673961
0
VERTEX
5
4f0
100
AcDbEntity
8
1
100
AcDbVertex
100
AcDb2dVertex
62
5
10
259.474119
20
134.680392
0
VERTEX
5
4f1
100
AcDbEntity
8
1
100
AcDbVertex
100
AcDb2dVertex
62
5
10
259.494339
20
134.687023
0
VERTEX
5
4f2
100
AcDbEntity
8
1
100
AcDbVertex
100
AcDb2dVertex
62
5
10
259.514140
20
134.693845
0
VERTEX
5
4f3
100
AcDbEntity
8
1
100
AcDbVertex
100
AcDb2dVertex
62
5
10
259.533514
20
134.700855
0
VERTEX
5
4f4
100
AcDbEntity
8
1
100
AcDbVertex
100
AcDb2dVertex
62
5
10
259.552455
20
134.708049
0
VERTEX
5
4f5
100
AcDbEntity
8
1
100
AcDbVertex
100
AcDb2dVertex
62
5
10
259.570954
20
134.715423
0
VERTEX
5
4f6
100
AcDbEntity
8
1
100
AcDbVertex
100
AcDb2dVertex
62
5
10
259.589005
20
134.722973
0
VERTEX
5
4f7
100
AcDbEntity
8
1
100
AcDbVertex
100
AcDb2dVertex
62
5
10
259.606600
20
134.730696
0
VERTEX
5
4f8
100
AcDbEntity
8
1
100
AcDbVertex
100
AcDb2dVertex
62
5
10
259.623733
20
134.738588
0
VERTEX
5
4f9
100
AcDbEntity
8
1
100
AcDbVertex
100
AcDb2dVertex
62
5
10
259.640395
20
134.746646
0
VERTEX
5
4fa
100
AcDbEntity
8
1
100
AcDbVertex
100
AcDb2dVertex
62
5
10
259.656581
20
134.754865
0
VERTEX
5
4fb
100
AcDbEntity
8
1
100
AcDbVertex
100
AcDb2dVertex
62
5
10
259.672282
20
134.763242
0
VERTEX
5
4fc
100
AcDbEntity
8
1
100
AcDbVertex
100
AcDb2dVertex
62
5
10
259.687491
20
134.771774
0
VERTEX
5
4fd
100
AcDbEntity
8
1
100
AcDbVertex
100
AcDb2dVertex
62
5
10
259.702201
20
134.780457
0
VERTEX
5
4fe
100
AcDbEntity
8
1
100
AcDbVertex
100
AcDb2dVertex
62
5
10
259.716406
20
134.789286
0
VERTEX
5
4ff
100
AcDbEntity
8
1
100
AcDbVertex
100
AcDb2dVertex
62
5
10
259.730101
20
134.798257
0
VERTEX
5
500
100
AcDbEntity
8
1
100
AcDbVertex
100
AcDb2dVertex
62
5
10
259.743285
20
134.807364
0
VERTEX
5
501
100
AcDbEntity
8
1
100
AcDbVertex
100
AcDb2dVertex
62
5
10
259.755954
20
134.816601
0
VERTEX
5
502
100
AcDbEntity
8
1
100
AcDbVertex
100
AcDb2dVertex
62
5
10
259.768106
20
134.825962
0
VERTEX
5
503
100
AcDbEntity
8
1
100
AcDbVertex
100
AcDb2dVertex
62
5
10
259.779738
20
134.835441
0
VERTEX
5
504
100
AcDbEntity
8
1
100
AcDbVertex
100
AcDb2dVertex
62
5
10
259.790848
20
134.845034
0
VERTEX
5
505
100
AcDbEntity
8
1
100
AcDbVertex
100
AcDb2dVertex
62
5
10
259.801433
20
134.854733
0
VERTEX
5
506
100
AcDbEntity
8
1
100
AcDbVertex
100
AcDb2dVertex
62
5
10
259.811491
20
134.864533
0
VERTEX
5
507
100
AcDbEntity
8
1
100
AcDbVertex
100
AcDb2dVertex
62
5
10
259.821019
20
134.874429
0
VERTEX
5
508
100
AcDbEntity
8
1
100
AcDbVertex
100
AcDb2dVertex
62
5
10
259.830013
20
134.884414
0
VERTEX
5
509
100
AcDbEntity
8
1
100
AcDbVertex
100
AcDb2dVertex
62
5
10
259.838473
20
134.894483
0
VERTEX
5
50a
100
AcDbEntity
8
1
100
AcDbVertex
100
AcDb2dVertex
62
5
10
259.846394
20
134.904631
0
VERTEX
5
50b
100
AcDbEntity
8
1
100
AcDbVertex
100
AcDb2dVertex
62
5
10
259.853776
20
134.914850
0
VERTEX
5
50c
100
AcDbEntity
8
1
100
AcDbVertex
100
AcDb2dVertex
62
5
10
259.860614
20
134.925137
0
VERTEX
5
50d
100
AcDbEntity
8
1
100
AcDbVertex
100
AcDb2dVertex
62
5
10
259.866909
20
134.935484
0
VERTEX
5
50e
100
AcDbEntity
8
1
100
AcDbVertex
100
AcDb2dVertex
62
5
10
259.872659
20
134.945887
0
VERTEX
5
50f
100
AcDbEntity
8
1
100
AcDbVertex
100
AcDb2dVertex
62
5
10
259.877863
20
134.956341
0
VERTEX
5
510
100
AcDbEntity
8
1
100
AcDbVertex
100
AcDb2dVertex
62
5
10
259.882521
20
134.966839
0
VERTEX
5
511
100
AcDbEntity
8
1
100
AcDbVertex
100
AcDb2dVertex
62
5
10
259.886631
20
134.977377
0
VERTEX
5
512
100
AcDbEntity
8
1
100
AcDbVertex
100
AcDb2dVertex
62
5
10
259.890193
20
134.987949
0
VERTEX
5
513
100
AcDbEntity
8
1
100
AcDbVertex
100
AcDb2dVertex
62
5
10
259.893205
20
134.998549
0
VERTEX
5
514
100
AcDbEntity
8
1
100
AcDbVertex
100
AcDb2dVertex
62
5
10
259.895667
20
135.009173
0
VERTEX
5
515
100
AcDbEntity
8
1
100
AcDbVertex
100
AcDb2dVertex
62
5
10
259.897578
20
135.019815
0
VERTEX
5
516
100
AcDbEntity
8
1
100
AcDbVertex
100
AcDb2dVertex
62
5
10
259.898936
20
135.030469
0
VERTEX
5
517
100
AcDbEntity
8
1
100
AcDbVertex
100
AcDb2dVertex
62
5
10
259.899741
20
135.041130
0
VERTEX
5
518
100
AcDbEntity
8
1
100
AcDbVertex
100
AcDb2dVertex
62
5
10
259.900000
20
135.051793
0
SEQEND
5
519
100
AcDbEntity
8
1
0
POLYLINE
5
51a
100
AcDbEntity
8
1
6
CONTINUOUS
62
5
100
AcDb2dPolyline
66
1
10
0.0
20
0.0
30
0.0
70
0
0
VERTEX
5
51b
100
AcDbEntity
8
1
100
AcDbVertex
100
AcDb2dVertex
62
5
10
227.199999
20
141.425540
0
VERTEX
5
51c
100
AcDbEntity
8
1
100
AcDbVertex
100
AcDb2dVertex
62
5
10
226.199999
20
141.425540
0
VERTEX
5
51d
100
AcDbEntity
8
1
100
AcDbVertex
100
AcDb2dVertex
62
5
10
226.199999
20
138.575540
0
VERTEX
5
51e
100
AcDbEntity
8
1
100
AcDbVertex
100
AcDb2dVertex
62
5
10
227.199999
20
138.575540
0
SEQEND
5
51f
100
AcDbEntity
8
1
0
POLYLINE
5
520
100
AcDbEntity
8
1
6
CONTINUOUS
62
5
100
AcDb2dPolyline
66
1
10
0.0
20
0.0
30
0.0
70
0
0
VERTEX
5
521
100
AcDbEntity
8
1
100
AcDbVertex
100
AcDb2dVertex
62
5
10
226.199999
20
138.675540
0
VERTEX
5
522
100
AcDbEntity
8
1
100
AcDbVertex
100
AcDb2dVertex
62
5
10
222.399999
20
138.675540
0
VERTEX
5
523
100
AcDbEntity
8
1
100
AcDbVertex
100
AcDb2dVertex
62
5
10
222.399999
20
141.325540
0
VERTEX
5
524
100
AcDbEntity
8
1
100
AcDbVertex
100
AcDb2dVertex
62
5
10
226.199999
20
141.325540
0
SEQEND
5
525
100
AcDbEntity
8
1
0
POLYLINE
5
526
100
AcDbEntity
8
1
6
CONTINUOUS
62
5
100
AcDb2dPolyline
66
1
10
0.0
20
0.0
30
0.0
70
1
0
VERTEX
5
527
100
AcDbEntity
8
1
100
AcDbVertex
100
AcDb2dVertex
62
5
10
220.899999
20
138.350540
0
VERTEX
5
528
100
AcDbEntity
8
1
100
AcDbVertex
100
AcDb2dVertex
62
5
10
220.899999
20
141.650540
0
VERTEX
5
529
100
AcDbEntity
8
1
100
AcDbVertex
100
AcDb2dVertex
62
5
10
227.199999
20
141.650540
0
VERTEX
5
52a
100
AcDbEntity
8
1
100
AcDbVertex
100
AcDb2dVertex
62
5
10
227.199999
20
138.350540
0
SEQEND
5
52b
100
AcDbEntity
8
1
0
LINE
5
52c
100
AcDbEntity
8
1
100
AcDbLine
6
CONTINUOUS
62
5
10
220.899999
20
135.917351
11
209.899999
21
135.917351
0
ARC
5
52d
100
AcDbEntity
8
1
100
AcDbCircle
6
CONTINUOUS
62
5
10
210.860708
20
160.000540
40
20.500000
100
AcDbArc
50
-141.577473
51
-125.693507
0
LINE
5
52e
100
AcDbEntity
8
1
100
AcDbLine
6
CONTINUOUS
62
5
10
194.799999
20
147.260696
11
194.799999
21
172.740384
0
ARC
5
52f
100
AcDbEntity
8
1
100
AcDbCircle
6
CONTINUOUS
62
5
10
210.860692
20
160.000559
40
20.499976
100
AcDbArc
50
125.693500
51
141.577488
0
POLYLINE
5
530
100
AcDbEntity
8
1
6
CONTINUOUS
62
5
100
AcDb2dPolyline
66
1
10
0.0
20
0.0
30
0.0
70
0
0
VERTEX
5
531
100
AcDbEntity
8
1
100
AcDbVertex
100
AcDb2dVertex
62
5
10
246.399999
20
157.250540
0
VERTEX
5
532
100
AcDbEntity
8
1
100
AcDbVertex
100
AcDb2dVertex
62
5
10
246.399999
20
174.800541
0
VERTEX
5
533
100
AcDbEntity
8
1
100
AcDbVertex
100
AcDb2dVertex
62
5
10
209.899999
20
174.800541
0
SEQEND
5
534
100
AcDbEntity
8
1
0
POLYLINE
5
535
100
AcDbEntity
8
1
6
CONTINUOUS
62
5
100
AcDb2dPolyline
66
1
10
0.0
20
0.0
30
0.0
70
0
0
VERTEX
5
536
100
AcDbEntity
8
1
100
AcDbVertex
100
AcDb2dVertex
62
5
10
209.899999
20
175.800541
0
VERTEX
5
537
100
AcDbEntity
8
1
100
AcDbVertex
100
AcDb2dVertex
62
5
10
247.399999
20
175.800541
0
VERTEX
5
538
100
AcDbEntity
8
1
100
AcDbVertex
100
AcDb2dVertex
62
5
10
247.399999
20
157.250540
0
SEQEND
5
539
100
AcDbEntity
8
1
0
LINE
5
53a
100
AcDbEntity
8
1
100
AcDbLine
6
CONTINUOUS
62
5
10
252.900001
20
155.750540
11
209.899999
21
155.750540
0
LINE
5
53b
100
AcDbEntity
8
1
100
AcDbLine
6
CONTINUOUS
62
5
10
256.899998
20
153.000540
11
254.398201
21
153.000540
0
LINE
5
53c
100
AcDbEntity
8
1
100
AcDbLine
6
CONTINUOUS
62
5
10
252.900001
20
153.000540
11
209.899999
21
153.000540
0
LINE
5
53d
100
AcDbEntity
8
1
100
AcDbLine
6
CONTINUOUS
62
5
10
256.899998
20
149.000540
11
254.398201
21
149.000540
0
LINE
5
53e
100
AcDbEntity
8
1
100
AcDbLine
6
CONTINUOUS
62
5
10
252.900001
20
149.000540
11
209.899999
21
149.000540
0
POLYLINE
5
53f
100
AcDbEntity
8
1
6
CONTINUOUS
62
5
100
AcDb2dPolyline
66
1
10
0.0
20
0.0
30
0.0
70
0
0
VERTEX
5
540
100
AcDbEntity
8
1
100
AcDbVertex
100
AcDb2dVertex
62
5
10
209.899999
20
144.750541
0
VERTEX
5
541
100
AcDbEntity
8
1
100
AcDbVertex
100
AcDb2dVertex
62
5
10
256.899998
20
144.750541
0
VERTEX
5
542
100
AcDbEntity
8
1
100
AcDbVertex
100
AcDb2dVertex
62
5
10
256.899998
20
157.250540
0
SEQEND
5
543
100
AcDbEntity
8
1
0
LINE
5
544
100
AcDbEntity
8
1
100
AcDbLine
6
CONTINUOUS
62
5
10
258.899998
20
134.598966
11
220.899999
21
134.598966
0
ARC
5
545
100
AcDbEntity
8
1
100
AcDbCircle
6
CONTINUOUS
62
5
10
258.900000
20
156.250540
40
1.000000
100
AcDbArc
50
0.000000
51
89.999999
0
LINE
5
546
100
AcDbEntity
8
1
100
AcDbLine
6
CONTINUOUS
62
5
10
259.900000
20
156.250540
11
259.900000
21
145.200541
0
ARC
5
547
100
AcDbEntity
8
1
100
AcDbCircle
6
CONTINUOUS
62
5
10
258.900000
20
145.200541
40
1.000000
100
AcDbArc
50
-89.999999
51
0.000000
0
LINE
5
548
100
AcDbEntity
8
1
100
AcDbLine
6
CONTINUOUS
62
5
10
258.900000
20
144.200541
11
220.899999
21
144.200541
0
POLYLINE
5
549
100
AcDbEntity
8
1
6
CONTINUOUS
62
5
100
AcDb2dPolyline
66
1
10
0.0
20
0.0
30
0.0
70
0
0
VERTEX
5
54a
100
AcDbEntity
8
1
100
AcDbVertex
100
AcDb2dVertex
62
5
10
256.899998
20
146.250540
0
VERTEX
5
54b
100
AcDbEntity
8
1
100
AcDbVertex
100
AcDb2dVertex
62
5
10
209.899999
20
146.250540
0
VERTEX
5
54c
100
AcDbEntity
8
1
100
AcDbVertex
100
AcDb2dVertex
62
5
10
209.899999
20
157.250540
0
VERTEX
5
54d
100
AcDbEntity
8
1
100
AcDbVertex
100
AcDb2dVertex
62
5
10
258.900000
20
157.250540
0
SEQEND
5
54e
100
AcDbEntity
8
1
0
POLYLINE
5
54f
100
AcDbEntity
8
1
6
CONTINUOUS
62
5
100
AcDb2dPolyline
66
1
10
0.0
20
0.0
30
0.0
70
0
0
VERTEX
5
550
100
AcDbEntity
8
1
100
AcDbVertex
100
AcDb2dVertex
62
5
10
162.500000
20
38.250000
0
VERTEX
5
551
100
AcDbEntity
8
1
100
AcDbVertex
100
AcDb2dVertex
62
5
10
164.062500
20
45.750000
0
VERTEX
5
552
100
AcDbEntity
8
1
100
AcDbVertex
100
AcDb2dVertex
62
5
10
165.625000
20
38.250000
0
SEQEND
5
553
100
AcDbEntity
8
1
0
LINE
5
554
100
AcDbEntity
8
1
100
AcDbLine
6
CONTINUOUS
62
5
10
163.125000
20
40.750000
11
165.000000
21
40.750000
0
POLYLINE
5
555
100
AcDbEntity
8
1
6
CONTINUOUS
62
5
100
AcDb2dPolyline
66
1
10
0.0
20
0.0
30
0.0
70
0
0
VERTEX
5
556
100
AcDbEntity
8
1
100
AcDbVertex
100
AcDb2dVertex
62
5
10
170.625000
20
44.187500
0
VERTEX
5
557
100
AcDbEntity
8
1
100
AcDbVertex
100
AcDb2dVertex
62
5
10
170.312500
20
45.125000
0
VERTEX
5
558
100
AcDbEntity
8
1
100
AcDbVertex
100
AcDb2dVertex
62
5
10
169.687500
20
45.750000
0
VERTEX
5
559
100
AcDbEntity
8
1
100
AcDbVertex
100
AcDb2dVertex
62
5
10
168.750000
20
45.750000
0
VERTEX
5
55a
100
AcDbEntity
8
1
100
AcDbVertex
100
AcDb2dVertex
62
5
10
167.812500
20
44.812500
0
VERTEX
5
55b
100
AcDbEntity
8
1
100
AcDbVertex
100
AcDb2dVertex
62
5
10
167.500000
20
43.250000
0
VERTEX
5
55c
100
AcDbEntity
8
1
100
AcDbVertex
100
AcDb2dVertex
62
5
10
167.500000
20
40.750000
0
VERTEX
5
55d
100
AcDbEntity
8
1
100
AcDbVertex
100
AcDb2dVertex
62
5
10
167.812500
20
39.187500
0
VERTEX
5
55e
100
AcDbEntity
8
1
100
AcDbVertex
100
AcDb2dVertex
62
5
10
168.750000
20
38.250000
0
VERTEX
5
55f
100
AcDbEntity
8
1
100
AcDbVertex
100
AcDb2dVertex
62
5
10
169.687500
20
38.250000
0
VERTEX
5
560
100
AcDbEntity
8
1
100
AcDbVertex
100
AcDb2dVertex
62
5
10
170.312500
20
38.875000
0
VERTEX
5
561
100
AcDbEntity
8
1
100
AcDbVertex
100
AcDb2dVertex
62
5
10
170.937500
20
40.437500
0
SEQEND
5
562
100
AcDbEntity
8
1
0
POLYLINE
5
563
100
AcDbEntity
8
1
6
CONTINUOUS
62
5
100
AcDb2dPolyline
66
1
10
0.0
20
0.0
30
0.0
70
0
0
VERTEX
5
564
100
AcDbEntity
8
1
100
AcDbVertex
100
AcDb2dVertex
62
5
10
152.500000
20
45.750000
0
VERTEX
5
565
100
AcDbEntity
8
1
100
AcDbVertex
100
AcDb2dVertex
62
5
10
154.062500
20
38.250000
0
VERTEX
5
566
100
AcDbEntity
8
1
100
AcDbVertex
100
AcDb2dVertex
62
5
10
155.625000
20
45.750000
0
SEQEND
5
567
100
AcDbEntity
8
1
0
POLYLINE
5
568
100
AcDbEntity
8
1
6
CONTINUOUS
62
5
100
AcDb2dPolyline
66
1
10
0.0
20
0.0
30
0.0
70
0
0
VERTEX
5
569
100
AcDbEntity
8
1
100
AcDbVertex
100
AcDb2dVertex
62
5
10
69.043797
20
169.674738
0
VERTEX
5
56a
100
AcDbEntity
8
1
100
AcDbVertex
100
AcDb2dVertex
62
5
10
70.180452
20
169.018490
0
VERTEX
5
56b
100
AcDbEntity
8
1
100
AcDbVertex
100
AcDb2dVertex
62
5
10
72.180453
20
172.482592
0
VERTEX
5
56c
100
AcDbEntity
8
1
100
AcDbVertex
100
AcDb2dVertex
62
5
10
71.043798
20
173.138840
0
SEQEND
5
56d
100
AcDbEntity
8
1
0
ARC
5
56e
100
AcDbEntity
8
1
100
AcDbCircle
6
CONTINUOUS
62
5
10
89.799999
20
160.000540
40
21.600000
100
AcDbArc
50
144.687224
51
155.312773
0
POLYLINE
5
56f
100
AcDbEntity
8
1
6
CONTINUOUS
62
5
100
AcDb2dPolyline
66
1
10
0.0
20
0.0
30
0.0
70
0
0
VERTEX
5
570
100
AcDbEntity
8
1
100
AcDbVertex
100
AcDb2dVertex
62
5
10
69.043797
20
169.674738
0
VERTEX
5
571
100
AcDbEntity
8
1
100
AcDbVertex
100
AcDb2dVertex
62
5
10
70.180452
20
169.018490
0
VERTEX
5
572
100
AcDbEntity
8
1
100
AcDbVertex
100
AcDb2dVertex
62
5
10
72.180453
20
172.482592
0
VERTEX
5
573
100
AcDbEntity
8
1
100
AcDbVertex
100
AcDb2dVertex
62
5
10
71.043798
20
173.138840
0
SEQEND
5
574
100
AcDbEntity
8
1
0
ARC
5
575
100
AcDbEntity
8
1
100
AcDbCircle
6
CONTINUOUS
62
5
10
89.799999
20
160.000540
40
21.600000
100
AcDbArc
50
144.687224
51
155.312773
0
LINE
5
576
100
AcDbEntity
8
1
100
AcDbLine
6
CONTINUOUS
62
5
10
87.999999
20
138.500540
11
87.999999
21
138.475672
0
LINE
5
577
100
AcDbEntity
8
1
100
AcDbLine
6
CONTINUOUS
62
5
10
87.999999
20
138.500540
11
87.999999
21
138.475672
0
POLYLINE
5
578
100
AcDbEntity
8
1
6
CONTINUOUS
62
5
100
AcDb2dPolyline
66
1
10
0.0
20
0.0
30
0.0
70
0
0
VERTEX
5
579
100
AcDbEntity
8
1
100
AcDbVertex
100
AcDb2dVertex
62
5
10
91.799999
20
137.188044
0
VERTEX
5
57a
100
AcDbEntity
8
1
100
AcDbVertex
100
AcDb2dVertex
62
5
10
91.799999
20
138.500540
0
VERTEX
5
57b
100
AcDbEntity
8
1
100
AcDbVertex
100
AcDb2dVertex
62
5
10
87.799999
20
138.500540
0
VERTEX
5
57c
100
AcDbEntity
8
1
100
AcDbVertex
100
AcDb2dVertex
62
5
10
87.799999
20
137.188044
0
SEQEND
5
57d
100
AcDbEntity
8
1
0
ARC
5
57e
100
AcDbEntity
8
1
100
AcDbCircle
6
CONTINUOUS
62
5
10
89.799999
20
160.000540
40
21.600000
100
AcDbArc
50
-95.312774
51
-84.687225
0
POLYLINE
5
57f
100
AcDbEntity
8
1
6
CONTINUOUS
62
5
100
AcDb2dPolyline
66
1
10
0.0
20
0.0
30
0.0
70
0
0
VERTEX
5
580
100
AcDbEntity
8
1
100
AcDbVertex
100
AcDb2dVertex
62
5
10
91.799999
20
137.188044
0
VERTEX
5
581
100
AcDbEntity
8
1
100
AcDbVertex
100
AcDb2dVertex
62
5
10
91.799999
20
138.500540
0
VERTEX
5
582
100
AcDbEntity
8
1
100
AcDbVertex
100
AcDb2dVertex
62
5
10
87.799999
20
138.500540
0
VERTEX
5
583
100
AcDbEntity
8
1
100
AcDbVertex
100
AcDb2dVertex
62
5
10
87.799999
20
137.188044
0
SEQEND
5
584
100
AcDbEntity
8
1
0
ARC
5
585
100
AcDbEntity
8
1
100
AcDbCircle
6
CONTINUOUS
62
5
10
89.799999
20
160.000540
40
21.600000
100
AcDbArc
50
-95.312774
51
-84.687225
0
POLYLINE
5
586
100
AcDbEntity
8
1
6
CONTINUOUS
62
5
100
AcDb2dPolyline
66
1
10
0.0
20
0.0
30
0.0
70
0
0
VERTEX
5
587
100
AcDbEntity
8
1
100
AcDbVertex
100
AcDb2dVertex
62
5
10
71.043797
20
146.862241
0
VERTEX
5
588
100
AcDbEntity
8
1
100
AcDbVertex
100
AcDb2dVertex
62
5
10
72.180453
20
147.518490
0
VERTEX
5
589
100
AcDbEntity
8
1
100
AcDbVertex
100
AcDb2dVertex
62
5
10
70.180452
20
150.982591
0
VERTEX
5
58a
100
AcDbEntity
8
1
100
AcDbVertex
100
AcDb2dVertex
62
5
10
69.043797
20
150.326343
0
SEQEND
5
58b
100
AcDbEntity
8
1
0
ARC
5
58c
100
AcDbEntity
8
1
100
AcDbCircle
6
CONTINUOUS
62
5
10
89.799999
20
160.000540
40
21.600000
100
AcDbArc
50
-155.312773
51
-144.687224
0
POLYLINE
5
58d
100
AcDbEntity
8
1
6
CONTINUOUS
62
5
100
AcDb2dPolyline
66
1
10
0.0
20
0.0
30
0.0
70
0
0
VERTEX
5
58e
100
AcDbEntity
8
1
100
AcDbVertex
100
AcDb2dVertex
62
5
10
71.043797
20
146.862241
0
VERTEX
5
58f
100
AcDbEntity
8
1
100
AcDbVertex
100
AcDb2dVertex
62
5
10
72.180453
20
147.518490
0
VERTEX
5
590
100
AcDbEntity
8
1
100
AcDbVertex
100
AcDb2dVertex
62
5
10
70.180452
20
150.982591
0
VERTEX
5
591
100
AcDbEntity
8
1
100
AcDbVertex
100
AcDb2dVertex
62
5
10
69.043797
20
150.326343
0
SEQEND
5
592
100
AcDbEntity
8
1
0
ARC
5
593
100
AcDbEntity
8
1
100
AcDbCircle
6
CONTINUOUS
62
5
10
89.799999
20
160.000540
40
21.600000
100
AcDbArc
50
-155.312773
51
-144.687224
0
CIRCLE
5
594
100
AcDbEntity
8
1
100
AcDbCircle
6
CONTINUOUS
62
5
10
89.799999
20
160.000540
40
12.739845
0
CIRCLE
5
595
100
AcDbEntity
8
1
100
AcDbCircle
6
CONTINUOUS
62
5
10
89.799999
20
160.000540
40
12.739845
0
POLYLINE
5
596
100
AcDbEntity
8
1
6
CONTINUOUS
62
5
100
AcDb2dPolyline
66
1
10
0.0
20
0.0
30
0.0
70
0
0
VERTEX
5
597
100
AcDbEntity
8
1
100
AcDbVertex
100
AcDb2dVertex
62
5
10
108.556200
20
173.138840
0
VERTEX
5
598
100
AcDbEntity
8
1
100
AcDbVertex
100
AcDb2dVertex
62
5
10
107.419545
20
172.482592
0
VERTEX
5
599
100
AcDbEntity
8
1
100
AcDbVertex
100
AcDb2dVertex
62
5
10
109.419545
20
169.018490
0
VERTEX
5
59a
100
AcDbEntity
8
1
100
AcDbVertex
100
AcDb2dVertex
62
5
10
110.556201
20
169.674738
0
SEQEND
5
59b
100
AcDbEntity
8
1
0
ARC
5
59c
100
AcDbEntity
8
1
100
AcDbCircle
6
CONTINUOUS
62
5
10
89.799999
20
160.000540
40
21.600000
100
AcDbArc
50
24.687225
51
35.312774
0
POLYLINE
5
59d
100
AcDbEntity
8
1
6
CONTINUOUS
62
5
100
AcDb2dPolyline
66
1
10
0.0
20
0.0
30
0.0
70
0
0
VERTEX
5
59e
100
AcDbEntity
8
1
100
AcDbVertex
100
AcDb2dVertex
62
5
10
108.556200
20
173.138840
0
VERTEX
5
59f
100
AcDbEntity
8
1
100
AcDbVertex
100
AcDb2dVertex
62
5
10
107.419545
20
172.482592
0
VERTEX
5
5a0
100
AcDbEntity
8
1
100
AcDbVertex
100
AcDb2dVertex
62
5
10
109.419545
20
169.018490
0
VERTEX
5
5a1
100
AcDbEntity
8
1
100
AcDbVertex
100
AcDb2dVertex
62
5
10
110.556201
20
169.674738
0
SEQEND
5
5a2
100
AcDbEntity
8
1
0
ARC
5
5a3
100
AcDbEntity
8
1
100
AcDbCircle
6
CONTINUOUS
62
5
10
89.799999
20
160.000540
40
21.600000
100
AcDbArc
50
24.687225
51
35.312774
0
POLYLINE
5
5a4
100
AcDbEntity
8
1
6
CONTINUOUS
62
5
100
AcDb2dPolyline
66
1
10
0.0
20
0.0
30
0.0
70
0
0
VERTEX
5
5a5
100
AcDbEntity
8
1
100
AcDbVertex
100
AcDb2dVertex
62
5
10
108.556200
20
146.862241
0
VERTEX
5
5a6
100
AcDbEntity
8
1
100
AcDbVertex
100
AcDb2dVertex
62
5
10
107.419545
20
147.518490
0
VERTEX
5
5a7
100
AcDbEntity
8
1
100
AcDbVertex
100
AcDb2dVertex
62
5
10
109.419545
20
150.982591
0
VERTEX
5
5a8
100
AcDbEntity
8
1
100
AcDbVertex
100
AcDb2dVertex
62
5
10
110.556201
20
150.326343
0
SEQEND
5
5a9
100
AcDbEntity
8
1
0
ARC
5
5aa
100
AcDbEntity
8
1
100
AcDbCircle
6
CONTINUOUS
62
5
10
89.799999
20
160.000540
40
21.600000
100
AcDbArc
50
-35.312774
51
-24.687225
0
POLYLINE
5
5ab
100
AcDbEntity
8
1
6
CONTINUOUS
62
5
100
AcDb2dPolyline
66
1
10
0.0
20
0.0
30
0.0
70
0
0
VERTEX
5
5ac
100
AcDbEntity
8
1
100
AcDbVertex
100
AcDb2dVertex
62
5
10
108.556200
20
146.862241
0
VERTEX
5
5ad
100
AcDbEntity
8
1
100
AcDbVertex
100
AcDb2dVertex
62
5
10
107.419545
20
147.518490
0
VERTEX
5
5ae
100
AcDbEntity
8
1
100
AcDbVertex
100
AcDb2dVertex
62
5
10
109.419545
20
150.982591
0
VERTEX
5
5af
100
AcDbEntity
8
1
100
AcDbVertex
100
AcDb2dVertex
62
5
10
110.556201
20
150.326343
0
SEQEND
5
5b0
100
AcDbEntity
8
1
0
ARC
5
5b1
100
AcDbEntity
8
1
100
AcDbCircle
6
CONTINUOUS
62
5
10
89.799999
20
160.000540
40
21.600000
100
AcDbArc
50
-35.312774
51
-24.687225
0
CIRCLE
5
5b2
100
AcDbEntity
8
1
100
AcDbCircle
6
CONTINUOUS
62
5
10
89.799999
20
160.000540
40
19.000000
0
CIRCLE
5
5b3
100
AcDbEntity
8
1
100
AcDbCircle
6
CONTINUOUS
62
5
10
89.799999
20
160.000540
40
19.000000
0
LINE
5
5b4
100
AcDbEntity
8
1
100
AcDbLine
6
CONTINUOUS
62
5
10
132.500000
20
42.000000
11
135.625000
21
42.000000
0
POLYLINE
5
5b5
100
AcDbEntity
8
1
6
CONTINUOUS
62
5
100
AcDb2dPolyline
66
1
10
0.0
20
0.0
30
0.0
70
0
0
VERTEX
5
5b6
100
AcDbEntity
8
1
100
AcDbVertex
100
AcDb2dVertex
62
5
10
102.500000
20
43.562500
0
VERTEX
5
5b7
100
AcDbEntity
8
1
100
AcDbVertex
100
AcDb2dVertex
62
5
10
102.812500
20
45.125000
0
VERTEX
5
5b8
100
AcDbEntity
8
1
100
AcDbVertex
100
AcDb2dVertex
62
5
10
103.750000
20
45.750000
0
VERTEX
5
5b9
100
AcDbEntity
8
1
100
AcDbVertex
100
AcDb2dVertex
62
5
10
104.687500
20
45.750000
0
VERTEX
5
5ba
100
AcDbEntity
8
1
100
AcDbVertex
100
AcDb2dVertex
62
5
10
105.312500
20
45.437500
0
VERTEX
5
5bb
100
AcDbEntity
8
1
100
AcDbVertex
100
AcDb2dVertex
62
5
10
105.625000
20
44.500000
0
VERTEX
5
5bc
100
AcDbEntity
8
1
100
AcDbVertex
100
AcDb2dVertex
62
5
10
105.625000
20
43.562500
0
VERTEX
5
5bd
100
AcDbEntity
8
1
100
AcDbVertex
100
AcDb2dVertex
62
5
10
105.312500
20
42.625000
0
VERTEX
5
5be
100
AcDbEntity
8
1
100
AcDbVertex
100
AcDb2dVertex
62
5
10
102.500000
20
38.250000
0
VERTEX
5
5bf
100
AcDbEntity
8
1
100
AcDbVertex
100
AcDb2dVertex
62
5
10
105.625000
20
38.250000
0
VERTEX
5
5c0
100
AcDbEntity
8
1
100
AcDbVertex
100
AcDb2dVertex
62
5
10
105.625000
20
39.187500
0
SEQEND
5
5c1
100
AcDbEntity
8
1
0
POLYLINE
5
5c2
100
AcDbEntity
8
1
6
CONTINUOUS
62
5
100
AcDb2dPolyline
66
1
10
0.0
20
0.0
30
0.0
70
0
0
VERTEX
5
5c3
100
AcDbEntity
8
1
100
AcDbVertex
100
AcDb2dVertex
62
5
10
107.500000
20
38.250000
0
VERTEX
5
5c4
100
AcDbEntity
8
1
100
AcDbVertex
100
AcDb2dVertex
62
5
10
109.062500
20
45.750000
0
VERTEX
5
5c5
100
AcDbEntity
8
1
100
AcDbVertex
100
AcDb2dVertex
62
5
10
110.625000
20
38.250000
0
SEQEND
5
5c6
100
AcDbEntity
8
1
0
LINE
5
5c7
100
AcDbEntity
8
1
100
AcDbLine
6
CONTINUOUS
62
5
10
108.125000
20
40.750000
11
110.000000
21
40.750000
0
LINE
5
5c8
100
AcDbEntity
8
1
100
AcDbLine
6
CONTINUOUS
62
5
10
115.625000
20
46.062500
11
112.500000
21
37.937500
0
POLYLINE
5
5c9
100
AcDbEntity
8
1
6
CONTINUOUS
62
5
100
AcDb2dPolyline
66
1
10
0.0
20
0.0
30
0.0
70
0
0
VERTEX
5
5ca
100
AcDbEntity
8
1
100
AcDbVertex
100
AcDb2dVertex
62
5
10
118.125000
20
45.125000
0
VERTEX
5
5cb
100
AcDbEntity
8
1
100
AcDbVertex
100
AcDb2dVertex
62
5
10
119.062500
20
45.750000
0
VERTEX
5
5cc
100
AcDbEntity
8
1
100
AcDbVertex
100
AcDb2dVertex
62
5
10
119.062500
20
38.250000
0
SEQEND
5
5cd
100
AcDbEntity
8
1
0
LINE
5
5ce
100
AcDbEntity
8
1
100
AcDbLine
6
CONTINUOUS
62
5
10
118.437500
20
38.250000
11
119.687500
21
38.250000
0
POLYLINE
5
5cf
100
AcDbEntity
8
1
6
CONTINUOUS
62
5
100
AcDb2dPolyline
66
1
10
0.0
20
0.0
30
0.0
70
1
0
VERTEX
5
5d0
100
AcDbEntity
8
1
100
AcDbVertex
100
AcDb2dVertex
62
5
10
123.750000
20
45.750000
0
VERTEX
5
5d1
100
AcDbEntity
8
1
100
AcDbVertex
100
AcDb2dVertex
62
5
10
124.375000
20
45.750000
0
VERTEX
5
5d2
100
AcDbEntity
8
1
100
AcDbVertex
100
AcDb2dVertex
62
5
10
124.687500
20
45.437500
0
VERTEX
5
5d3
100
AcDbEntity
8
1
100
AcDbVertex
100
AcDb2dVertex
62
5
10
125.312500
20
44.187500
0
VERTEX
5
5d4
100
AcDbEntity
8
1
100
AcDbVertex
100
AcDb2dVertex
62
5
10
125.625000
20
42.937500
0
VERTEX
5
5d5
100
AcDbEntity
8
1
100
AcDbVertex
100
AcDb2dVertex
62
5
10
125.625000
20
41.062500
0
VERTEX
5
5d6
100
AcDbEntity
8
1
100
AcDbVertex
100
AcDb2dVertex
62
5
10
125.312500
20
39.812500
0
VERTEX
5
5d7
100
AcDbEntity
8
1
100
AcDbVertex
100
AcDb2dVertex
62
5
10
124.687500
20
38.562500
0
VERTEX
5
5d8
100
AcDbEntity
8
1
100
AcDbVertex
100
AcDb2dVertex
62
5
10
124.375000
20
38.250000
0
VERTEX
5
5d9
100
AcDbEntity
8
1
100
AcDbVertex
100
AcDb2dVertex
62
5
10
123.750000
20
38.250000
0
VERTEX
5
5da
100
AcDbEntity
8
1
100
AcDbVertex
100
AcDb2dVertex
62
5
10
123.437500
20
38.562500
0
VERTEX
5
5db
100
AcDbEntity
8
1
100
AcDbVertex
100
AcDb2dVertex
62
5
10
122.812500
20
39.812500
0
VERTEX
5
5dc
100
AcDbEntity
8
1
100
AcDbVertex
100
AcDb2dVertex
62
5
10
122.500000
20
41.062500
0
VERTEX
5
5dd
100
AcDbEntity
8
1
100
AcDbVertex
100
AcDb2dVertex
62
5
10
122.500000
20
42.937500
0
VERTEX
5
5de
100
AcDbEntity
8
1
100
AcDbVertex
100
AcDb2dVertex
62
5
10
122.812500
20
44.187500
0
VERTEX
5
5df
100
AcDbEntity
8
1
100
AcDbVertex
100
AcDb2dVertex
62
5
10
123.437500
20
45.437500
0
VERTEX
5
5e0
100
AcDbEntity
8
1
100
AcDbVertex
100
AcDb2dVertex
62
5
10
123.750000
20
45.750000
0
SEQEND
5
5e1
100
AcDbEntity
8
1
0
POLYLINE
5
5e2
100
AcDbEntity
8
1
6
CONTINUOUS
62
5
100
AcDb2dPolyline
66
1
10
0.0
20
0.0
30
0.0
70
1
0
VERTEX
5
5e3
100
AcDbEntity
8
1
100
AcDbVertex
100
AcDb2dVertex
62
5
10
128.750000
20
45.750000
0
VERTEX
5
5e4
100
AcDbEntity
8
1
100
AcDbVertex
100
AcDb2dVertex
62
5
10
129.375000
20
45.750000
0
VERTEX
5
5e5
100
AcDbEntity
8
1
100
AcDbVertex
100
AcDb2dVertex
62
5
10
129.687500
20
45.437500
0
VERTEX
5
5e6
100
AcDbEntity
8
1
100
AcDbVertex
100
AcDb2dVertex
62
5
10
130.312500
20
44.187500
0
VERTEX
5
5e7
100
AcDbEntity
8
1
100
AcDbVertex
100
AcDb2dVertex
62
5
10
130.625000
20
42.937500
0
VERTEX
5
5e8
100
AcDbEntity
8
1
100
AcDbVertex
100
AcDb2dVertex
62
5
10
130.625000
20
41.062500
0
VERTEX
5
5e9
100
AcDbEntity
8
1
100
AcDbVertex
100
AcDb2dVertex
62
5
10
130.312500
20
39.812500
0
VERTEX
5
5ea
100
AcDbEntity
8
1
100
AcDbVertex
100
AcDb2dVertex
62
5
10
129.687500
20
38.562500
0
VERTEX
5
5eb
100
AcDbEntity
8
1
100
AcDbVertex
100
AcDb2dVertex
62
5
10
129.375000
20
38.250000
0
VERTEX
5
5ec
100
AcDbEntity
8
1
100
AcDbVertex
100
AcDb2dVertex
62
5
10
128.750000
20
38.250000
0
VERTEX
5
5ed
100
AcDbEntity
8
1
100
AcDbVertex
100
AcDb2dVertex
62
5
10
128.437500
20
38.562500
0
VERTEX
5
5ee
100
AcDbEntity
8
1
100
AcDbVertex
100
AcDb2dVertex
62
5
10
127.812500
20
39.812500
0
VERTEX
5
5ef
100
AcDbEntity
8
1
100
AcDbVertex
100
AcDb2dVertex
62
5
10
127.500000
20
41.062500
0
VERTEX
5
5f0
100
AcDbEntity
8
1
100
AcDbVertex
100
AcDb2dVertex
62
5
10
127.500000
20
42.937500
0
VERTEX
5
5f1
100
AcDbEntity
8
1
100
AcDbVertex
100
AcDb2dVertex
62
5
10
127.812500
20
44.187500
0
VERTEX
5
5f2
100
AcDbEntity
8
1
100
AcDbVertex
100
AcDb2dVertex
62
5
10
128.437500
20
45.437500
0
VERTEX
5
5f3
100
AcDbEntity
8
1
100
AcDbVertex
100
AcDb2dVertex
62
5
10
128.750000
20
45.750000
0
SEQEND
5
5f4
100
AcDbEntity
8
1
0
POLYLINE
5
5f5
100
AcDbEntity
8
1
6
CONTINUOUS
62
5
100
AcDb2dPolyline
66
1
10
0.0
20
0.0
30
0.0
70
0
0
VERTEX
5
5f6
100
AcDbEntity
8
1
100
AcDbVertex
100
AcDb2dVertex
62
5
10
137.500000
20
43.562500
0
VERTEX
5
5f7
100
AcDbEntity
8
1
100
AcDbVertex
100
AcDb2dVertex
62
5
10
137.812500
20
45.125000
0
VERTEX
5
5f8
100
AcDbEntity
8
1
100
AcDbVertex
100
AcDb2dVertex
62
5
10
138.750000
20
45.750000
0
VERTEX
5
5f9
100
AcDbEntity
8
1
100
AcDbVertex
100
AcDb2dVertex
62
5
10
139.687500
20
45.750000
0
VERTEX
5
5fa
100
AcDbEntity
8
1
100
AcDbVertex
100
AcDb2dVertex
62
5
10
140.312500
20
45.437500
0
VERTEX
5
5fb
100
AcDbEntity
8
1
100
AcDbVertex
100
AcDb2dVertex
62
5
10
140.625000
20
44.500000
0
VERTEX
5
5fc
100
AcDbEntity
8
1
100
AcDbVertex
100
AcDb2dVertex
62
5
10
140.625000
20
43.562500
0
VERTEX
5
5fd
100
AcDbEntity
8
1
100
AcDbVertex
100
AcDb2dVertex
62
5
10
140.312500
20
42.625000
0
VERTEX
5
5fe
100
AcDbEntity
8
1
100
AcDbVertex
100
AcDb2dVertex
62
5
10
137.500000
20
38.250000
0
VERTEX
5
5ff
100
AcDbEntity
8
1
100
AcDbVertex
100
AcDb2dVertex
62
5
10
140.625000
20
38.250000
0
VERTEX
5
600
100
AcDbEntity
8
1
100
AcDbVertex
100
AcDb2dVertex
62
5
10
140.625000
20
39.187500
0
SEQEND
5
601
100
AcDbEntity
8
1
0
POLYLINE
5
602
100
AcDbEntity
8
1
6
CONTINUOUS
62
5
100
AcDb2dPolyline
66
1
10
0.0
20
0.0
30
0.0
70
0
0
VERTEX
5
603
100
AcDbEntity
8
1
100
AcDbVertex
100
AcDb2dVertex
62
5
10
145.000000
20
45.750000
0
VERTEX
5
604
100
AcDbEntity
8
1
100
AcDbVertex
100
AcDb2dVertex
62
5
10
142.187500
20
40.125000
0
VERTEX
5
605
100
AcDbEntity
8
1
100
AcDbVertex
100
AcDb2dVertex
62
5
10
145.937500
20
40.125000
0
SEQEND
5
606
100
AcDbEntity
8
1
0
LINE
5
607
100
AcDbEntity
8
1
100
AcDbLine
6
CONTINUOUS
62
5
10
145.000000
20
45.750000
11
145.000000
21
38.250000
0
LINE
5
608
100
AcDbEntity
8
1
100
AcDbLine
6
CONTINUOUS
62
5
10
144.375000
20
38.250000
11
145.625000
21
38.250000
0
LINE
5
609
100
AcDbEntity
8
1
100
AcDbLine
6
CONTINUOUS
62
5
10
90.000000
20
54.000000
11
90.000000
21
30.000000
0
LINE
5
60a
100
AcDbEntity
8
1
100
AcDbLine
6
CONTINUOUS
62
5
10
70.625000
20
44.187500
11
73.750000
21
44.187500
0
LINE
5
60b
100
AcDbEntity
8
1
100
AcDbLine
6
CONTINUOUS
62
5
10
72.500000
20
46.375000
11
72.500000
21
37.625000
0
POLYLINE
5
60c
100
AcDbEntity
8
1
6
CONTINUOUS
62
5
100
AcDb2dPolyline
66
1
10
0.0
20
0.0
30
0.0
70
0
0
VERTEX
5
60d
100
AcDbEntity
8
1
100
AcDbVertex
100
AcDb2dVertex
62
5
10
72.500000
20
44.187500
0
VERTEX
5
60e
100
AcDbEntity
8
1
100
AcDbVertex
100
AcDb2dVertex
62
5
10
71.562500
20
42.000000
0
VERTEX
5
60f
100
AcDbEntity
8
1
100
AcDbVertex
100
AcDb2dVertex
62
5
10
70.625000
20
40.750000
0
SEQEND
5
610
100
AcDbEntity
8
1
0
LINE
5
611
100
AcDbEntity
8
1
100
AcDbLine
6
CONTINUOUS
62
5
10
72.500000
20
43.250000
11
73.437500
21
42.000000
0
POLYLINE
5
612
100
AcDbEntity
8
1
6
CONTINUOUS
62
5
100
AcDb2dPolyline
66
1
10
0.0
20
0.0
30
0.0
70
0
0
VERTEX
5
613
100
AcDbEntity
8
1
100
AcDbVertex
100
AcDb2dVertex
62
5
10
75.937500
20
46.375000
0
VERTEX
5
614
100
AcDbEntity
8
1
100
AcDbVertex
100
AcDb2dVertex
62
5
10
75.312500
20
45.125000
0
VERTEX
5
615
100
AcDbEntity
8
1
100
AcDbVertex
100
AcDb2dVertex
62
5
10
73.750000
20
43.250000
0
SEQEND
5
616
100
AcDbEntity
8
1
0
POLYLINE
5
617
100
AcDbEntity
8
1
6
CONTINUOUS
62
5
100
AcDb2dPolyline
66
1
10
0.0
20
0.0
30
0.0
70
0
0
VERTEX
5
618
100
AcDbEntity
8
1
100
AcDbVertex
100
AcDb2dVertex
62
5
10
75.312500
20
45.125000
0
VERTEX
5
619
100
AcDbEntity
8
1
100
AcDbVertex
100
AcDb2dVertex
62
5
10
78.437500
20
45.125000
0
VERTEX
5
61a
100
AcDbEntity
8
1
100
AcDbVertex
100
AcDb2dVertex
62
5
10
77.500000
20
43.562500
0
VERTEX
5
61b
100
AcDbEntity
8
1
100
AcDbVertex
100
AcDb2dVertex
62
5
10
75.937500
20
42.000000
0
VERTEX
5
61c
100
AcDbEntity
8
1
100
AcDbVertex
100
AcDb2dVertex
62
5
10
73.750000
20
40.750000
0
SEQEND
5
61d
100
AcDbEntity
8
1
0
POLYLINE
5
61e
100
AcDbEntity
8
1
6
CONTINUOUS
62
5
100
AcDb2dPolyline
66
1
10
0.0
20
0.0
30
0.0
70
0
0
VERTEX
5
61f
100
AcDbEntity
8
1
100
AcDbVertex
100
AcDb2dVertex
62
5
10
75.312500
20
45.125000
0
VERTEX
5
620
100
AcDbEntity
8
1
100
AcDbVertex
100
AcDb2dVertex
62
5
10
75.937500
20
43.562500
0
VERTEX
5
621
100
AcDbEntity
8
1
100
AcDbVertex
100
AcDb2dVertex
62
5
10
77.187500
20
42.000000
0
VERTEX
5
622
100
AcDbEntity
8
1
100
AcDbVertex
100
AcDb2dVertex
62
5
10
78.125000
20
41.375000
0
VERTEX
5
623
100
AcDbEntity
8
1
100
AcDbVertex
100
AcDb2dVertex
62
5
10
79.375000
20
40.750000
0
SEQEND
5
624
100
AcDbEntity
8
1
0
POLYLINE
5
625
100
AcDbEntity
8
1
6
CONTINUOUS
62
5
100
AcDb2dPolyline
66
1
10
0.0
20
0.0
30
0.0
70
1
0
VERTEX
5
626
100
AcDbEntity
8
1
100
AcDbVertex
100
AcDb2dVertex
62
5
10
75.000000
20
40.750000
0
VERTEX
5
627
100
AcDbEntity
8
1
100
AcDbVertex
100
AcDb2dVertex
62
5
10
75.000000
20
37.937500
0
VERTEX
5
628
100
AcDbEntity
8
1
100
AcDbVertex
100
AcDb2dVertex
62
5
10
78.437500
20
37.937500
0
VERTEX
5
629
100
AcDbEntity
8
1
100
AcDbVertex
100
AcDb2dVertex
62
5
10
78.437500
20
40.750000
0
VERTEX
5
62a
100
AcDbEntity
8
1
100
AcDbVertex
100
AcDb2dVertex
62
5
10
75.000000
20
40.750000
0
SEQEND
5
62b
100
AcDbEntity
8
1
0
LINE
5
62c
100
AcDbEntity
8
1
100
AcDbLine
6
CONTINUOUS
62
5
10
54.687500
20
46.375000
11
54.687500
21
45.437500
0
POLYLINE
5
62d
100
AcDbEntity
8
1
6
CONTINUOUS
62
5
100
AcDb2dPolyline
66
1
10
0.0
20
0.0
30
0.0
70
0
0
VERTEX
5
62e
100
AcDbEntity
8
1
100
AcDbVertex
100
AcDb2dVertex
62
5
10
50.937500
20
43.250000
0
VERTEX
5
62f
100
AcDbEntity
8
1
100
AcDbVertex
100
AcDb2dVertex
62
5
10
50.937500
20
45.437500
0
VERTEX
5
630
100
AcDbEntity
8
1
100
AcDbVertex
100
AcDb2dVertex
62
5
10
58.437500
20
45.437500
0
VERTEX
5
631
100
AcDbEntity
8
1
100
AcDbVertex
100
AcDb2dVertex
62
5
10
58.437500
20
43.250000
0
SEQEND
5
632
100
AcDbEntity
8
1
0
LINE
5
633
100
AcDbEntity
8
1
100
AcDbLine
6
CONTINUOUS
62
5
10
51.875000
20
43.562500
11
57.500000
21
43.562500
0
LINE
5
634
100
AcDbEntity
8
1
100
AcDbLine
6
CONTINUOUS
62
5
10
54.687500
20
43.562500
11
54.687500
21
38.250000
0
LINE
5
635
100
AcDbEntity
8
1
100
AcDbLine
6
CONTINUOUS
62
5
10
54.687500
20
41.062500
11
57.500000
21
41.062500
0
POLYLINE
5
636
100
AcDbEntity
8
1
6
CONTINUOUS
62
5
100
AcDb2dPolyline
66
1
10
0.0
20
0.0
30
0.0
70
0
0
VERTEX
5
637
100
AcDbEntity
8
1
100
AcDbVertex
100
AcDb2dVertex
62
5
10
52.500000
20
41.687500
0
VERTEX
5
638
100
AcDbEntity
8
1
100
AcDbVertex
100
AcDb2dVertex
62
5
10
52.187500
20
39.812500
0
VERTEX
5
639
100
AcDbEntity
8
1
100
AcDbVertex
100
AcDb2dVertex
62
5
10
51.562500
20
38.562500
0
VERTEX
5
63a
100
AcDbEntity
8
1
100
AcDbVertex
100
AcDb2dVertex
62
5
10
50.625000
20
37.625000
0
SEQEND
5
63b
100
AcDbEntity
8
1
0
POLYLINE
5
63c
100
AcDbEntity
8
1
6
CONTINUOUS
62
5
100
AcDb2dPolyline
66
1
10
0.0
20
0.0
30
0.0
70
0
0
VERTEX
5
63d
100
AcDbEntity
8
1
100
AcDbVertex
100
AcDb2dVertex
62
5
10
52.187500
20
39.812500
0
VERTEX
5
63e
100
AcDbEntity
8
1
100
AcDbVertex
100
AcDb2dVertex
62
5
10
54.687500
20
38.250000
0
VERTEX
5
63f
100
AcDbEntity
8
1
100
AcDbVertex
100
AcDb2dVertex
62
5
10
55.937500
20
37.937500
0
VERTEX
5
640
100
AcDbEntity
8
1
100
AcDbVertex
100
AcDb2dVertex
62
5
10
59.062500
20
37.625000
0
SEQEND
5
641
100
AcDbEntity
8
1
0
POLYLINE
5
642
100
AcDbEntity
8
1
6
CONTINUOUS
62
5
100
AcDb2dPolyline
66
1
10
0.0
20
0.0
30
0.0
70
0
0
VERTEX
5
643
100
AcDbEntity
8
1
100
AcDbVertex
100
AcDb2dVertex
62
5
10
147.500000
20
43.562500
0
VERTEX
5
644
100
AcDbEntity
8
1
100
AcDbVertex
100
AcDb2dVertex
62
5
10
147.812500
20
45.125000
0
VERTEX
5
645
100
AcDbEntity
8
1
100
AcDbVertex
100
AcDb2dVertex
62
5
10
148.750000
20
45.750000
0
VERTEX
5
646
100
AcDbEntity
8
1
100
AcDbVertex
100
AcDb2dVertex
62
5
10
149.687500
20
45.750000
0
VERTEX
5
647
100
AcDbEntity
8
1
100
AcDbVertex
100
AcDb2dVertex
62
5
10
150.312500
20
45.437500
0
VERTEX
5
648
100
AcDbEntity
8
1
100
AcDbVertex
100
AcDb2dVertex
62
5
10
150.625000
20
44.500000
0
VERTEX
5
649
100
AcDbEntity
8
1
100
AcDbVertex
100
AcDb2dVertex
62
5
10
150.625000
20
43.562500
0
VERTEX
5
64a
100
AcDbEntity
8
1
100
AcDbVertex
100
AcDb2dVertex
62
5
10
150.312500
20
42.625000
0
VERTEX
5
64b
100
AcDbEntity
8
1
100
AcDbVertex
100
AcDb2dVertex
62
5
10
147.500000
20
38.250000
0
VERTEX
5
64c
100
AcDbEntity
8
1
100
AcDbVertex
100
AcDb2dVertex
62
5
10
150.625000
20
38.250000
0
VERTEX
5
64d
100
AcDbEntity
8
1
100
AcDbVertex
100
AcDb2dVertex
62
5
10
150.625000
20
39.187500
0
SEQEND
5
64e
100
AcDbEntity
8
1
0
POLYLINE
5
64f
100
AcDbEntity
8
1
6
CONTINUOUS
62
5
100
AcDb2dPolyline
66
1
10
0.0
20
0.0
30
0.0
70
1
0
VERTEX
5
650
100
AcDbEntity
8
1
100
AcDbVertex
100
AcDb2dVertex
62
5
10
280.000000
20
30.000000
0
VERTEX
5
651
100
AcDbEntity
8
1
100
AcDbVertex
100
AcDb2dVertex
62
5
10
280.000000
20
54.000000
0
VERTEX
5
652
100
AcDbEntity
8
1
100
AcDbVertex
100
AcDb2dVertex
62
5
10
40.000000
20
54.000000
0
VERTEX
5
653
100
AcDbEntity
8
1
100
AcDbVertex
100
AcDb2dVertex
62
5
10
40.000000
20
30.000000
0
VERTEX
5
654
100
AcDbEntity
8
1
100
AcDbVertex
100
AcDb2dVertex
62
5
10
280.000000
20
30.000000
0
SEQEND
5
655
100
AcDbEntity
8
1
0
LINE
5
656
100
AcDbEntity
8
1
100
AcDbLine
6
CONTINUOUS
62
5
10
-0.000000
20
318.000000
11
320.000000
21
318.000000
0
LINE
5
657
100
AcDbEntity
8
1
100
AcDbLine
6
CONTINUOUS
62
5
10
194.799999
20
174.239844
11
194.799999
21
237.000540
0
POLYLINE
5
658
100
AcDbEntity
8
1
6
CONTINUOUS
62
5
100
AcDb2dPolyline
66
1
10
0.0
20
0.0
30
0.0
70
0
0
VERTEX
5
659
100
AcDbEntity
8
1
100
AcDbVertex
100
AcDb2dVertex
62
5
10
163.549999
20
235.000540
0
VERTEX
5
65a
100
AcDbEntity
8
1
100
AcDbVertex
100
AcDb2dVertex
62
5
10
194.799999
20
235.000540
0
VERTEX
5
65b
100
AcDbEntity
8
1
100
AcDbVertex
100
AcDb2dVertex
62
5
10
188.799999
20
234.000540
0
VERTEX
5
65c
100
AcDbEntity
8
1
100
AcDbVertex
100
AcDb2dVertex
62
5
10
188.799999
20
236.000540
0
VERTEX
5
65d
100
AcDbEntity
8
1
100
AcDbVertex
100
AcDb2dVertex
62
5
10
194.799999
20
235.000540
0
VERTEX
5
65e
100
AcDbEntity
8
1
100
AcDbVertex
100
AcDb2dVertex
62
5
10
188.799999
20
234.500540
0
VERTEX
5
65f
100
AcDbEntity
8
1
100
AcDbVertex
100
AcDb2dVertex
62
5
10
188.799999
20
235.500540
0
VERTEX
5
660
100
AcDbEntity
8
1
100
AcDbVertex
100
AcDb2dVertex
62
5
10
194.799999
20
235.000540
0
SEQEND
5
661
100
AcDbEntity
8
1
0
LINE
5
662
100
AcDbEntity
8
1
100
AcDbLine
6
CONTINUOUS
62
5
10
194.799999
20
235.000540
11
209.899999
21
235.000540
0
LINE
5
663
100
AcDbEntity
8
1
100
AcDbLine
6
CONTINUOUS
62
5
10
212.899999
20
235.000540
11
209.899999
21
235.000540
0
LINE
5
664
100
AcDbEntity
8
1
100
AcDbLine
6
CONTINUOUS
62
5
10
39.799999
20
161.500540
11
39.799999
21
237.000540
0
LINE
5
665
100
AcDbEntity
8
1
100
AcDbLine
6
CONTINUOUS
62
5
10
139.799999
20
161.500540
11
139.799999
21
237.000540
0
POLYLINE
5
666
100
AcDbEntity
8
1
6
CONTINUOUS
62
5
100
AcDb2dPolyline
66
1
10
0.0
20
0.0
30
0.0
70
0
0
VERTEX
5
667
100
AcDbEntity
8
1
100
AcDbVertex
100
AcDb2dVertex
62
5
10
89.799999
20
235.000540
0
VERTEX
5
668
100
AcDbEntity
8
1
100
AcDbVertex
100
AcDb2dVertex
62
5
10
39.799999
20
235.000540
0
VERTEX
5
669
100
AcDbEntity
8
1
100
AcDbVertex
100
AcDb2dVertex
62
5
10
45.799999
20
236.000540
0
VERTEX
5
66a
100
AcDbEntity
8
1
100
AcDbVertex
100
AcDb2dVertex
62
5
10
45.799999
20
234.000540
0
VERTEX
5
66b
100
AcDbEntity
8
1
100
AcDbVertex
100
AcDb2dVertex
62
5
10
39.799999
20
235.000540
0
VERTEX
5
66c
100
AcDbEntity
8
1
100
AcDbVertex
100
AcDb2dVertex
62
5
10
45.799999
20
235.500540
0
VERTEX
5
66d
100
AcDbEntity
8
1
100
AcDbVertex
100
AcDb2dVertex
62
5
10
45.799999
20
234.500540
0
VERTEX
5
66e
100
AcDbEntity
8
1
100
AcDbVertex
100
AcDb2dVertex
62
5
10
39.799999
20
235.000540
0
SEQEND
5
66f
100
AcDbEntity
8
1
0
POLYLINE
5
670
100
AcDbEntity
8
1
6
CONTINUOUS
62
5
100
AcDb2dPolyline
66
1
10
0.0
20
0.0
30
0.0
70
0
0
VERTEX
5
671
100
AcDbEntity
8
1
100
AcDbVertex
100
AcDb2dVertex
62
5
10
89.799999
20
235.000540
0
VERTEX
5
672
100
AcDbEntity
8
1
100
AcDbVertex
100
AcDb2dVertex
62
5
10
139.799999
20
235.000540
0
VERTEX
5
673
100
AcDbEntity
8
1
100
AcDbVertex
100
AcDb2dVertex
62
5
10
133.799999
20
234.000540
0
VERTEX
5
674
100
AcDbEntity
8
1
100
AcDbVertex
100
AcDb2dVertex
62
5
10
133.799999
20
236.000540
0
VERTEX
5
675
100
AcDbEntity
8
1
100
AcDbVertex
100
AcDb2dVertex
62
5
10
139.799999
20
235.000540
0
VERTEX
5
676
100
AcDbEntity
8
1
100
AcDbVertex
100
AcDb2dVertex
62
5
10
133.799999
20
234.500540
0
VERTEX
5
677
100
AcDbEntity
8
1
100
AcDbVertex
100
AcDb2dVertex
62
5
10
133.799999
20
235.500540
0
VERTEX
5
678
100
AcDbEntity
8
1
100
AcDbVertex
100
AcDb2dVertex
62
5
10
139.799999
20
235.000540
0
SEQEND
5
679
100
AcDbEntity
8
1
0
LINE
5
67a
100
AcDbEntity
8
1
100
AcDbLine
6
CONTINUOUS
62
5
10
252.899998
20
194.000001
11
307.200001
21
194.000001
0
LINE
5
67b
100
AcDbEntity
8
1
100
AcDbLine
6
CONTINUOUS
62
5
10
252.899998
20
125.999999
11
307.200001
21
125.999999
0
POLYLINE
5
67c
100
AcDbEntity
8
1
6
CONTINUOUS
62
5
100
AcDb2dPolyline
66
1
10
0.0
20
0.0
30
0.0
70
0
0
VERTEX
5
67d
100
AcDbEntity
8
1
100
AcDbVertex
100
AcDb2dVertex
62
5
10
305.200001
20
160.000000
0
VERTEX
5
67e
100
AcDbEntity
8
1
100
AcDbVertex
100
AcDb2dVertex
62
5
10
305.200001
20
125.999999
0
VERTEX
5
67f
100
AcDbEntity
8
1
100
AcDbVertex
100
AcDb2dVertex
62
5
10
304.200001
20
131.999999
0
VERTEX
5
680
100
AcDbEntity
8
1
100
AcDbVertex
100
AcDb2dVertex
62
5
10
306.200001
20
131.999999
0
VERTEX
5
681
100
AcDbEntity
8
1
100
AcDbVertex
100
AcDb2dVertex
62
5
10
305.200001
20
125.999999
0
VERTEX
5
682
100
AcDbEntity
8
1
100
AcDbVertex
100
AcDb2dVertex
62
5
10
304.700001
20
131.999999
0
VERTEX
5
683
100
AcDbEntity
8
1
100
AcDbVertex
100
AcDb2dVertex
62
5
10
305.700001
20
131.999999
0
VERTEX
5
684
100
AcDbEntity
8
1
100
AcDbVertex
100
AcDb2dVertex
62
5
10
305.200001
20
125.999999
0
SEQEND
5
685
100
AcDbEntity
8
1
0
POLYLINE
5
686
100
AcDbEntity
8
1
6
CONTINUOUS
62
5
100
AcDb2dPolyline
66
1
10
0.0
20
0.0
30
0.0
70
0
0
VERTEX
5
687
100
AcDbEntity
8
1
100
AcDbVertex
100
AcDb2dVertex
62
5
10
305.200001
20
160.000000
0
VERTEX
5
688
100
AcDbEntity
8
1
100
AcDbVertex
100
AcDb2dVertex
62
5
10
305.200001
20
194.000001
0
VERTEX
5
689
100
AcDbEntity
8
1
100
AcDbVertex
100
AcDb2dVertex
62
5
10
306.200001
20
188.000001
0
VERTEX
5
68a
100
AcDbEntity
8
1
100
AcDbVertex
100
AcDb2dVertex
62
5
10
304.200001
20
188.000001
0
VERTEX
5
68b
100
AcDbEntity
8
1
100
AcDbVertex
100
AcDb2dVertex
62
5
10
305.200001
20
194.000001
0
VERTEX
5
68c
100
AcDbEntity
8
1
100
AcDbVertex
100
AcDb2dVertex
62
5
10
305.700001
20
188.000001
0
VERTEX
5
68d
100
AcDbEntity
8
1
100
AcDbVertex
100
AcDb2dVertex
62
5
10
304.700001
20
188.000001
0
VERTEX
5
68e
100
AcDbEntity
8
1
100
AcDbVertex
100
AcDb2dVertex
62
5
10
305.200001
20
194.000001
0
SEQEND
5
68f
100
AcDbEntity
8
1
0
POLYLINE
5
690
100
AcDbEntity
8
1
6
CONTINUOUS
62
5
100
AcDb2dPolyline
66
1
10
0.0
20
0.0
30
0.0
70
0
0
VERTEX
5
691
100
AcDbEntity
8
1
100
AcDbVertex
100
AcDb2dVertex
62
5
10
226.199999
20
178.675541
0
VERTEX
5
692
100
AcDbEntity
8
1
100
AcDbVertex
100
AcDb2dVertex
62
5
10
222.399999
20
178.675541
0
VERTEX
5
693
100
AcDbEntity
8
1
100
AcDbVertex
100
AcDb2dVertex
62
5
10
222.399999
20
181.325541
0
VERTEX
5
694
100
AcDbEntity
8
1
100
AcDbVertex
100
AcDb2dVertex
62
5
10
226.199999
20
181.325541
0
SEQEND
5
695
100
AcDbEntity
8
1
0
POLYLINE
5
696
100
AcDbEntity
8
1
6
CONTINUOUS
62
5
100
AcDb2dPolyline
66
1
10
0.0
20
0.0
30
0.0
70
0
0
VERTEX
5
697
100
AcDbEntity
8
1
100
AcDbVertex
100
AcDb2dVertex
62
5
10
227.199999
20
181.425541
0
VERTEX
5
698
100
AcDbEntity
8
1
100
AcDbVertex
100
AcDb2dVertex
62
5
10
226.199999
20
181.425541
0
VERTEX
5
699
100
AcDbEntity
8
1
100
AcDbVertex
100
AcDb2dVertex
62
5
10
226.199999
20
178.575541
0
VERTEX
5
69a
100
AcDbEntity
8
1
100
AcDbVertex
100
AcDb2dVertex
62
5
10
227.199999
20
178.575541
0
SEQEND
5
69b
100
AcDbEntity
8
1
0
POLYLINE
5
69c
100
AcDbEntity
8
1
6
CONTINUOUS
62
5
100
AcDb2dPolyline
66
1
10
0.0
20
0.0
30
0.0
70
1
0
VERTEX
5
69d
100
AcDbEntity
8
1
100
AcDbVertex
100
AcDb2dVertex
62
5
10
220.899999
20
178.350541
0
VERTEX
5
69e
100
AcDbEntity
8
1
100
AcDbVertex
100
AcDb2dVertex
62
5
10
220.899999
20
181.650541
0
VERTEX
5
69f
100
AcDbEntity
8
1
100
AcDbVertex
100
AcDb2dVertex
62
5
10
227.199999
20
181.650541
0
VERTEX
5
6a0
100
AcDbEntity
8
1
100
AcDbVertex
100
AcDb2dVertex
62
5
10
227.199999
20
178.350541
0
SEQEND
5
6a1
100
AcDbEntity
8
1
0
ARC
5
6a2
100
AcDbEntity
8
1
100
AcDbCircle
6
CONTINUOUS
62
5
10
274.199998
20
133.000541
40
1.000000
100
AcDbArc
50
-89.999999
51
0.000000
0
LINE
5
6a3
100
AcDbEntity
8
1
100
AcDbLine
6
CONTINUOUS
62
5
10
275.199998
20
133.000541
11
275.199998
21
187.000541
0
ARC
5
6a4
100
AcDbEntity
8
1
100
AcDbCircle
6
CONTINUOUS
62
5
10
274.199998
20
187.000541
40
1.000000
100
AcDbArc
50
0.000000
51
89.999999
0
POLYLINE
5
6a5
100
AcDbEntity
8
1
6
CONTINUOUS
62
5
100
AcDb2dPolyline
66
1
10
0.0
20
0.0
30
0.0
70
0
0
VERTEX
5
6a6
100
AcDbEntity
8
1
100
AcDbVertex
100
AcDb2dVertex
62
5
10
274.199998
20
188.000541
0
VERTEX
5
6a7
100
AcDbEntity
8
1
100
AcDbVertex
100
AcDb2dVertex
62
5
10
260.100000
20
188.000541
0
VERTEX
5
6a8
100
AcDbEntity
8
1
100
AcDbVertex
100
AcDb2dVertex
62
5
10
260.100000
20
193.236213
0
SEQEND
5
6a9
100
AcDbEntity
8
1
0
POLYLINE
5
6aa
100
AcDbEntity
8
1
6
CONTINUOUS
62
5
100
AcDb2dPolyline
66
1
10
0.0
20
0.0
30
0.0
70
0
0
VERTEX
5
6ab
100
AcDbEntity
8
1
100
AcDbVertex
100
AcDb2dVertex
62
5
10
260.100000
20
126.764867
0
VERTEX
5
6ac
100
AcDbEntity
8
1
100
AcDbVertex
100
AcDb2dVertex
62
5
10
260.100000
20
132.000541
0
VERTEX
5
6ad
100
AcDbEntity
8
1
100
AcDbVertex
100
AcDb2dVertex
62
5
10
274.199998
20
132.000541
0
SEQEND
5
6ae
100
AcDbEntity
8
1
0
ARC
5
6af
100
AcDbEntity
8
1
100
AcDbCircle
6
CONTINUOUS
62
5
10
279.200001
20
192.500540
40
1.000000
100
AcDbArc
50
0.000000
51
89.999999
0
LINE
5
6b0
100
AcDbEntity
8
1
100
AcDbLine
6
CONTINUOUS
62
5
10
279.200001
20
193.500540
11
259.534398
21
193.500541
0
LINE
5
6b1
100
AcDbEntity
8
1
100
AcDbLine
6
CONTINUOUS
62
5
10
259.534398
20
126.500541
11
279.200001
21
126.500541
0
ARC
5
6b2
100
AcDbEntity
8
1
100
AcDbCircle
6
CONTINUOUS
62
5
10
279.200001
20
127.500541
40
1.000000
100
AcDbArc
50
-89.999999
51
0.000000
0
LINE
5
6b3
100
AcDbEntity
8
1
100
AcDbLine
6
CONTINUOUS
62
5
10
280.200001
20
127.500541
11
280.200001
21
192.500540
0
ARC
5
6b4
100
AcDbEntity
8
1
100
AcDbCircle
6
CONTINUOUS
62
5
10
229.399999
20
176.500541
40
0.500000
100
AcDbArc
50
-89.999999
51
0.000000
0
LINE
5
6b5
100
AcDbEntity
8
1
100
AcDbLine
6
CONTINUOUS
62
5
10
229.899999
20
176.500541
11
229.899999
21
183.500540
0
ARC
5
6b6
100
AcDbEntity
8
1
100
AcDbCircle
6
CONTINUOUS
62
5
10
229.399999
20
183.500540
40
0.500000
100
AcDbArc
50
0.000000
51
89.999999
0
POLYLINE
5
6b7
100
AcDbEntity
8
1
6
CONTINUOUS
62
5
100
AcDb2dPolyline
66
1
10
0.0
20
0.0
30
0.0
70
0
0
VERTEX
5
6b8
100
AcDbEntity
8
1
100
AcDbVertex
100
AcDb2dVertex
62
5
10
229.399999
20
184.000540
0
VERTEX
5
6b9
100
AcDbEntity
8
1
100
AcDbVertex
100
AcDb2dVertex
62
5
10
220.899999
20
184.000540
0
VERTEX
5
6ba
100
AcDbEntity
8
1
100
AcDbVertex
100
AcDb2dVertex
62
5
10
220.899999
20
194.000542
0
SEQEND
5
6bb
100
AcDbEntity
8
1
0
POLYLINE
5
6bc
100
AcDbEntity
8
1
6
CONTINUOUS
62
5
100
AcDb2dPolyline
66
1
10
0.0
20
0.0
30
0.0
70
0
0
VERTEX
5
6bd
100
AcDbEntity
8
1
100
AcDbVertex
100
AcDb2dVertex
62
5
10
220.899999
20
126.000540
0
VERTEX
5
6be
100
AcDbEntity
8
1
100
AcDbVertex
100
AcDb2dVertex
62
5
10
220.899999
20
136.000540
0
VERTEX
5
6bf
100
AcDbEntity
8
1
100
AcDbVertex
100
AcDb2dVertex
62
5
10
229.399999
20
136.000540
0
SEQEND
5
6c0
100
AcDbEntity
8
1
0
ARC
5
6c1
100
AcDbEntity
8
1
100
AcDbCircle
6
CONTINUOUS
62
5
10
229.399999
20
136.500540
40
0.500000
100
AcDbArc
50
-89.999999
51
0.000000
0
LINE
5
6c2
100
AcDbEntity
8
1
100
AcDbLine
6
CONTINUOUS
62
5
10
229.899999
20
136.500540
11
229.899999
21
143.500540
0
ARC
5
6c3
100
AcDbEntity
8
1
100
AcDbCircle
6
CONTINUOUS
62
5
10
229.399999
20
143.500540
40
0.500000
100
AcDbArc
50
0.000000
51
89.999999
0
POLYLINE
5
6c4
100
AcDbEntity
8
1
6
CONTINUOUS
62
5
100
AcDb2dPolyline
66
1
10
0.0
20
0.0
30
0.0
70
0
0
VERTEX
5
6c5
100
AcDbEntity
8
1
100
AcDbVertex
100
AcDb2dVertex
62
5
10
229.399999
20
144.000540
0
VERTEX
5
6c6
100
AcDbEntity
8
1
100
AcDbVertex
100
AcDb2dVertex
62
5
10
220.899999
20
144.000540
0
VERTEX
5
6c7
100
AcDbEntity
8
1
100
AcDbVertex
100
AcDb2dVertex
62
5
10
220.899999
20
149.000540
0
SEQEND
5
6c8
100
AcDbEntity
8
1
0
POLYLINE
5
6c9
100
AcDbEntity
8
1
6
CONTINUOUS
62
5
100
AcDb2dPolyline
66
1
10
0.0
20
0.0
30
0.0
70
0
0
VERTEX
5
6ca
100
AcDbEntity
8
1
100
AcDbVertex
100
AcDb2dVertex
62
5
10
220.899999
20
153.000540
0
VERTEX
5
6cb
100
AcDbEntity
8
1
100
AcDbVertex
100
AcDb2dVertex
62
5
10
220.899999
20
176.000541
0
VERTEX
5
6cc
100
AcDbEntity
8
1
100
AcDbVertex
100
AcDb2dVertex
62
5
10
229.399999
20
176.000541
0
SEQEND
5
6cd
100
AcDbEntity
8
1
0
ARC
5
6ce
100
AcDbEntity
8
1
100
AcDbCircle
6
CONTINUOUS
62
5
10
258.900000
20
192.727534
40
1.000000
100
AcDbArc
50
0.000000
51
89.999999
0
LINE
5
6cf
100
AcDbEntity
8
1
100
AcDbLine
6
CONTINUOUS
62
5
10
259.900000
20
192.727534
11
259.900000
21
127.273548
0
ARC
5
6d0
100
AcDbEntity
8
1
100
AcDbCircle
6
CONTINUOUS
62
5
10
258.900000
20
127.273548
40
1.000000
100
AcDbArc
50
-89.999999
51
0.000000
0
POLYLINE
5
6d1
100
AcDbEntity
8
1
6
CONTINUOUS
62
5
100
AcDb2dPolyline
66
1
10
0.0
20
0.0
30
0.0
70
0
0
VERTEX
5
6d2
100
AcDbEntity
8
1
100
AcDbVertex
100
AcDb2dVertex
62
5
10
258.900000
20
126.273548
0
VERTEX
5
6d3
100
AcDbEntity
8
1
100
AcDbVertex
100
AcDb2dVertex
62
5
10
251.399998
20
126.273548
0
VERTEX
5
6d4
100
AcDbEntity
8
1
100
AcDbVertex
100
AcDb2dVertex
62
5
10
251.399998
20
126.000540
0
VERTEX
5
6d5
100
AcDbEntity
8
1
100
AcDbVertex
100
AcDb2dVertex
62
5
10
209.899999
20
126.000540
0
SEQEND
5
6d6
100
AcDbEntity
8
1
0
POLYLINE
5
6d7
100
AcDbEntity
8
1
6
CONTINUOUS
62
5
100
AcDb2dPolyline
66
1
10
0.0
20
0.0
30
0.0
70
0
0
VERTEX
5
6d8
100
AcDbEntity
8
1
100
AcDbVertex
100
AcDb2dVertex
62
5
10
209.899999
20
194.000542
0
VERTEX
5
6d9
100
AcDbEntity
8
1
100
AcDbVertex
100
AcDb2dVertex
62
5
10
251.399998
20
194.000542
0
VERTEX
5
6da
100
AcDbEntity
8
1
100
AcDbVertex
100
AcDb2dVertex
62
5
10
251.399998
20
193.727534
0
VERTEX
5
6db
100
AcDbEntity
8
1
100
AcDbVertex
100
AcDb2dVertex
62
5
10
258.900000
20
193.727534
0
SEQEND
5
6dc
100
AcDbEntity
8
1
0
LINE
5
6dd
100
AcDbEntity
8
1
100
AcDbLine
6
CONTINUOUS
62
5
10
198.916958
20
132.237511
11
198.916979
21
187.763648
0
ARC
5
6de
100
AcDbEntity
8
1
100
AcDbCircle
6
CONTINUOUS
62
5
10
199.399999
20
132.366631
40
0.500000
100
AcDbArc
50
179.999998
51
-164.940726
0
LINE
5
6df
100
AcDbEntity
8
1
100
AcDbLine
6
CONTINUOUS
62
5
10
198.917171
20
132.236722
11
204.800424
21
110.370630
0
ARC
5
6e0
100
AcDbEntity
8
1
100
AcDbCircle
6
CONTINUOUS
62
5
10
205.283253
20
110.500539
40
0.500000
100
AcDbArc
50
-164.940726
51
-89.999999
0
POLYLINE
5
6e1
100
AcDbEntity
8
1
6
CONTINUOUS
62
5
100
AcDb2dPolyline
66
1
10
0.0
20
0.0
30
0.0
70
0
0
VERTEX
5
6e2
100
AcDbEntity
8
1
100
AcDbVertex
100
AcDb2dVertex
62
5
10
205.283253
20
110.000539
0
VERTEX
5
6e3
100
AcDbEntity
8
1
100
AcDbVertex
100
AcDb2dVertex
62
5
10
209.899999
20
110.000539
0
VERTEX
5
6e4
100
AcDbEntity
8
1
100
AcDbVertex
100
AcDb2dVertex
62
5
10
209.899999
20
210.000541
0
VERTEX
5
6e5
100
AcDbEntity
8
1
100
AcDbVertex
100
AcDb2dVertex
62
5
10
205.283253
20
210.000541
0
SEQEND
5
6e6
100
AcDbEntity
8
1
0
ARC
5
6e7
100
AcDbEntity
8
1
100
AcDbCircle
6
CONTINUOUS
62
5
10
205.283253
20
209.500541
40
0.500000
100
AcDbArc
50
89.999999
51
164.940724
0
LINE
5
6e8
100
AcDbEntity
8
1
100
AcDbLine
6
CONTINUOUS
62
5
10
204.800424
20
209.630450
11
198.917171
21
187.764359
0
ARC
5
6e9
100
AcDbEntity
8
1
100
AcDbCircle
6
CONTINUOUS
62
5
10
199.399999
20
187.634450
40
0.500000
100
AcDbArc
50
164.940724
51
179.999998
0
LINE
5
6ea
100
AcDbEntity
8
1
100
AcDbLine
6
CONTINUOUS
62
5
10
198.899999
20
187.634450
11
198.899999
21
132.366631
0
CIRCLE
5
6eb
100
AcDbEntity
8
1
100
AcDbCircle
6
CONTINUOUS
62
5
10
89.799999
20
160.000540
40
20.500000
0
CIRCLE
5
6ec
100
AcDbEntity
8
1
100
AcDbCircle
6
CONTINUOUS
62
5
10
89.799999
20
160.000540
40
20.500000
0
CIRCLE
5
6ed
100
AcDbEntity
8
1
100
AcDbCircle
6
CONTINUOUS
62
5
10
89.799999
20
160.000540
40
23.900000
0
CIRCLE
5
6ee
100
AcDbEntity
8
1
100
AcDbCircle
6
CONTINUOUS
62
5
10
89.799999
20
160.000540
40
22.900000
0
CIRCLE
5
6ef
100
AcDbEntity
8
1
100
AcDbCircle
6
CONTINUOUS
62
5
10
89.799999
20
160.000540
40
23.900000
0
CIRCLE
5
6f0
100
AcDbEntity
8
1
100
AcDbCircle
6
CONTINUOUS
62
5
10
89.799999
20
160.000540
40
22.900000
0
CIRCLE
5
6f1
100
AcDbEntity
8
1
100
AcDbCircle
6
CONTINUOUS
62
5
10
89.799999
20
160.000540
40
50.000000
0
CIRCLE
5
6f2
100
AcDbEntity
8
1
100
AcDbCircle
6
CONTINUOUS
62
5
10
89.799999
20
160.000540
40
50.000000
0
POLYLINE
5
6f3
100
AcDbEntity
8
1
6
CONTINUOUS
62
5
100
AcDb2dPolyline
66
1
10
0.0
20
0.0
30
0.0
70
1
0
VERTEX
5
6f4
100
AcDbEntity
8
1
100
AcDbVertex
100
AcDb2dVertex
62
5
10
-0.000000
20
10.000000
0
VERTEX
5
6f5
100
AcDbEntity
8
1
100
AcDbVertex
100
AcDb2dVertex
62
5
10
-0.000000
20
350.000000
0
VERTEX
5
6f6
100
AcDbEntity
8
1
100
AcDbVertex
100
AcDb2dVertex
62
5
10
320.000000
20
350.000000
0
VERTEX
5
6f7
100
AcDbEntity
8
1
100
AcDbVertex
100
AcDb2dVertex
62
5
10
320.000000
20
10.000000
0
VERTEX
5
6f8
100
AcDbEntity
8
1
100
AcDbVertex
100
AcDb2dVertex
62
5
10
-0.000000
20
10.000000
0
SEQEND
5
6f9
100
AcDbEntity
8
1
0
POLYLINE
5
6fa
100
AcDbEntity
8
1
6
DOT2
62
5
100
AcDb2dPolyline
66
1
10
0.0
20
0.0
30
0.0
70
0
0
VERTEX
5
6fb
100
AcDbEntity
8
1
100
AcDbVertex
100
AcDb2dVertex
62
5
10
-10.000000
20
350.000000
0
VERTEX
5
6fc
100
AcDbEntity
8
1
100
AcDbVertex
100
AcDb2dVertex
62
5
10
-10.000000
20
360.000000
0
VERTEX
5
6fd
100
AcDbEntity
8
1
100
AcDbVertex
100
AcDb2dVertex
62
5
10
0.000000
20
360.000000
0
SEQEND
5
6fe
100
AcDbEntity
8
1
0
POLYLINE
5
6ff
100
AcDbEntity
8
1
6
DOT2
62
5
100
AcDb2dPolyline
66
1
10
0.0
20
0.0
30
0.0
70
0
0
VERTEX
5
700
100
AcDbEntity
8
1
100
AcDbVertex
100
AcDb2dVertex
62
5
10
320.000000
20
360.000000
0
VERTEX
5
701
100
AcDbEntity
8
1
100
AcDbVertex
100
AcDb2dVertex
62
5
10
330.000000
20
360.000000
0
VERTEX
5
702
100
AcDbEntity
8
1
100
AcDbVertex
100
AcDb2dVertex
62
5
10
330.000000
20
350.000000
0
SEQEND
5
703
100
AcDbEntity
8
1
0
POLYLINE
5
704
100
AcDbEntity
8
1
6
DOT2
62
5
100
AcDb2dPolyline
66
1
10
0.0
20
0.0
30
0.0
70
0
0
VERTEX
5
705
100
AcDbEntity
8
1
100
AcDbVertex
100
AcDb2dVertex
62
5
10
330.000000
20
10.000000
0
VERTEX
5
706
100
AcDbEntity
8
1
100
AcDbVertex
100
AcDb2dVertex
62
5
10
330.000000
20
0.000000
0
VERTEX
5
707
100
AcDbEntity
8
1
100
AcDbVertex
100
AcDb2dVertex
62
5
10
320.000000
20
0.000000
0
SEQEND
5
708
100
AcDbEntity
8
1
0
POLYLINE
5
709
100
AcDbEntity
8
1
6
DOT2
62
5
100
AcDb2dPolyline
66
1
10
0.0
20
0.0
30
0.0
70
0
0
VERTEX
5
70a
100
AcDbEntity
8
1
100
AcDbVertex
100
AcDb2dVertex
62
5
10
0.000000
20
0.000000
0
VERTEX
5
70b
100
AcDbEntity
8
1
100
AcDbVertex
100
AcDb2dVertex
62
5
10
-10.000000
20
0.000000
0
VERTEX
5
70c
100
AcDbEntity
8
1
100
AcDbVertex
100
AcDb2dVertex
62
5
10
-10.000000
20
10.000000
0
SEQEND
5
70d
100
AcDbEntity
8
1
0
ENDSEC
0
SECTION
2
OBJECTS
0
DICTIONARY
5
70e
100
AcDbDictionary
3
ACAD_GROUP
350
70f
3
ACAD_MLINESTYLE
350
710
0
DICTIONARY
5
70f
102
{ACAD_REACTORS
330
70e
102
}
100
AcDbDictionary
0
DICTIONARY
5
710
102
{ACAD_REACTORS
330
70e
102
}
100
AcDbDictionary
3
STANDARD
350
711
0
MLINESTYLE
5
711
102
{ACAD_REACTORS
330
710
102
}
100
AcDbMlineStyle
2
STANDARD
70
0
3

62
0
51
90.0
52
90.0
71
2
49
0.5
62
256
6
BYLAYER
49
-0.5
62
256
6
BYLAYER
0
ENDSEC
0
EOF
