0
SECTION
2
HEADER
9
$ACADVER
1
AC1012
9
$EXTMIN
10
-0.010000
20
-0.010000
30
0.0
9
$EXTMAX
10
13.390000
20
14.180000
30
0.0
9
$LIMMIN
10
-0.254000
20
-0.254000
9
$LIMMAX
10
340.106000
20
360.172000
9
$DIMSCALE
40
1.000000
9
$PDMODE
70
2
9
$PDSIZE
40
0.0
  9
$HANDSEED
  5
5e6
0
ENDSEC
0
SECTION
2
CLASSES
0
ENDSEC
0
SECTION
2
TABLES
0
TABLE
2
LTYPE
5
1e
100
AcDbSymbolTable
70
12
0
LTYPE
5
1f
100
AcDbSymbolTableRecord
100
AcDbLinetypeTableRecord
2
BYBLOCK
70
0
3

72
65
73
0
40
0.0
0
LTYPE
5
20
100
AcDbSymbolTableRecord
100
AcDbLinetypeTableRecord
2
BYLAYER
70
0
3

72
65
73
0
40
0.0
0
LTYPE
5
21
100
AcDbSymbolTableRecord
100
AcDbLinetypeTableRecord
2
CONTINUOUS
70
64
3
Solid line
72
65
73
0
40
0.0
0
LTYPE
5
22
100
AcDbSymbolTableRecord
100
AcDbLinetypeTableRecord
2
DASHED
70
64
3
__ __ __ __ __ __ __ __ __ __ __ __ __ __ __
72
65
73
2
40
0.75
49
0.5
74
0
49
-0.25
74
0
0
LTYPE
5
23
100
AcDbSymbolTableRecord
100
AcDbLinetypeTableRecord
2
DOT
70
64
3
...............................................
72
65
73
2
40
0.25
49
0.0
74
0
49
-0.25
74
0
0
LTYPE
5
24
100
AcDbSymbolTableRecord
100
AcDbLinetypeTableRecord
2
DASHDOT
70
64
3
__ . __ . __ . __ . __ . __ . __ . __ . __ . --
72
65
73
4
40
1.0
49
0.5
74
0
49
-0.25
74
0
49
0.0
74
0
49
-0.25
74
0
0
LTYPE
5
25
100
AcDbSymbolTableRecord
100
AcDbLinetypeTableRecord
2
CENTER
70
64
3
____ _ ____ _ ____ _ ____ _ ____ _ ____ _ ____
72
65
73
4
40
2.0
49
1.25
74
0
49
-0.25
74
0
49
0.25
74
0
49
-0.25
74
0
0
LTYPE
5
26
100
AcDbSymbolTableRecord
100
AcDbLinetypeTableRecord
2
PHANTOM
70
64
3
_____ _ _ _____ _ _ _____ _ _ _____ _ _ ____
72
65
73
6
40
2.5
49
1.25
74
0
49
-0.25
74
0
49
0.25
74
0
49
-0.25
74
0
49
0.25
74
0
49
-0.25
74
0
0
LTYPE
5
27
100
AcDbSymbolTableRecord
100
AcDbLinetypeTableRecord
2
HIDDEN
70
64
3
_ _ _ _ _ _ _ _ _ _ _ _ _ _ _ _ _ _ _ _ _ _ _
72
65
73
2
40
0.375
49
0.25
74
0
49
-0.125
74
0
0
LTYPE
5
28
100
AcDbSymbolTableRecord
100
AcDbLinetypeTableRecord
2
BORDER
70
64
3
__ __ . __ __ . __ __ . __ __ . __ __ . __ __
72
65
73
6
40
1.75
49
0.5
74
0
49
-0.25
74
0
49
0.5
74
0
49
-0.25
74
0
49
0.0
74
0
49
-0.25
74
0
0
LTYPE
5
29
100
AcDbSymbolTableRecord
100
AcDbLinetypeTableRecord
2
DIVIDE
70
64
3
__ . . __ . . __ . . __ . . __ . . __ . . __
72
65
73
6
40
1.25
49
0.5
74
0
49
-0.25
74
0
49
0.0
74
0
49
-0.25
74
0
49
0.0
74
0
49
-0.25
74
0
0
LTYPE
5
2a
100
AcDbSymbolTableRecord
100
AcDbLinetypeTableRecord
2
DOT2
70
64
3
...............................................
72
65
73
2
40
0.125
49
0.0
74
0
49
-0.125
74
0
0
ENDTAB
0
TABLE
2
STYLE
5
2b
100
AcDbSymbolTable
70
1
0
STYLE
5
2c
100
AcDbSymbolTableRecord
100
AcDbTextStyleTableRecord
2
STANDARD
70
64
40
0.0
41
1.0
50
0.0
71
0
42
5.0
3
txt
4
bigfont
0
ENDTAB
0
TABLE
2
LAYER
5
2d
100
AcDbSymbolTable
70
2
0
LAYER
5
2e
100
AcDbSymbolTableRecord
100
AcDbLayerTableRecord
2
0
70
0
62
7
6
CONTINUOUS
0
LAYER
5
2f
100
AcDbSymbolTableRecord
100
AcDbLayerTableRecord
2
1
70
0
62
7
6
CONTINUOUS
0
ENDTAB
0
TABLE
2
APPID
5
30
100
AcDbSymbolTable
70
1
0
APPID
5
31
100
AcDbSymbolTableRecord
100
AcDbRegAppTableRecord
2
ACAD
70
64
0
ENDTAB
0
TABLE
2
DIMSTYLE
5
32
100
AcDbSymbolTable
70
0
0
ENDTAB
0
TABLE
2
UCS
5
33
100
AcDbSymbolTable
70
0
0
ENDTAB
0
TABLE
2
VIEW
5
34
100
AcDbSymbolTable
70
0
0
ENDTAB
0
TABLE
2
VPORT
5
35
100
AcDbSymbolTable
70
0
0
ENDTAB
0
TABLE
2
BLOCK_RECORD
5
36
100
AcDbSymbolTable
70
0
0
BLOCK_RECORD
5
37
100
AcDbSymbolTableRecord
100
AcDbBlockTableRecord
2
*MODEL_SPACE
0
BLOCK_RECORD
5
38
100
AcDbSymbolTableRecord
100
AcDbBlockTableRecord
2
*PAPER_SPACE
0
BLOCK_RECORD
5
39
100
AcDbSymbolTableRecord
100
AcDbBlockTableRecord
2
OPEN
0
BLOCK_RECORD
5
3a
100
AcDbSymbolTableRecord
100
AcDbBlockTableRecord
2
HALF
0
BLOCK_RECORD
5
3b
100
AcDbSymbolTableRecord
100
AcDbBlockTableRecord
2
CLOSEDBLANK
0
BLOCK_RECORD
5
3c
100
AcDbSymbolTableRecord
100
AcDbBlockTableRecord
2
HALFCLOSE_R
0
BLOCK_RECORD
5
3d
100
AcDbSymbolTableRecord
100
AcDbBlockTableRecord
2
DOT
0
BLOCK_RECORD
5
3e
100
AcDbSymbolTableRecord
100
AcDbBlockTableRecord
2
HALFOPEN_R
0
BLOCK_RECORD
5
3f
100
AcDbSymbolTableRecord
100
AcDbBlockTableRecord
2
CLOSEDF
0
BLOCK_RECORD
5
40
100
AcDbSymbolTableRecord
100
AcDbBlockTableRecord
2
HALF_R
0
ENDTAB
0
ENDSEC
0
SECTION
2
BLOCKS
0
BLOCK
5
41
100
AcDbEntity
8
0
100
AcDbBlockBegin
2
*MODEL_SPACE
70
0
10
0.0
20
0.0
30
0.0
3
*MODEL_SPACE
1

0
ENDBLK
5
42
100
AcDbEntity
8
0
100
AcDbBlockEnd
0
BLOCK
5
43
100
AcDbEntity
67
1
8
0
100
AcDbBlockBegin
2
*PAPER_SPACE
70
0
10
0.0
20
0.0
30
0.0
3
*PAPER_SPACE
1

0
ENDBLK
5
44
100
AcDbEntity
67
1
8
0
100
AcDbBlockEnd
0
BLOCK
5
45
100
AcDbEntity
8
0
100
AcDbBlockBegin
2
OPEN
70
0
10
0.0
20
0.0
30
0.0
3
OPEN
1

0
LINE
5
46
100
AcDbEntity
8
0
6
BYBLOCK
62
0
100
AcDbLine
10
0.000000
20
0.000000
11
-1.000000
21
0.000000
0
LINE
5
47
100
AcDbEntity
8
0
6
BYBLOCK
62
0
100
AcDbLine
10
-1.000000
20
-0.166667
11
0.000000
21
0.000000
0
LINE
5
48
100
AcDbEntity
8
0
6
BYBLOCK
62
0
100
AcDbLine
10
-1.000000
20
0.166667
11
0.000000
21
0.000000
0
ENDBLK
5
49
100
AcDbEntity
8
0
100
AcDbBlockEnd
0
BLOCK
5
4a
100
AcDbEntity
8
0
100
AcDbBlockBegin
2
HALF
70
0
10
0.0
20
0.0
30
0.0
3
HALF
1

0
SOLID
5
4b
100
AcDbEntity
8
0
6
BYBLOCK
62
0
100
AcDbTrace
10
-1.000000
20
0.166667
11
-1.000000
21
-0.166667
12
0.000000
22
0.000000
13
0.000000
23
0.000000
0
ENDBLK
5
4c
100
AcDbEntity
8
0
100
AcDbBlockEnd
0
BLOCK
5
4d
100
AcDbEntity
8
0
100
AcDbBlockBegin
2
CLOSEDBLANK
70
0
10
0.0
20
0.0
30
0.0
3
CLOSEDBLANK
1

0
LINE
5
4e
100
AcDbEntity
8
0
6
BYBLOCK
62
0
100
AcDbLine
10
-1.000000
20
0.166667
11
-1.000000
21
-0.166667
0
LINE
5
4f
100
AcDbEntity
8
0
6
BYBLOCK
62
0
100
AcDbLine
10
0.000000
20
0.000000
11
-1.000000
21
-0.166667
0
LINE
5
50
100
AcDbEntity
8
0
6
BYBLOCK
62
0
100
AcDbLine
10
-1.000000
20
0.166667
11
0.000000
21
0.000000
0
ENDBLK
5
51
100
AcDbEntity
8
0
100
AcDbBlockEnd
0
BLOCK
5
52
100
AcDbEntity
8
0
100
AcDbBlockBegin
2
HALFCLOSE_R
70
0
10
0.0
20
0.0
30
0.0
3
HALFCLOSE_R
1

0
LINE
5
53
100
AcDbEntity
8
0
6
BYBLOCK
62
0
100
AcDbLine
10
-1.000000
20
-0.166667
11
-1.000000
21
0.000000
0
LINE
5
54
100
AcDbEntity
8
0
6
BYBLOCK
62
0
100
AcDbLine
10
-1.000000
20
-0.166667
11
0.000000
21
0.000000
0
LINE
5
55
100
AcDbEntity
8
0
6
BYBLOCK
62
0
100
AcDbLine
10
0.000000
20
0.000000
11
-1.000000
21
0.000000
0
ENDBLK
5
56
100
AcDbEntity
8
0
100
AcDbBlockEnd
0
BLOCK
5
57
100
AcDbEntity
8
0
100
AcDbBlockBegin
2
DOT
70
0
10
0.0
20
0.0
30
0.0
3
DOT
1

0
LINE
5
58
100
AcDbEntity
8
0
6
BYBLOCK
62
0
100
AcDbLine
10
0.000000
20
0.000000
11
-1.000000
21
0.000000
0
POLYLINE
5
59
100
AcDbEntity
8
0
6
BYBLOCK
62
0
100
AcDb2dPolyline
66
1
10
0.0
20
0.0
30
0.0
70
1
40
0.166667
41
0.166667
0
VERTEX
5
5a
100
AcDbEntity
8
0
100
AcDbVertex
100
AcDb2dVertex
62
10
10
-0.083333
20
0.000000
42
1.000000
0
VERTEX
5
5b
100
AcDbEntity
8
0
100
AcDbVertex
100
AcDb2dVertex
62
10
10
0.083333
20
0.000000
42
1.000000
0
SEQEND
5
5c
100
AcDbEntity
8
0
0
ENDBLK
5
5d
100
AcDbEntity
8
0
100
AcDbBlockEnd
0
BLOCK
5
5e
100
AcDbEntity
8
0
100
AcDbBlockBegin
2
HALFOPEN_R
70
0
10
0.0
20
0.0
30
0.0
3
HALFOPEN_R
1

0
LINE
5
5f
100
AcDbEntity
8
0
6
BYBLOCK
62
0
100
AcDbLine
10
-1.000000
20
-0.166667
11
0.000000
21
0.000000
0
LINE
5
60
100
AcDbEntity
8
0
6
BYBLOCK
62
0
100
AcDbLine
10
0.000000
20
0.000000
11
-1.000000
21
0.000000
0
ENDBLK
5
61
100
AcDbEntity
8
0
100
AcDbBlockEnd
0
BLOCK
5
62
100
AcDbEntity
8
0
100
AcDbBlockBegin
2
CLOSEDF
70
0
10
0.0
20
0.0
30
0.0
3
CLOSEDF
1

0
SOLID
5
63
100
AcDbEntity
8
0
6
BYBLOCK
62
0
100
AcDbTrace
10
-1.000000
20
0.166667
11
-1.000000
21
-0.166667
12
0.000000
22
0.000000
13
0.000000
23
0.000000
0
ENDBLK
5
64
100
AcDbEntity
8
0
100
AcDbBlockEnd
0
BLOCK
5
65
100
AcDbEntity
8
0
100
AcDbBlockBegin
2
HALF_R
70
0
10
0.0
20
0.0
30
0.0
3
HALF_R
1

0
SOLID
5
66
100
AcDbEntity
8
0
6
BYBLOCK
62
0
100
AcDbTrace
10
-1.000000
20
-0.166667
11
-1.000000
21
0.000000
12
0.000000
22
0.000000
13
0.000000
23
0.000000
0
ENDBLK
5
67
100
AcDbEntity
8
0
100
AcDbBlockEnd
0
ENDSEC
0
SECTION
2
ENTITIES
0
POLYLINE
5
68
100
AcDbEntity
8
1
6
CONTINUOUS
62
5
100
AcDb2dPolyline
66
1
10
0.0
20
0.0
30
0.0
70
1
0
VERTEX
5
69
100
AcDbEntity
8
1
100
AcDbVertex
100
AcDb2dVertex
62
5
10
176.250000
20
330.250000
0
VERTEX
5
6a
100
AcDbEntity
8
1
100
AcDbVertex
100
AcDb2dVertex
62
5
10
181.500000
20
330.250000
0
VERTEX
5
6b
100
AcDbEntity
8
1
100
AcDbVertex
100
AcDb2dVertex
62
5
10
181.500000
20
336.500000
0
VERTEX
5
6c
100
AcDbEntity
8
1
100
AcDbVertex
100
AcDb2dVertex
62
5
10
176.250000
20
336.500000
0
VERTEX
5
6d
100
AcDbEntity
8
1
100
AcDbVertex
100
AcDb2dVertex
62
5
10
176.250000
20
330.250000
0
SEQEND
5
6e
100
AcDbEntity
8
1
0
POLYLINE
5
6f
100
AcDbEntity
8
1
6
CONTINUOUS
62
5
100
AcDb2dPolyline
66
1
10
0.0
20
0.0
30
0.0
70
0
0
VERTEX
5
70
100
AcDbEntity
8
1
100
AcDbVertex
100
AcDb2dVertex
62
5
10
172.000000
20
335.875000
0
VERTEX
5
71
100
AcDbEntity
8
1
100
AcDbVertex
100
AcDb2dVertex
62
5
10
172.250000
20
337.125000
0
VERTEX
5
72
100
AcDbEntity
8
1
100
AcDbVertex
100
AcDb2dVertex
62
5
10
172.750000
20
337.750000
0
VERTEX
5
73
100
AcDbEntity
8
1
100
AcDbVertex
100
AcDb2dVertex
62
5
10
173.500000
20
337.750000
0
VERTEX
5
74
100
AcDbEntity
8
1
100
AcDbVertex
100
AcDb2dVertex
62
5
10
174.000000
20
337.437500
0
VERTEX
5
75
100
AcDbEntity
8
1
100
AcDbVertex
100
AcDb2dVertex
62
5
10
174.250000
20
336.500000
0
VERTEX
5
76
100
AcDbEntity
8
1
100
AcDbVertex
100
AcDb2dVertex
62
5
10
174.250000
20
335.250000
0
VERTEX
5
77
100
AcDbEntity
8
1
100
AcDbVertex
100
AcDb2dVertex
62
5
10
174.000000
20
334.625000
0
VERTEX
5
78
100
AcDbEntity
8
1
100
AcDbVertex
100
AcDb2dVertex
62
5
10
173.500000
20
334.000000
0
VERTEX
5
79
100
AcDbEntity
8
1
100
AcDbVertex
100
AcDb2dVertex
62
5
10
172.750000
20
334.000000
0
SEQEND
5
7a
100
AcDbEntity
8
1
0
POLYLINE
5
7b
100
AcDbEntity
8
1
6
CONTINUOUS
62
5
100
AcDb2dPolyline
66
1
10
0.0
20
0.0
30
0.0
70
0
0
VERTEX
5
7c
100
AcDbEntity
8
1
100
AcDbVertex
100
AcDb2dVertex
62
5
10
173.500000
20
334.000000
0
VERTEX
5
7d
100
AcDbEntity
8
1
100
AcDbVertex
100
AcDb2dVertex
62
5
10
174.250000
20
333.375000
0
VERTEX
5
7e
100
AcDbEntity
8
1
100
AcDbVertex
100
AcDb2dVertex
62
5
10
174.500000
20
332.437500
0
VERTEX
5
7f
100
AcDbEntity
8
1
100
AcDbVertex
100
AcDb2dVertex
62
5
10
174.500000
20
331.500000
0
VERTEX
5
80
100
AcDbEntity
8
1
100
AcDbVertex
100
AcDb2dVertex
62
5
10
174.250000
20
330.875000
0
VERTEX
5
81
100
AcDbEntity
8
1
100
AcDbVertex
100
AcDb2dVertex
62
5
10
173.500000
20
330.250000
0
VERTEX
5
82
100
AcDbEntity
8
1
100
AcDbVertex
100
AcDb2dVertex
62
5
10
172.750000
20
330.250000
0
VERTEX
5
83
100
AcDbEntity
8
1
100
AcDbVertex
100
AcDb2dVertex
62
5
10
172.250000
20
330.562500
0
VERTEX
5
84
100
AcDbEntity
8
1
100
AcDbVertex
100
AcDb2dVertex
62
5
10
171.750000
20
331.500000
0
SEQEND
5
85
100
AcDbEntity
8
1
0
POLYLINE
5
86
100
AcDbEntity
8
1
6
DOT2
62
5
100
AcDb2dPolyline
66
1
10
0.0
20
0.0
30
0.0
70
0
0
VERTEX
5
87
100
AcDbEntity
8
1
100
AcDbVertex
100
AcDb2dVertex
62
5
10
247.250000
20
252.812500
0
VERTEX
5
88
100
AcDbEntity
8
1
100
AcDbVertex
100
AcDb2dVertex
62
5
10
247.250000
20
253.750000
0
VERTEX
5
89
100
AcDbEntity
8
1
100
AcDbVertex
100
AcDb2dVertex
62
5
10
250.375000
20
253.750000
0
VERTEX
5
8a
100
AcDbEntity
8
1
100
AcDbVertex
100
AcDb2dVertex
62
5
10
250.375000
20
253.125000
0
VERTEX
5
8b
100
AcDbEntity
8
1
100
AcDbVertex
100
AcDb2dVertex
62
5
10
249.750000
20
251.562500
0
VERTEX
5
8c
100
AcDbEntity
8
1
100
AcDbVertex
100
AcDb2dVertex
62
5
10
249.125000
20
249.375000
0
VERTEX
5
8d
100
AcDbEntity
8
1
100
AcDbVertex
100
AcDb2dVertex
62
5
10
248.500000
20
246.250000
0
SEQEND
5
8e
100
AcDbEntity
8
1
0
POLYLINE
5
8f
100
AcDbEntity
8
1
6
CONTINUOUS
62
5
100
AcDb2dPolyline
66
1
10
0.0
20
0.0
30
0.0
70
0
0
VERTEX
5
90
100
AcDbEntity
8
1
100
AcDbVertex
100
AcDb2dVertex
62
5
10
134.250000
20
328.375000
0
VERTEX
5
91
100
AcDbEntity
8
1
100
AcDbVertex
100
AcDb2dVertex
62
5
10
133.500000
20
327.125000
0
VERTEX
5
92
100
AcDbEntity
8
1
100
AcDbVertex
100
AcDb2dVertex
62
5
10
132.750000
20
326.187500
0
VERTEX
5
93
100
AcDbEntity
8
1
100
AcDbVertex
100
AcDb2dVertex
62
5
10
131.750000
20
325.250000
0
SEQEND
5
94
100
AcDbEntity
8
1
0
POLYLINE
5
95
100
AcDbEntity
8
1
6
CONTINUOUS
62
5
100
AcDb2dPolyline
66
1
10
0.0
20
0.0
30
0.0
70
0
0
VERTEX
5
96
100
AcDbEntity
8
1
100
AcDbVertex
100
AcDb2dVertex
62
5
10
134.000000
20
327.750000
0
VERTEX
5
97
100
AcDbEntity
8
1
100
AcDbVertex
100
AcDb2dVertex
62
5
10
136.250000
20
327.750000
0
VERTEX
5
98
100
AcDbEntity
8
1
100
AcDbVertex
100
AcDb2dVertex
62
5
10
135.000000
20
325.875000
0
SEQEND
5
99
100
AcDbEntity
8
1
0
POLYLINE
5
9a
100
AcDbEntity
8
1
6
CONTINUOUS
62
5
100
AcDb2dPolyline
66
1
10
0.0
20
0.0
30
0.0
70
0
0
VERTEX
5
9b
100
AcDbEntity
8
1
100
AcDbVertex
100
AcDb2dVertex
62
5
10
132.750000
20
325.875000
0
VERTEX
5
9c
100
AcDbEntity
8
1
100
AcDbVertex
100
AcDb2dVertex
62
5
10
137.250000
20
325.875000
0
VERTEX
5
9d
100
AcDbEntity
8
1
100
AcDbVertex
100
AcDb2dVertex
62
5
10
137.250000
20
323.062500
0
VERTEX
5
9e
100
AcDbEntity
8
1
100
AcDbVertex
100
AcDb2dVertex
62
5
10
132.750000
20
323.062500
0
SEQEND
5
9f
100
AcDbEntity
8
1
0
LINE
5
a0
100
AcDbEntity
8
1
100
AcDbLine
6
CONTINUOUS
62
5
10
135.000000
20
325.875000
11
135.000000
21
323.062500
0
POLYLINE
5
a1
100
AcDbEntity
8
1
6
CONTINUOUS
62
5
100
AcDb2dPolyline
66
1
10
0.0
20
0.0
30
0.0
70
0
0
VERTEX
5
a2
100
AcDbEntity
8
1
100
AcDbVertex
100
AcDb2dVertex
62
5
10
132.750000
20
325.875000
0
VERTEX
5
a3
100
AcDbEntity
8
1
100
AcDbVertex
100
AcDb2dVertex
62
5
10
132.750000
20
320.562500
0
VERTEX
5
a4
100
AcDbEntity
8
1
100
AcDbVertex
100
AcDb2dVertex
62
5
10
133.250000
20
319.937500
0
VERTEX
5
a5
100
AcDbEntity
8
1
100
AcDbVertex
100
AcDb2dVertex
62
5
10
138.250000
20
319.937500
0
VERTEX
5
a6
100
AcDbEntity
8
1
100
AcDbVertex
100
AcDb2dVertex
62
5
10
138.250000
20
321.187500
0
SEQEND
5
a7
100
AcDbEntity
8
1
0
POLYLINE
5
a8
100
AcDbEntity
8
1
6
CONTINUOUS
62
5
100
AcDb2dPolyline
66
1
10
0.0
20
0.0
30
0.0
70
0
0
VERTEX
5
a9
100
AcDbEntity
8
1
100
AcDbVertex
100
AcDb2dVertex
62
5
10
130.250000
20
334.937500
0
VERTEX
5
aa
100
AcDbEntity
8
1
100
AcDbVertex
100
AcDb2dVertex
62
5
10
130.500000
20
334.937500
0
VERTEX
5
ab
100
AcDbEntity
8
1
100
AcDbVertex
100
AcDb2dVertex
62
5
10
132.250000
20
333.687500
0
SEQEND
5
ac
100
AcDbEntity
8
1
0
LINE
5
ad
100
AcDbEntity
8
1
100
AcDbLine
6
CONTINUOUS
62
5
10
130.250000
20
337.750000
11
130.250000
21
330.250000
0
POLYLINE
5
ae
100
AcDbEntity
8
1
6
CONTINUOUS
62
5
100
AcDb2dPolyline
66
1
10
0.0
20
0.0
30
0.0
70
0
0
VERTEX
5
af
100
AcDbEntity
8
1
100
AcDbVertex
100
AcDb2dVertex
62
5
10
144.500000
20
337.125000
0
VERTEX
5
b0
100
AcDbEntity
8
1
100
AcDbVertex
100
AcDb2dVertex
62
5
10
145.250000
20
337.750000
0
VERTEX
5
b1
100
AcDbEntity
8
1
100
AcDbVertex
100
AcDb2dVertex
62
5
10
145.250000
20
330.250000
0
SEQEND
5
b2
100
AcDbEntity
8
1
0
LINE
5
b3
100
AcDbEntity
8
1
100
AcDbLine
6
CONTINUOUS
62
5
10
144.750000
20
330.250000
11
145.750000
21
330.250000
0
LINE
5
b4
100
AcDbEntity
8
1
100
AcDbLine
6
CONTINUOUS
62
5
10
147.750000
20
337.750000
11
148.750000
21
336.812500
0
POLYLINE
5
b5
100
AcDbEntity
8
1
6
CONTINUOUS
62
5
100
AcDb2dPolyline
66
1
10
0.0
20
0.0
30
0.0
70
0
0
VERTEX
5
b6
100
AcDbEntity
8
1
100
AcDbVertex
100
AcDb2dVertex
62
5
10
147.250000
20
334.000000
0
VERTEX
5
b7
100
AcDbEntity
8
1
100
AcDbVertex
100
AcDb2dVertex
62
5
10
148.500000
20
334.000000
0
VERTEX
5
b8
100
AcDbEntity
8
1
100
AcDbVertex
100
AcDb2dVertex
62
5
10
148.500000
20
330.875000
0
VERTEX
5
b9
100
AcDbEntity
8
1
100
AcDbVertex
100
AcDb2dVertex
62
5
10
147.250000
20
329.937500
0
SEQEND
5
ba
100
AcDbEntity
8
1
0
POLYLINE
5
bb
100
AcDbEntity
8
1
6
CONTINUOUS
62
5
100
AcDb2dPolyline
66
1
10
0.0
20
0.0
30
0.0
70
0
0
VERTEX
5
bc
100
AcDbEntity
8
1
100
AcDbVertex
100
AcDb2dVertex
62
5
10
148.500000
20
330.875000
0
VERTEX
5
bd
100
AcDbEntity
8
1
100
AcDbVertex
100
AcDb2dVertex
62
5
10
149.500000
20
330.250000
0
VERTEX
5
be
100
AcDbEntity
8
1
100
AcDbVertex
100
AcDb2dVertex
62
5
10
154.250000
20
329.625000
0
SEQEND
5
bf
100
AcDbEntity
8
1
0
LINE
5
c0
100
AcDbEntity
8
1
100
AcDbLine
6
CONTINUOUS
62
5
10
149.500000
20
337.125000
11
154.250000
21
337.125000
0
LINE
5
c1
100
AcDbEntity
8
1
100
AcDbLine
6
CONTINUOUS
62
5
10
152.000000
20
338.375000
11
152.000000
21
330.875000
0
POLYLINE
5
c2
100
AcDbEntity
8
1
6
CONTINUOUS
62
5
100
AcDb2dPolyline
66
1
10
0.0
20
0.0
30
0.0
70
1
0
VERTEX
5
c3
100
AcDbEntity
8
1
100
AcDbVertex
100
AcDb2dVertex
62
5
10
150.000000
20
335.875000
0
VERTEX
5
c4
100
AcDbEntity
8
1
100
AcDbVertex
100
AcDb2dVertex
62
5
10
150.000000
20
333.375000
0
VERTEX
5
c5
100
AcDbEntity
8
1
100
AcDbVertex
100
AcDb2dVertex
62
5
10
153.750000
20
333.375000
0
VERTEX
5
c6
100
AcDbEntity
8
1
100
AcDbVertex
100
AcDb2dVertex
62
5
10
153.750000
20
335.875000
0
VERTEX
5
c7
100
AcDbEntity
8
1
100
AcDbVertex
100
AcDb2dVertex
62
5
10
150.000000
20
335.875000
0
SEQEND
5
c8
100
AcDbEntity
8
1
0
LINE
5
c9
100
AcDbEntity
8
1
100
AcDbLine
6
CONTINUOUS
62
5
10
150.000000
20
334.625000
11
153.750000
21
334.625000
0
LINE
5
ca
100
AcDbEntity
8
1
100
AcDbLine
6
CONTINUOUS
62
5
10
149.000000
20
332.125000
11
154.500000
21
332.125000
0
POLYLINE
5
cb
100
AcDbEntity
8
1
6
CONTINUOUS
62
5
100
AcDb2dPolyline
66
1
10
0.0
20
0.0
30
0.0
70
0
0
VERTEX
5
cc
100
AcDbEntity
8
1
100
AcDbVertex
100
AcDb2dVertex
62
5
10
156.500000
20
337.750000
0
VERTEX
5
cd
100
AcDbEntity
8
1
100
AcDbVertex
100
AcDb2dVertex
62
5
10
156.500000
20
332.125000
0
VERTEX
5
ce
100
AcDbEntity
8
1
100
AcDbVertex
100
AcDb2dVertex
62
5
10
156.000000
20
330.875000
0
VERTEX
5
cf
100
AcDbEntity
8
1
100
AcDbVertex
100
AcDb2dVertex
62
5
10
155.500000
20
329.937500
0
SEQEND
5
d0
100
AcDbEntity
8
1
0
POLYLINE
5
d1
100
AcDbEntity
8
1
6
CONTINUOUS
62
5
100
AcDb2dPolyline
66
1
10
0.0
20
0.0
30
0.0
70
0
0
VERTEX
5
d2
100
AcDbEntity
8
1
100
AcDbVertex
100
AcDb2dVertex
62
5
10
160.500000
20
330.250000
0
VERTEX
5
d3
100
AcDbEntity
8
1
100
AcDbVertex
100
AcDb2dVertex
62
5
10
161.500000
20
329.625000
0
VERTEX
5
d4
100
AcDbEntity
8
1
100
AcDbVertex
100
AcDb2dVertex
62
5
10
161.500000
20
337.750000
0
VERTEX
5
d5
100
AcDbEntity
8
1
100
AcDbVertex
100
AcDb2dVertex
62
5
10
156.500000
20
337.750000
0
SEQEND
5
d6
100
AcDbEntity
8
1
0
LINE
5
d7
100
AcDbEntity
8
1
100
AcDbLine
6
CONTINUOUS
62
5
10
156.500000
20
335.250000
11
161.500000
21
335.250000
0
LINE
5
d8
100
AcDbEntity
8
1
100
AcDbLine
6
CONTINUOUS
62
5
10
159.000000
20
337.750000
11
159.000000
21
329.625000
0
LINE
5
d9
100
AcDbEntity
8
1
100
AcDbLine
6
CONTINUOUS
62
5
10
156.500000
20
332.750000
11
161.500000
21
332.750000
0
LINE
5
da
100
AcDbEntity
8
1
100
AcDbLine
6
CONTINUOUS
62
5
10
87.250000
20
346.750000
11
87.250000
21
341.000000
0
POLYLINE
5
db
100
AcDbEntity
8
1
6
CONTINUOUS
62
5
100
AcDb2dPolyline
66
1
10
0.0
20
0.0
30
0.0
70
0
0
VERTEX
5
dc
100
AcDbEntity
8
1
100
AcDbVertex
100
AcDb2dVertex
62
5
10
87.250000
20
344.500000
0
VERTEX
5
dd
100
AcDbEntity
8
1
100
AcDbVertex
100
AcDb2dVertex
62
5
10
87.500000
20
344.500000
0
VERTEX
5
de
100
AcDbEntity
8
1
100
AcDbVertex
100
AcDb2dVertex
62
5
10
89.000000
20
343.750000
0
SEQEND
5
df
100
AcDbEntity
8
1
0
LINE
5
e0
100
AcDbEntity
8
1
100
AcDbLine
6
CONTINUOUS
62
5
10
89.250000
20
346.250000
11
89.750000
21
345.750000
0
LINE
5
e1
100
AcDbEntity
8
1
100
AcDbLine
6
CONTINUOUS
62
5
10
90.250000
20
346.750000
11
90.750000
21
346.250000
0
POLYLINE
5
e2
100
AcDbEntity
8
1
6
CONTINUOUS
62
5
100
AcDb2dPolyline
66
1
10
0.0
20
0.0
30
0.0
70
0
0
VERTEX
5
e3
100
AcDbEntity
8
1
100
AcDbVertex
100
AcDb2dVertex
62
5
10
93.750000
20
346.000000
0
VERTEX
5
e4
100
AcDbEntity
8
1
100
AcDbVertex
100
AcDb2dVertex
62
5
10
93.750000
20
341.750000
0
VERTEX
5
e5
100
AcDbEntity
8
1
100
AcDbVertex
100
AcDb2dVertex
62
5
10
94.250000
20
341.250000
0
VERTEX
5
e6
100
AcDbEntity
8
1
100
AcDbVertex
100
AcDb2dVertex
62
5
10
98.000000
20
341.250000
0
SEQEND
5
e7
100
AcDbEntity
8
1
0
LINE
5
e8
100
AcDbEntity
8
1
100
AcDbLine
6
CONTINUOUS
62
5
10
97.000000
20
344.500000
11
93.750000
21
343.750000
0
LINE
5
e9
100
AcDbEntity
8
1
100
AcDbLine
6
CONTINUOUS
62
5
10
97.250000
20
345.750000
11
98.000000
21
345.000000
0
LINE
5
ea
100
AcDbEntity
8
1
100
AcDbLine
6
CONTINUOUS
62
5
10
98.000000
20
346.500000
11
98.750000
21
345.750000
0
POLYLINE
5
eb
100
AcDbEntity
8
1
6
CONTINUOUS
62
5
100
AcDb2dPolyline
66
1
10
0.0
20
0.0
30
0.0
70
0
0
VERTEX
5
ec
100
AcDbEntity
8
1
100
AcDbVertex
100
AcDb2dVertex
62
5
10
100.750000
20
344.250000
0
VERTEX
5
ed
100
AcDbEntity
8
1
100
AcDbVertex
100
AcDb2dVertex
62
5
10
101.000000
20
344.000000
0
VERTEX
5
ee
100
AcDbEntity
8
1
100
AcDbVertex
100
AcDb2dVertex
62
5
10
107.750000
20
344.000000
0
SEQEND
5
ef
100
AcDbEntity
8
1
0
POLYLINE
5
f0
100
AcDbEntity
8
1
6
CONTINUOUS
62
5
100
AcDb2dPolyline
66
1
10
0.0
20
0.0
30
0.0
70
0
0
VERTEX
5
f1
100
AcDbEntity
8
1
100
AcDbVertex
100
AcDb2dVertex
62
5
10
113.250000
20
337.125000
0
VERTEX
5
f2
100
AcDbEntity
8
1
100
AcDbVertex
100
AcDb2dVertex
62
5
10
113.250000
20
330.875000
0
VERTEX
5
f3
100
AcDbEntity
8
1
100
AcDbVertex
100
AcDb2dVertex
62
5
10
113.750000
20
330.562500
0
VERTEX
5
f4
100
AcDbEntity
8
1
100
AcDbVertex
100
AcDb2dVertex
62
5
10
115.000000
20
331.187500
0
VERTEX
5
f5
100
AcDbEntity
8
1
100
AcDbVertex
100
AcDb2dVertex
62
5
10
116.250000
20
332.125000
0
VERTEX
5
f6
100
AcDbEntity
8
1
100
AcDbVertex
100
AcDb2dVertex
62
5
10
117.500000
20
333.375000
0
SEQEND
5
f7
100
AcDbEntity
8
1
0
POLYLINE
5
f8
100
AcDbEntity
8
1
6
CONTINUOUS
62
5
100
AcDb2dPolyline
66
1
10
0.0
20
0.0
30
0.0
70
0
0
VERTEX
5
f9
100
AcDbEntity
8
1
100
AcDbVertex
100
AcDb2dVertex
62
5
10
119.750000
20
334.312500
0
VERTEX
5
fa
100
AcDbEntity
8
1
100
AcDbVertex
100
AcDb2dVertex
62
5
10
120.000000
20
334.000000
0
VERTEX
5
fb
100
AcDbEntity
8
1
100
AcDbVertex
100
AcDb2dVertex
62
5
10
126.750000
20
334.000000
0
SEQEND
5
fc
100
AcDbEntity
8
1
0
POLYLINE
5
fd
100
AcDbEntity
8
1
6
CONTINUOUS
62
5
100
AcDb2dPolyline
66
1
10
0.0
20
0.0
30
0.0
70
0
0
VERTEX
5
fe
100
AcDbEntity
8
1
100
AcDbVertex
100
AcDb2dVertex
62
5
10
108.750000
20
324.312500
0
VERTEX
5
ff
100
AcDbEntity
8
1
100
AcDbVertex
100
AcDb2dVertex
62
5
10
108.750000
20
326.500000
0
VERTEX
5
100
100
AcDbEntity
8
1
100
AcDbVertex
100
AcDb2dVertex
62
5
10
112.750000
20
326.500000
0
VERTEX
5
101
100
AcDbEntity
8
1
100
AcDbVertex
100
AcDb2dVertex
62
5
10
112.750000
20
325.562500
0
VERTEX
5
102
100
AcDbEntity
8
1
100
AcDbVertex
100
AcDb2dVertex
62
5
10
112.500000
20
324.000000
0
VERTEX
5
103
100
AcDbEntity
8
1
100
AcDbVertex
100
AcDb2dVertex
62
5
10
112.000000
20
322.750000
0
VERTEX
5
104
100
AcDbEntity
8
1
100
AcDbVertex
100
AcDb2dVertex
62
5
10
111.500000
20
321.812500
0
VERTEX
5
105
100
AcDbEntity
8
1
100
AcDbVertex
100
AcDb2dVertex
62
5
10
110.500000
20
320.562500
0
SEQEND
5
106
100
AcDbEntity
8
1
0
POLYLINE
5
107
100
AcDbEntity
8
1
6
CONTINUOUS
62
5
100
AcDb2dPolyline
66
1
10
0.0
20
0.0
30
0.0
70
0
0
VERTEX
5
108
100
AcDbEntity
8
1
100
AcDbVertex
100
AcDb2dVertex
62
5
10
120.750000
20
327.437500
0
VERTEX
5
109
100
AcDbEntity
8
1
100
AcDbVertex
100
AcDb2dVertex
62
5
10
118.750000
20
324.937500
0
VERTEX
5
10a
100
AcDbEntity
8
1
100
AcDbVertex
100
AcDb2dVertex
62
5
10
116.500000
20
323.375000
0
SEQEND
5
10b
100
AcDbEntity
8
1
0
LINE
5
10c
100
AcDbEntity
8
1
100
AcDbLine
6
CONTINUOUS
62
5
10
119.250000
20
325.562500
11
119.250000
21
320.250000
0
POLYLINE
5
10d
100
AcDbEntity
8
1
6
CONTINUOUS
62
5
100
AcDb2dPolyline
66
1
10
0.0
20
0.0
30
0.0
70
0
0
VERTEX
5
10e
100
AcDbEntity
8
1
100
AcDbVertex
100
AcDb2dVertex
62
5
10
87.750000
20
334.312500
0
VERTEX
5
10f
100
AcDbEntity
8
1
100
AcDbVertex
100
AcDb2dVertex
62
5
10
88.000000
20
334.000000
0
VERTEX
5
110
100
AcDbEntity
8
1
100
AcDbVertex
100
AcDb2dVertex
62
5
10
94.750000
20
334.000000
0
SEQEND
5
111
100
AcDbEntity
8
1
0
POLYLINE
5
112
100
AcDbEntity
8
1
6
CONTINUOUS
62
5
100
AcDb2dPolyline
66
1
10
0.0
20
0.0
30
0.0
70
0
0
VERTEX
5
113
100
AcDbEntity
8
1
100
AcDbVertex
100
AcDb2dVertex
62
5
10
97.000000
20
335.875000
0
VERTEX
5
114
100
AcDbEntity
8
1
100
AcDbVertex
100
AcDb2dVertex
62
5
10
100.250000
20
335.875000
0
VERTEX
5
115
100
AcDbEntity
8
1
100
AcDbVertex
100
AcDb2dVertex
62
5
10
100.250000
20
335.562500
0
VERTEX
5
116
100
AcDbEntity
8
1
100
AcDbVertex
100
AcDb2dVertex
62
5
10
99.750000
20
334.312500
0
VERTEX
5
117
100
AcDbEntity
8
1
100
AcDbVertex
100
AcDb2dVertex
62
5
10
99.250000
20
333.375000
0
VERTEX
5
118
100
AcDbEntity
8
1
100
AcDbVertex
100
AcDb2dVertex
62
5
10
98.250000
20
332.125000
0
VERTEX
5
119
100
AcDbEntity
8
1
100
AcDbVertex
100
AcDb2dVertex
62
5
10
96.500000
20
330.562500
0
SEQEND
5
11a
100
AcDbEntity
8
1
0
LINE
5
11b
100
AcDbEntity
8
1
100
AcDbLine
6
CONTINUOUS
62
5
10
99.250000
20
333.375000
11
101.250000
21
330.562500
0
POLYLINE
5
11c
100
AcDbEntity
8
1
6
CONTINUOUS
62
5
100
AcDb2dPolyline
66
1
10
0.0
20
0.0
30
0.0
70
0
0
VERTEX
5
11d
100
AcDbEntity
8
1
100
AcDbVertex
100
AcDb2dVertex
62
5
10
92.000000
20
326.187500
0
VERTEX
5
11e
100
AcDbEntity
8
1
100
AcDbVertex
100
AcDb2dVertex
62
5
10
97.250000
20
326.187500
0
VERTEX
5
11f
100
AcDbEntity
8
1
100
AcDbVertex
100
AcDb2dVertex
62
5
10
97.250000
20
325.875000
0
VERTEX
5
120
100
AcDbEntity
8
1
100
AcDbVertex
100
AcDb2dVertex
62
5
10
95.500000
20
324.000000
0
VERTEX
5
121
100
AcDbEntity
8
1
100
AcDbVertex
100
AcDb2dVertex
62
5
10
94.750000
20
324.000000
0
SEQEND
5
122
100
AcDbEntity
8
1
0
POLYLINE
5
123
100
AcDbEntity
8
1
6
CONTINUOUS
62
5
100
AcDb2dPolyline
66
1
10
0.0
20
0.0
30
0.0
70
0
0
VERTEX
5
124
100
AcDbEntity
8
1
100
AcDbVertex
100
AcDb2dVertex
62
5
10
94.750000
20
324.937500
0
VERTEX
5
125
100
AcDbEntity
8
1
100
AcDbVertex
100
AcDb2dVertex
62
5
10
94.750000
20
323.375000
0
VERTEX
5
126
100
AcDbEntity
8
1
100
AcDbVertex
100
AcDb2dVertex
62
5
10
94.000000
20
321.500000
0
VERTEX
5
127
100
AcDbEntity
8
1
100
AcDbVertex
100
AcDb2dVertex
62
5
10
93.000000
20
320.250000
0
SEQEND
5
128
100
AcDbEntity
8
1
0
LINE
5
129
100
AcDbEntity
8
1
100
AcDbLine
6
CONTINUOUS
62
5
10
100.250000
20
324.937500
11
105.250000
21
324.937500
0
POLYLINE
5
12a
100
AcDbEntity
8
1
6
CONTINUOUS
62
5
100
AcDb2dPolyline
66
1
10
0.0
20
0.0
30
0.0
70
0
0
VERTEX
5
12b
100
AcDbEntity
8
1
100
AcDbVertex
100
AcDb2dVertex
62
5
10
102.750000
20
326.812500
0
VERTEX
5
12c
100
AcDbEntity
8
1
100
AcDbVertex
100
AcDb2dVertex
62
5
10
102.750000
20
320.562500
0
VERTEX
5
12d
100
AcDbEntity
8
1
100
AcDbVertex
100
AcDb2dVertex
62
5
10
102.250000
20
320.562500
0
SEQEND
5
12e
100
AcDbEntity
8
1
0
LINE
5
12f
100
AcDbEntity
8
1
100
AcDbLine
6
CONTINUOUS
62
5
10
101.500000
20
323.375000
11
100.250000
21
321.500000
0
LINE
5
130
100
AcDbEntity
8
1
100
AcDbLine
6
CONTINUOUS
62
5
10
104.250000
20
323.375000
11
105.500000
21
321.812500
0
POLYLINE
5
131
100
AcDbEntity
8
1
6
CONTINUOUS
62
5
100
AcDb2dPolyline
66
1
10
0.0
20
0.0
30
0.0
70
0
0
VERTEX
5
132
100
AcDbEntity
8
1
100
AcDbVertex
100
AcDb2dVertex
62
5
10
104.000000
20
335.875000
0
VERTEX
5
133
100
AcDbEntity
8
1
100
AcDbVertex
100
AcDb2dVertex
62
5
10
108.250000
20
335.875000
0
VERTEX
5
134
100
AcDbEntity
8
1
100
AcDbVertex
100
AcDb2dVertex
62
5
10
108.250000
20
335.250000
0
VERTEX
5
135
100
AcDbEntity
8
1
100
AcDbVertex
100
AcDb2dVertex
62
5
10
108.000000
20
334.312500
0
VERTEX
5
136
100
AcDbEntity
8
1
100
AcDbVertex
100
AcDb2dVertex
62
5
10
107.500000
20
333.375000
0
VERTEX
5
137
100
AcDbEntity
8
1
100
AcDbVertex
100
AcDb2dVertex
62
5
10
106.750000
20
332.125000
0
VERTEX
5
138
100
AcDbEntity
8
1
100
AcDbVertex
100
AcDb2dVertex
62
5
10
106.000000
20
331.500000
0
VERTEX
5
139
100
AcDbEntity
8
1
100
AcDbVertex
100
AcDb2dVertex
62
5
10
104.750000
20
330.562500
0
SEQEND
5
13a
100
AcDbEntity
8
1
0
POLYLINE
5
13b
100
AcDbEntity
8
1
6
CONTINUOUS
62
5
100
AcDb2dPolyline
66
1
10
0.0
20
0.0
30
0.0
70
1
0
VERTEX
5
13c
100
AcDbEntity
8
1
100
AcDbVertex
100
AcDb2dVertex
62
5
10
109.000000
20
337.437500
0
VERTEX
5
13d
100
AcDbEntity
8
1
100
AcDbVertex
100
AcDb2dVertex
62
5
10
109.500000
20
337.437500
0
VERTEX
5
13e
100
AcDbEntity
8
1
100
AcDbVertex
100
AcDb2dVertex
62
5
10
109.750000
20
337.125000
0
VERTEX
5
13f
100
AcDbEntity
8
1
100
AcDbVertex
100
AcDb2dVertex
62
5
10
109.750000
20
336.500000
0
VERTEX
5
140
100
AcDbEntity
8
1
100
AcDbVertex
100
AcDb2dVertex
62
5
10
109.500000
20
336.187500
0
VERTEX
5
141
100
AcDbEntity
8
1
100
AcDbVertex
100
AcDb2dVertex
62
5
10
109.000000
20
336.187500
0
VERTEX
5
142
100
AcDbEntity
8
1
100
AcDbVertex
100
AcDb2dVertex
62
5
10
108.750000
20
336.500000
0
VERTEX
5
143
100
AcDbEntity
8
1
100
AcDbVertex
100
AcDb2dVertex
62
5
10
108.750000
20
337.125000
0
VERTEX
5
144
100
AcDbEntity
8
1
100
AcDbVertex
100
AcDb2dVertex
62
5
10
109.000000
20
337.437500
0
SEQEND
5
145
100
AcDbEntity
8
1
0
POLYLINE
5
146
100
AcDbEntity
8
1
6
CONTINUOUS
62
5
100
AcDb2dPolyline
66
1
10
0.0
20
0.0
30
0.0
70
0
0
VERTEX
5
147
100
AcDbEntity
8
1
100
AcDbVertex
100
AcDb2dVertex
62
5
10
126.250000
20
324.937500
0
VERTEX
5
148
100
AcDbEntity
8
1
100
AcDbVertex
100
AcDb2dVertex
62
5
10
126.500000
20
324.937500
0
VERTEX
5
149
100
AcDbEntity
8
1
100
AcDbVertex
100
AcDb2dVertex
62
5
10
128.250000
20
323.687500
0
SEQEND
5
14a
100
AcDbEntity
8
1
0
LINE
5
14b
100
AcDbEntity
8
1
100
AcDbLine
6
CONTINUOUS
62
5
10
126.250000
20
327.750000
11
126.250000
21
320.250000
0
POLYLINE
5
14c
100
AcDbEntity
8
1
6
CONTINUOUS
62
5
100
AcDb2dPolyline
66
1
10
0.0
20
0.0
30
0.0
70
0
0
VERTEX
5
14d
100
AcDbEntity
8
1
100
AcDbVertex
100
AcDb2dVertex
62
5
10
87.500000
20
300.500000
0
VERTEX
5
14e
100
AcDbEntity
8
1
100
AcDbVertex
100
AcDb2dVertex
62
5
10
87.500000
20
294.562500
0
VERTEX
5
14f
100
AcDbEntity
8
1
100
AcDbVertex
100
AcDb2dVertex
62
5
10
87.812500
20
293.625000
0
VERTEX
5
150
100
AcDbEntity
8
1
100
AcDbVertex
100
AcDb2dVertex
62
5
10
88.125000
20
293.312500
0
VERTEX
5
151
100
AcDbEntity
8
1
100
AcDbVertex
100
AcDb2dVertex
62
5
10
88.750000
20
293.000000
0
VERTEX
5
152
100
AcDbEntity
8
1
100
AcDbVertex
100
AcDb2dVertex
62
5
10
89.375000
20
293.000000
0
VERTEX
5
153
100
AcDbEntity
8
1
100
AcDbVertex
100
AcDb2dVertex
62
5
10
90.000000
20
293.312500
0
VERTEX
5
154
100
AcDbEntity
8
1
100
AcDbVertex
100
AcDb2dVertex
62
5
10
90.312500
20
293.625000
0
VERTEX
5
155
100
AcDbEntity
8
1
100
AcDbVertex
100
AcDb2dVertex
62
5
10
90.625000
20
294.562500
0
VERTEX
5
156
100
AcDbEntity
8
1
100
AcDbVertex
100
AcDb2dVertex
62
5
10
90.625000
20
300.500000
0
SEQEND
5
157
100
AcDbEntity
8
1
0
LINE
5
158
100
AcDbEntity
8
1
100
AcDbLine
6
CONTINUOUS
62
5
10
97.500000
20
300.500000
11
97.500000
21
293.000000
0
POLYLINE
5
159
100
AcDbEntity
8
1
6
CONTINUOUS
62
5
100
AcDb2dPolyline
66
1
10
0.0
20
0.0
30
0.0
70
0
0
VERTEX
5
15a
100
AcDbEntity
8
1
100
AcDbVertex
100
AcDb2dVertex
62
5
10
97.500000
20
300.500000
0
VERTEX
5
15b
100
AcDbEntity
8
1
100
AcDbVertex
100
AcDb2dVertex
62
5
10
98.750000
20
300.500000
0
VERTEX
5
15c
100
AcDbEntity
8
1
100
AcDbVertex
100
AcDb2dVertex
62
5
10
99.687500
20
300.187500
0
VERTEX
5
15d
100
AcDbEntity
8
1
100
AcDbVertex
100
AcDb2dVertex
62
5
10
100.312500
20
299.562500
0
VERTEX
5
15e
100
AcDbEntity
8
1
100
AcDbVertex
100
AcDb2dVertex
62
5
10
100.625000
20
298.937500
0
VERTEX
5
15f
100
AcDbEntity
8
1
100
AcDbVertex
100
AcDb2dVertex
62
5
10
100.625000
20
298.000000
0
VERTEX
5
160
100
AcDbEntity
8
1
100
AcDbVertex
100
AcDb2dVertex
62
5
10
100.312500
20
297.375000
0
VERTEX
5
161
100
AcDbEntity
8
1
100
AcDbVertex
100
AcDb2dVertex
62
5
10
99.687500
20
296.750000
0
VERTEX
5
162
100
AcDbEntity
8
1
100
AcDbVertex
100
AcDb2dVertex
62
5
10
98.750000
20
296.437500
0
VERTEX
5
163
100
AcDbEntity
8
1
100
AcDbVertex
100
AcDb2dVertex
62
5
10
97.500000
20
296.437500
0
SEQEND
5
164
100
AcDbEntity
8
1
0
POLYLINE
5
165
100
AcDbEntity
8
1
6
CONTINUOUS
62
5
100
AcDb2dPolyline
66
1
10
0.0
20
0.0
30
0.0
70
0
0
VERTEX
5
166
100
AcDbEntity
8
1
100
AcDbVertex
100
AcDb2dVertex
62
5
10
102.187500
20
300.500000
0
VERTEX
5
167
100
AcDbEntity
8
1
100
AcDbVertex
100
AcDb2dVertex
62
5
10
103.125000
20
293.000000
0
VERTEX
5
168
100
AcDbEntity
8
1
100
AcDbVertex
100
AcDb2dVertex
62
5
10
104.062500
20
300.500000
0
VERTEX
5
169
100
AcDbEntity
8
1
100
AcDbVertex
100
AcDb2dVertex
62
5
10
105.000000
20
293.000000
0
VERTEX
5
16a
100
AcDbEntity
8
1
100
AcDbVertex
100
AcDb2dVertex
62
5
10
105.937500
20
300.500000
0
SEQEND
5
16b
100
AcDbEntity
8
1
0
POLYLINE
5
16c
100
AcDbEntity
8
1
6
CONTINUOUS
62
5
100
AcDb2dPolyline
66
1
10
0.0
20
0.0
30
0.0
70
0
0
VERTEX
5
16d
100
AcDbEntity
8
1
100
AcDbVertex
100
AcDb2dVertex
62
5
10
73.750000
20
346.750000
0
VERTEX
5
16e
100
AcDbEntity
8
1
100
AcDbVertex
100
AcDb2dVertex
62
5
10
71.750000
20
344.750000
0
VERTEX
5
16f
100
AcDbEntity
8
1
100
AcDbVertex
100
AcDb2dVertex
62
5
10
69.500000
20
343.500000
0
SEQEND
5
170
100
AcDbEntity
8
1
0
LINE
5
171
100
AcDbEntity
8
1
100
AcDbLine
6
CONTINUOUS
62
5
10
72.250000
20
345.250000
11
72.250000
21
341.000000
0
POLYLINE
5
172
100
AcDbEntity
8
1
6
CONTINUOUS
62
5
100
AcDb2dPolyline
66
1
10
0.0
20
0.0
30
0.0
70
0
0
VERTEX
5
173
100
AcDbEntity
8
1
100
AcDbVertex
100
AcDb2dVertex
62
5
10
78.500000
20
346.250000
0
VERTEX
5
174
100
AcDbEntity
8
1
100
AcDbVertex
100
AcDb2dVertex
62
5
10
78.500000
20
344.750000
0
VERTEX
5
175
100
AcDbEntity
8
1
100
AcDbVertex
100
AcDb2dVertex
62
5
10
78.250000
20
343.500000
0
VERTEX
5
176
100
AcDbEntity
8
1
100
AcDbVertex
100
AcDb2dVertex
62
5
10
77.750000
20
342.500000
0
VERTEX
5
177
100
AcDbEntity
8
1
100
AcDbVertex
100
AcDb2dVertex
62
5
10
77.000000
20
341.500000
0
VERTEX
5
178
100
AcDbEntity
8
1
100
AcDbVertex
100
AcDb2dVertex
62
5
10
76.750000
20
341.250000
0
SEQEND
5
179
100
AcDbEntity
8
1
0
POLYLINE
5
17a
100
AcDbEntity
8
1
6
CONTINUOUS
62
5
100
AcDb2dPolyline
66
1
10
0.0
20
0.0
30
0.0
70
0
0
VERTEX
5
17b
100
AcDbEntity
8
1
100
AcDbVertex
100
AcDb2dVertex
62
5
10
80.000000
20
346.500000
0
VERTEX
5
17c
100
AcDbEntity
8
1
100
AcDbVertex
100
AcDb2dVertex
62
5
10
80.000000
20
341.500000
0
VERTEX
5
17d
100
AcDbEntity
8
1
100
AcDbVertex
100
AcDb2dVertex
62
5
10
80.750000
20
341.750000
0
VERTEX
5
17e
100
AcDbEntity
8
1
100
AcDbVertex
100
AcDb2dVertex
62
5
10
81.750000
20
342.500000
0
VERTEX
5
17f
100
AcDbEntity
8
1
100
AcDbVertex
100
AcDb2dVertex
62
5
10
82.500000
20
343.250000
0
VERTEX
5
180
100
AcDbEntity
8
1
100
AcDbVertex
100
AcDb2dVertex
62
5
10
83.000000
20
344.000000
0
SEQEND
5
181
100
AcDbEntity
8
1
0
POLYLINE
5
182
100
AcDbEntity
8
1
6
CONTINUOUS
62
5
100
AcDb2dPolyline
66
1
10
0.0
20
0.0
30
0.0
70
0
0
VERTEX
5
183
100
AcDbEntity
8
1
100
AcDbVertex
100
AcDb2dVertex
62
5
10
60.750000
20
345.250000
0
VERTEX
5
184
100
AcDbEntity
8
1
100
AcDbVertex
100
AcDb2dVertex
62
5
10
65.750000
20
345.500000
0
VERTEX
5
185
100
AcDbEntity
8
1
100
AcDbVertex
100
AcDb2dVertex
62
5
10
66.250000
20
345.000000
0
VERTEX
5
186
100
AcDbEntity
8
1
100
AcDbVertex
100
AcDb2dVertex
62
5
10
65.000000
20
343.750000
0
VERTEX
5
187
100
AcDbEntity
8
1
100
AcDbVertex
100
AcDb2dVertex
62
5
10
63.750000
20
342.500000
0
SEQEND
5
188
100
AcDbEntity
8
1
0
POLYLINE
5
189
100
AcDbEntity
8
1
6
CONTINUOUS
62
5
100
AcDb2dPolyline
66
1
10
0.0
20
0.0
30
0.0
70
0
0
VERTEX
5
18a
100
AcDbEntity
8
1
100
AcDbVertex
100
AcDb2dVertex
62
5
10
62.500000
20
343.500000
0
VERTEX
5
18b
100
AcDbEntity
8
1
100
AcDbVertex
100
AcDb2dVertex
62
5
10
63.750000
20
342.500000
0
VERTEX
5
18c
100
AcDbEntity
8
1
100
AcDbVertex
100
AcDb2dVertex
62
5
10
64.250000
20
341.750000
0
SEQEND
5
18d
100
AcDbEntity
8
1
0
POLYLINE
5
18e
100
AcDbEntity
8
1
6
CONTINUOUS
62
5
100
AcDb2dPolyline
66
1
10
0.0
20
0.0
30
0.0
70
0
0
VERTEX
5
18f
100
AcDbEntity
8
1
100
AcDbVertex
100
AcDb2dVertex
62
5
10
76.750000
20
326.500000
0
VERTEX
5
190
100
AcDbEntity
8
1
100
AcDbVertex
100
AcDb2dVertex
62
5
10
76.750000
20
321.187500
0
VERTEX
5
191
100
AcDbEntity
8
1
100
AcDbVertex
100
AcDb2dVertex
62
5
10
77.250000
20
320.562500
0
VERTEX
5
192
100
AcDbEntity
8
1
100
AcDbVertex
100
AcDb2dVertex
62
5
10
80.750000
20
320.562500
0
SEQEND
5
193
100
AcDbEntity
8
1
0
LINE
5
194
100
AcDbEntity
8
1
100
AcDbLine
6
CONTINUOUS
62
5
10
80.250000
20
324.625000
11
76.750000
21
323.687500
0
POLYLINE
5
195
100
AcDbEntity
8
1
6
CONTINUOUS
62
5
100
AcDb2dPolyline
66
1
10
0.0
20
0.0
30
0.0
70
1
0
VERTEX
5
196
100
AcDbEntity
8
1
100
AcDbVertex
100
AcDb2dVertex
62
5
10
80.250000
20
326.500000
0
VERTEX
5
197
100
AcDbEntity
8
1
100
AcDbVertex
100
AcDb2dVertex
62
5
10
80.750000
20
327.125000
0
VERTEX
5
198
100
AcDbEntity
8
1
100
AcDbVertex
100
AcDb2dVertex
62
5
10
81.000000
20
327.125000
0
VERTEX
5
199
100
AcDbEntity
8
1
100
AcDbVertex
100
AcDb2dVertex
62
5
10
81.500000
20
326.500000
0
VERTEX
5
19a
100
AcDbEntity
8
1
100
AcDbVertex
100
AcDb2dVertex
62
5
10
81.500000
20
326.187500
0
VERTEX
5
19b
100
AcDbEntity
8
1
100
AcDbVertex
100
AcDb2dVertex
62
5
10
81.000000
20
325.562500
0
VERTEX
5
19c
100
AcDbEntity
8
1
100
AcDbVertex
100
AcDb2dVertex
62
5
10
80.750000
20
325.562500
0
VERTEX
5
19d
100
AcDbEntity
8
1
100
AcDbVertex
100
AcDb2dVertex
62
5
10
80.250000
20
326.187500
0
VERTEX
5
19e
100
AcDbEntity
8
1
100
AcDbVertex
100
AcDb2dVertex
62
5
10
80.250000
20
326.500000
0
SEQEND
5
19f
100
AcDbEntity
8
1
0
POLYLINE
5
1a0
100
AcDbEntity
8
1
6
CONTINUOUS
62
5
100
AcDb2dPolyline
66
1
10
0.0
20
0.0
30
0.0
70
0
0
VERTEX
5
1a1
100
AcDbEntity
8
1
100
AcDbVertex
100
AcDb2dVertex
62
5
10
76.000000
20
335.562500
0
VERTEX
5
1a2
100
AcDbEntity
8
1
100
AcDbVertex
100
AcDb2dVertex
62
5
10
76.250000
20
337.125000
0
VERTEX
5
1a3
100
AcDbEntity
8
1
100
AcDbVertex
100
AcDb2dVertex
62
5
10
77.000000
20
337.750000
0
VERTEX
5
1a4
100
AcDbEntity
8
1
100
AcDbVertex
100
AcDb2dVertex
62
5
10
77.750000
20
337.750000
0
VERTEX
5
1a5
100
AcDbEntity
8
1
100
AcDbVertex
100
AcDb2dVertex
62
5
10
78.250000
20
337.437500
0
VERTEX
5
1a6
100
AcDbEntity
8
1
100
AcDbVertex
100
AcDb2dVertex
62
5
10
78.500000
20
336.500000
0
VERTEX
5
1a7
100
AcDbEntity
8
1
100
AcDbVertex
100
AcDb2dVertex
62
5
10
78.500000
20
335.562500
0
VERTEX
5
1a8
100
AcDbEntity
8
1
100
AcDbVertex
100
AcDb2dVertex
62
5
10
78.250000
20
334.625000
0
VERTEX
5
1a9
100
AcDbEntity
8
1
100
AcDbVertex
100
AcDb2dVertex
62
5
10
76.000000
20
330.250000
0
VERTEX
5
1aa
100
AcDbEntity
8
1
100
AcDbVertex
100
AcDb2dVertex
62
5
10
78.500000
20
330.250000
0
VERTEX
5
1ab
100
AcDbEntity
8
1
100
AcDbVertex
100
AcDb2dVertex
62
5
10
78.500000
20
331.187500
0
SEQEND
5
1ac
100
AcDbEntity
8
1
0
LINE
5
1ad
100
AcDbEntity
8
1
100
AcDbLine
6
CONTINUOUS
62
5
10
50.000000
20
350.000000
11
50.000000
21
318.000000
0
LINE
5
1ae
100
AcDbEntity
8
1
100
AcDbLine
6
CONTINUOUS
62
5
10
50.000000
20
350.000000
11
50.000000
21
318.000000
0
LINE
5
1af
100
AcDbEntity
8
1
100
AcDbLine
6
CONTINUOUS
62
5
10
77.500000
20
296.750000
11
80.625000
21
296.750000
0
LINE
5
1b0
100
AcDbEntity
8
1
100
AcDbLine
6
CONTINUOUS
62
5
10
62.500000
20
300.500000
11
62.500000
21
293.000000
0
LINE
5
1b1
100
AcDbEntity
8
1
100
AcDbLine
6
CONTINUOUS
62
5
10
62.500000
20
296.750000
11
65.312500
21
296.750000
0
LINE
5
1b2
100
AcDbEntity
8
1
100
AcDbLine
6
CONTINUOUS
62
5
10
65.312500
20
300.500000
11
65.312500
21
293.000000
0
LINE
5
1b3
100
AcDbEntity
8
1
100
AcDbLine
6
CONTINUOUS
62
5
10
67.500000
20
300.500000
11
67.500000
21
293.000000
0
POLYLINE
5
1b4
100
AcDbEntity
8
1
6
CONTINUOUS
62
5
100
AcDb2dPolyline
66
1
10
0.0
20
0.0
30
0.0
70
0
0
VERTEX
5
1b5
100
AcDbEntity
8
1
100
AcDbVertex
100
AcDb2dVertex
62
5
10
67.500000
20
300.500000
0
VERTEX
5
1b6
100
AcDbEntity
8
1
100
AcDbVertex
100
AcDb2dVertex
62
5
10
69.062500
20
300.500000
0
VERTEX
5
1b7
100
AcDbEntity
8
1
100
AcDbVertex
100
AcDb2dVertex
62
5
10
69.687500
20
300.187500
0
VERTEX
5
1b8
100
AcDbEntity
8
1
100
AcDbVertex
100
AcDb2dVertex
62
5
10
70.000000
20
299.875000
0
VERTEX
5
1b9
100
AcDbEntity
8
1
100
AcDbVertex
100
AcDb2dVertex
62
5
10
70.312500
20
299.250000
0
VERTEX
5
1ba
100
AcDbEntity
8
1
100
AcDbVertex
100
AcDb2dVertex
62
5
10
70.312500
20
298.312500
0
VERTEX
5
1bb
100
AcDbEntity
8
1
100
AcDbVertex
100
AcDb2dVertex
62
5
10
70.000000
20
297.687500
0
VERTEX
5
1bc
100
AcDbEntity
8
1
100
AcDbVertex
100
AcDb2dVertex
62
5
10
69.687500
20
297.375000
0
VERTEX
5
1bd
100
AcDbEntity
8
1
100
AcDbVertex
100
AcDb2dVertex
62
5
10
69.062500
20
297.062500
0
VERTEX
5
1be
100
AcDbEntity
8
1
100
AcDbVertex
100
AcDb2dVertex
62
5
10
67.500000
20
297.062500
0
SEQEND
5
1bf
100
AcDbEntity
8
1
0
POLYLINE
5
1c0
100
AcDbEntity
8
1
6
CONTINUOUS
62
5
100
AcDb2dPolyline
66
1
10
0.0
20
0.0
30
0.0
70
0
0
VERTEX
5
1c1
100
AcDbEntity
8
1
100
AcDbVertex
100
AcDb2dVertex
62
5
10
69.062500
20
297.062500
0
VERTEX
5
1c2
100
AcDbEntity
8
1
100
AcDbVertex
100
AcDb2dVertex
62
5
10
69.687500
20
296.750000
0
VERTEX
5
1c3
100
AcDbEntity
8
1
100
AcDbVertex
100
AcDb2dVertex
62
5
10
70.312500
20
296.125000
0
VERTEX
5
1c4
100
AcDbEntity
8
1
100
AcDbVertex
100
AcDb2dVertex
62
5
10
70.625000
20
295.500000
0
VERTEX
5
1c5
100
AcDbEntity
8
1
100
AcDbVertex
100
AcDb2dVertex
62
5
10
70.625000
20
294.250000
0
VERTEX
5
1c6
100
AcDbEntity
8
1
100
AcDbVertex
100
AcDb2dVertex
62
5
10
70.312500
20
293.625000
0
VERTEX
5
1c7
100
AcDbEntity
8
1
100
AcDbVertex
100
AcDb2dVertex
62
5
10
70.000000
20
293.312500
0
VERTEX
5
1c8
100
AcDbEntity
8
1
100
AcDbVertex
100
AcDb2dVertex
62
5
10
69.375000
20
293.000000
0
VERTEX
5
1c9
100
AcDbEntity
8
1
100
AcDbVertex
100
AcDb2dVertex
62
5
10
67.500000
20
293.000000
0
SEQEND
5
1ca
100
AcDbEntity
8
1
0
LINE
5
1cb
100
AcDbEntity
8
1
100
AcDbLine
6
CONTINUOUS
62
5
10
72.500000
20
300.500000
11
72.500000
21
293.000000
0
POLYLINE
5
1cc
100
AcDbEntity
8
1
6
CONTINUOUS
62
5
100
AcDb2dPolyline
66
1
10
0.0
20
0.0
30
0.0
70
0
0
VERTEX
5
1cd
100
AcDbEntity
8
1
100
AcDbVertex
100
AcDb2dVertex
62
5
10
72.500000
20
300.500000
0
VERTEX
5
1ce
100
AcDbEntity
8
1
100
AcDbVertex
100
AcDb2dVertex
62
5
10
73.750000
20
300.500000
0
VERTEX
5
1cf
100
AcDbEntity
8
1
100
AcDbVertex
100
AcDb2dVertex
62
5
10
74.687500
20
300.187500
0
VERTEX
5
1d0
100
AcDbEntity
8
1
100
AcDbVertex
100
AcDb2dVertex
62
5
10
75.312500
20
299.562500
0
VERTEX
5
1d1
100
AcDbEntity
8
1
100
AcDbVertex
100
AcDb2dVertex
62
5
10
75.625000
20
298.937500
0
VERTEX
5
1d2
100
AcDbEntity
8
1
100
AcDbVertex
100
AcDb2dVertex
62
5
10
75.625000
20
298.000000
0
VERTEX
5
1d3
100
AcDbEntity
8
1
100
AcDbVertex
100
AcDb2dVertex
62
5
10
75.312500
20
297.375000
0
VERTEX
5
1d4
100
AcDbEntity
8
1
100
AcDbVertex
100
AcDb2dVertex
62
5
10
74.687500
20
296.750000
0
VERTEX
5
1d5
100
AcDbEntity
8
1
100
AcDbVertex
100
AcDb2dVertex
62
5
10
73.750000
20
296.437500
0
VERTEX
5
1d6
100
AcDbEntity
8
1
100
AcDbVertex
100
AcDb2dVertex
62
5
10
72.500000
20
296.437500
0
SEQEND
5
1d7
100
AcDbEntity
8
1
0
POLYLINE
5
1d8
100
AcDbEntity
8
1
6
CONTINUOUS
62
5
100
AcDb2dPolyline
66
1
10
0.0
20
0.0
30
0.0
70
0
0
VERTEX
5
1d9
100
AcDbEntity
8
1
100
AcDbVertex
100
AcDb2dVertex
62
5
10
80.750000
20
336.500000
0
VERTEX
5
1da
100
AcDbEntity
8
1
100
AcDbVertex
100
AcDb2dVertex
62
5
10
80.750000
20
331.187500
0
VERTEX
5
1db
100
AcDbEntity
8
1
100
AcDbVertex
100
AcDb2dVertex
62
5
10
81.250000
20
330.562500
0
VERTEX
5
1dc
100
AcDbEntity
8
1
100
AcDbVertex
100
AcDb2dVertex
62
5
10
84.750000
20
330.562500
0
SEQEND
5
1dd
100
AcDbEntity
8
1
0
LINE
5
1de
100
AcDbEntity
8
1
100
AcDbLine
6
CONTINUOUS
62
5
10
84.250000
20
334.625000
11
80.750000
21
333.687500
0
POLYLINE
5
1df
100
AcDbEntity
8
1
6
CONTINUOUS
62
5
100
AcDb2dPolyline
66
1
10
0.0
20
0.0
30
0.0
70
1
0
VERTEX
5
1e0
100
AcDbEntity
8
1
100
AcDbVertex
100
AcDb2dVertex
62
5
10
84.250000
20
336.500000
0
VERTEX
5
1e1
100
AcDbEntity
8
1
100
AcDbVertex
100
AcDb2dVertex
62
5
10
84.750000
20
337.125000
0
VERTEX
5
1e2
100
AcDbEntity
8
1
100
AcDbVertex
100
AcDb2dVertex
62
5
10
85.000000
20
337.125000
0
VERTEX
5
1e3
100
AcDbEntity
8
1
100
AcDbVertex
100
AcDb2dVertex
62
5
10
85.500000
20
336.500000
0
VERTEX
5
1e4
100
AcDbEntity
8
1
100
AcDbVertex
100
AcDb2dVertex
62
5
10
85.500000
20
336.187500
0
VERTEX
5
1e5
100
AcDbEntity
8
1
100
AcDbVertex
100
AcDb2dVertex
62
5
10
85.000000
20
335.562500
0
VERTEX
5
1e6
100
AcDbEntity
8
1
100
AcDbVertex
100
AcDb2dVertex
62
5
10
84.750000
20
335.562500
0
VERTEX
5
1e7
100
AcDbEntity
8
1
100
AcDbVertex
100
AcDb2dVertex
62
5
10
84.250000
20
336.187500
0
VERTEX
5
1e8
100
AcDbEntity
8
1
100
AcDbVertex
100
AcDb2dVertex
62
5
10
84.250000
20
336.500000
0
SEQEND
5
1e9
100
AcDbEntity
8
1
0
POLYLINE
5
1ea
100
AcDbEntity
8
1
6
CONTINUOUS
62
5
100
AcDb2dPolyline
66
1
10
0.0
20
0.0
30
0.0
70
0
0
VERTEX
5
1eb
100
AcDbEntity
8
1
100
AcDbVertex
100
AcDb2dVertex
62
5
10
82.500000
20
298.625000
0
VERTEX
5
1ec
100
AcDbEntity
8
1
100
AcDbVertex
100
AcDb2dVertex
62
5
10
82.812500
20
299.875000
0
VERTEX
5
1ed
100
AcDbEntity
8
1
100
AcDbVertex
100
AcDb2dVertex
62
5
10
83.437500
20
300.500000
0
VERTEX
5
1ee
100
AcDbEntity
8
1
100
AcDbVertex
100
AcDb2dVertex
62
5
10
84.375000
20
300.500000
0
VERTEX
5
1ef
100
AcDbEntity
8
1
100
AcDbVertex
100
AcDb2dVertex
62
5
10
85.000000
20
300.187500
0
VERTEX
5
1f0
100
AcDbEntity
8
1
100
AcDbVertex
100
AcDb2dVertex
62
5
10
85.312500
20
299.250000
0
VERTEX
5
1f1
100
AcDbEntity
8
1
100
AcDbVertex
100
AcDb2dVertex
62
5
10
85.312500
20
298.000000
0
VERTEX
5
1f2
100
AcDbEntity
8
1
100
AcDbVertex
100
AcDb2dVertex
62
5
10
85.000000
20
297.375000
0
VERTEX
5
1f3
100
AcDbEntity
8
1
100
AcDbVertex
100
AcDb2dVertex
62
5
10
84.375000
20
296.750000
0
VERTEX
5
1f4
100
AcDbEntity
8
1
100
AcDbVertex
100
AcDb2dVertex
62
5
10
83.437500
20
296.750000
0
SEQEND
5
1f5
100
AcDbEntity
8
1
0
POLYLINE
5
1f6
100
AcDbEntity
8
1
6
CONTINUOUS
62
5
100
AcDb2dPolyline
66
1
10
0.0
20
0.0
30
0.0
70
0
0
VERTEX
5
1f7
100
AcDbEntity
8
1
100
AcDbVertex
100
AcDb2dVertex
62
5
10
84.375000
20
296.750000
0
VERTEX
5
1f8
100
AcDbEntity
8
1
100
AcDbVertex
100
AcDb2dVertex
62
5
10
85.312500
20
296.125000
0
VERTEX
5
1f9
100
AcDbEntity
8
1
100
AcDbVertex
100
AcDb2dVertex
62
5
10
85.625000
20
295.187500
0
VERTEX
5
1fa
100
AcDbEntity
8
1
100
AcDbVertex
100
AcDb2dVertex
62
5
10
85.625000
20
294.250000
0
VERTEX
5
1fb
100
AcDbEntity
8
1
100
AcDbVertex
100
AcDb2dVertex
62
5
10
85.312500
20
293.625000
0
VERTEX
5
1fc
100
AcDbEntity
8
1
100
AcDbVertex
100
AcDb2dVertex
62
5
10
84.375000
20
293.000000
0
VERTEX
5
1fd
100
AcDbEntity
8
1
100
AcDbVertex
100
AcDb2dVertex
62
5
10
83.437500
20
293.000000
0
VERTEX
5
1fe
100
AcDbEntity
8
1
100
AcDbVertex
100
AcDb2dVertex
62
5
10
82.812500
20
293.312500
0
VERTEX
5
1ff
100
AcDbEntity
8
1
100
AcDbVertex
100
AcDb2dVertex
62
5
10
82.187500
20
294.250000
0
SEQEND
5
200
100
AcDbEntity
8
1
0
POLYLINE
5
201
100
AcDbEntity
8
1
6
CONTINUOUS
62
5
100
AcDb2dPolyline
66
1
10
0.0
20
0.0
30
0.0
70
0
0
VERTEX
5
202
100
AcDbEntity
8
1
100
AcDbVertex
100
AcDb2dVertex
62
5
10
85.500000
20
324.312500
0
VERTEX
5
203
100
AcDbEntity
8
1
100
AcDbVertex
100
AcDb2dVertex
62
5
10
87.500000
20
324.312500
0
VERTEX
5
204
100
AcDbEntity
8
1
100
AcDbVertex
100
AcDb2dVertex
62
5
10
87.250000
20
321.187500
0
SEQEND
5
205
100
AcDbEntity
8
1
0
LINE
5
206
100
AcDbEntity
8
1
100
AcDbLine
6
CONTINUOUS
62
5
10
84.750000
20
321.187500
11
89.000000
21
321.187500
0
POLYLINE
5
207
100
AcDbEntity
8
1
6
DOT2
62
5
100
AcDb2dPolyline
66
1
10
0.0
20
0.0
30
0.0
70
0
0
VERTEX
5
208
100
AcDbEntity
8
1
100
AcDbVertex
100
AcDb2dVertex
62
5
10
135.250000
20
252.812500
0
VERTEX
5
209
100
AcDbEntity
8
1
100
AcDbVertex
100
AcDb2dVertex
62
5
10
135.250000
20
253.750000
0
VERTEX
5
20a
100
AcDbEntity
8
1
100
AcDbVertex
100
AcDb2dVertex
62
5
10
138.375000
20
253.750000
0
VERTEX
5
20b
100
AcDbEntity
8
1
100
AcDbVertex
100
AcDb2dVertex
62
5
10
138.375000
20
253.125000
0
VERTEX
5
20c
100
AcDbEntity
8
1
100
AcDbVertex
100
AcDb2dVertex
62
5
10
137.750000
20
251.562500
0
VERTEX
5
20d
100
AcDbEntity
8
1
100
AcDbVertex
100
AcDb2dVertex
62
5
10
137.125000
20
249.375000
0
VERTEX
5
20e
100
AcDbEntity
8
1
100
AcDbVertex
100
AcDb2dVertex
62
5
10
136.500000
20
246.250000
0
SEQEND
5
20f
100
AcDbEntity
8
1
0
POLYLINE
5
210
100
AcDbEntity
8
1
6
DOT2
62
5
100
AcDb2dPolyline
66
1
10
0.0
20
0.0
30
0.0
70
1
0
VERTEX
5
211
100
AcDbEntity
8
1
100
AcDbVertex
100
AcDb2dVertex
62
5
10
141.500000
20
253.750000
0
VERTEX
5
212
100
AcDbEntity
8
1
100
AcDbVertex
100
AcDb2dVertex
62
5
10
142.125000
20
253.750000
0
VERTEX
5
213
100
AcDbEntity
8
1
100
AcDbVertex
100
AcDb2dVertex
62
5
10
142.437500
20
253.437500
0
VERTEX
5
214
100
AcDbEntity
8
1
100
AcDbVertex
100
AcDb2dVertex
62
5
10
143.062500
20
252.187500
0
VERTEX
5
215
100
AcDbEntity
8
1
100
AcDbVertex
100
AcDb2dVertex
62
5
10
143.375000
20
250.937500
0
VERTEX
5
216
100
AcDbEntity
8
1
100
AcDbVertex
100
AcDb2dVertex
62
5
10
143.375000
20
249.062500
0
VERTEX
5
217
100
AcDbEntity
8
1
100
AcDbVertex
100
AcDb2dVertex
62
5
10
143.062500
20
247.812500
0
VERTEX
5
218
100
AcDbEntity
8
1
100
AcDbVertex
100
AcDb2dVertex
62
5
10
142.437500
20
246.562500
0
VERTEX
5
219
100
AcDbEntity
8
1
100
AcDbVertex
100
AcDb2dVertex
62
5
10
142.125000
20
246.250000
0
VERTEX
5
21a
100
AcDbEntity
8
1
100
AcDbVertex
100
AcDb2dVertex
62
5
10
141.500000
20
246.250000
0
VERTEX
5
21b
100
AcDbEntity
8
1
100
AcDbVertex
100
AcDb2dVertex
62
5
10
141.187500
20
246.562500
0
VERTEX
5
21c
100
AcDbEntity
8
1
100
AcDbVertex
100
AcDb2dVertex
62
5
10
140.562500
20
247.812500
0
VERTEX
5
21d
100
AcDbEntity
8
1
100
AcDbVertex
100
AcDb2dVertex
62
5
10
140.250000
20
249.062500
0
VERTEX
5
21e
100
AcDbEntity
8
1
100
AcDbVertex
100
AcDb2dVertex
62
5
10
140.250000
20
250.937500
0
VERTEX
5
21f
100
AcDbEntity
8
1
100
AcDbVertex
100
AcDb2dVertex
62
5
10
140.562500
20
252.187500
0
VERTEX
5
220
100
AcDbEntity
8
1
100
AcDbVertex
100
AcDb2dVertex
62
5
10
141.187500
20
253.437500
0
VERTEX
5
221
100
AcDbEntity
8
1
100
AcDbVertex
100
AcDb2dVertex
62
5
10
141.500000
20
253.750000
0
SEQEND
5
222
100
AcDbEntity
8
1
0
LINE
5
223
100
AcDbEntity
8
1
100
AcDbLine
6
CONTINUOUS
62
5
10
104.000000
20
214.500000
11
104.000000
21
247.000000
0
LINE
5
224
100
AcDbEntity
8
1
100
AcDbLine
6
CONTINUOUS
62
5
10
174.000000
20
214.500000
11
174.000000
21
247.000000
0
POLYLINE
5
225
100
AcDbEntity
8
1
6
CONTINUOUS
62
5
100
AcDb2dPolyline
66
1
10
0.0
20
0.0
30
0.0
70
0
0
VERTEX
5
226
100
AcDbEntity
8
1
100
AcDbVertex
100
AcDb2dVertex
62
5
10
139.000000
20
245.000000
0
VERTEX
5
227
100
AcDbEntity
8
1
100
AcDbVertex
100
AcDb2dVertex
62
5
10
104.000000
20
245.000000
0
VERTEX
5
228
100
AcDbEntity
8
1
100
AcDbVertex
100
AcDb2dVertex
62
5
10
110.000000
20
246.000000
0
VERTEX
5
229
100
AcDbEntity
8
1
100
AcDbVertex
100
AcDb2dVertex
62
5
10
110.000000
20
244.000000
0
VERTEX
5
22a
100
AcDbEntity
8
1
100
AcDbVertex
100
AcDb2dVertex
62
5
10
104.000000
20
245.000000
0
VERTEX
5
22b
100
AcDbEntity
8
1
100
AcDbVertex
100
AcDb2dVertex
62
5
10
110.000000
20
245.500000
0
VERTEX
5
22c
100
AcDbEntity
8
1
100
AcDbVertex
100
AcDb2dVertex
62
5
10
110.000000
20
244.500000
0
VERTEX
5
22d
100
AcDbEntity
8
1
100
AcDbVertex
100
AcDb2dVertex
62
5
10
104.000000
20
245.000000
0
SEQEND
5
22e
100
AcDbEntity
8
1
0
POLYLINE
5
22f
100
AcDbEntity
8
1
6
CONTINUOUS
62
5
100
AcDb2dPolyline
66
1
10
0.0
20
0.0
30
0.0
70
0
0
VERTEX
5
230
100
AcDbEntity
8
1
100
AcDbVertex
100
AcDb2dVertex
62
5
10
139.000000
20
245.000000
0
VERTEX
5
231
100
AcDbEntity
8
1
100
AcDbVertex
100
AcDb2dVertex
62
5
10
174.000000
20
245.000000
0
VERTEX
5
232
100
AcDbEntity
8
1
100
AcDbVertex
100
AcDb2dVertex
62
5
10
168.000000
20
244.000000
0
VERTEX
5
233
100
AcDbEntity
8
1
100
AcDbVertex
100
AcDb2dVertex
62
5
10
168.000000
20
246.000000
0
VERTEX
5
234
100
AcDbEntity
8
1
100
AcDbVertex
100
AcDb2dVertex
62
5
10
174.000000
20
245.000000
0
VERTEX
5
235
100
AcDbEntity
8
1
100
AcDbVertex
100
AcDb2dVertex
62
5
10
168.000000
20
244.500000
0
VERTEX
5
236
100
AcDbEntity
8
1
100
AcDbVertex
100
AcDb2dVertex
62
5
10
168.000000
20
245.500000
0
VERTEX
5
237
100
AcDbEntity
8
1
100
AcDbVertex
100
AcDb2dVertex
62
5
10
174.000000
20
245.000000
0
SEQEND
5
238
100
AcDbEntity
8
1
0
LINE
5
239
100
AcDbEntity
8
1
100
AcDbLine
6
CONTINUOUS
62
5
10
10.000000
20
318.000000
11
330.000000
21
318.000000
0
LINE
5
23a
100
AcDbEntity
8
1
100
AcDbLine
6
CONTINUOUS
62
5
10
10.000000
20
318.000000
11
330.000000
21
318.000000
0
POLYLINE
5
23b
100
AcDbEntity
8
1
6
DOT2
62
5
100
AcDb2dPolyline
66
1
10
0.0
20
0.0
30
0.0
70
0
0
VERTEX
5
23c
100
AcDbEntity
8
1
100
AcDbVertex
100
AcDb2dVertex
62
5
10
72.437500
20
158.750000
0
VERTEX
5
23d
100
AcDbEntity
8
1
100
AcDbVertex
100
AcDb2dVertex
62
5
10
70.875000
20
159.062500
0
VERTEX
5
23e
100
AcDbEntity
8
1
100
AcDbVertex
100
AcDb2dVertex
62
5
10
70.250000
20
160.000000
0
VERTEX
5
23f
100
AcDbEntity
8
1
100
AcDbVertex
100
AcDb2dVertex
62
5
10
70.250000
20
160.937500
0
VERTEX
5
240
100
AcDbEntity
8
1
100
AcDbVertex
100
AcDb2dVertex
62
5
10
70.562500
20
161.562500
0
VERTEX
5
241
100
AcDbEntity
8
1
100
AcDbVertex
100
AcDb2dVertex
62
5
10
71.500000
20
161.875000
0
VERTEX
5
242
100
AcDbEntity
8
1
100
AcDbVertex
100
AcDb2dVertex
62
5
10
72.437500
20
161.875000
0
VERTEX
5
243
100
AcDbEntity
8
1
100
AcDbVertex
100
AcDb2dVertex
62
5
10
73.375000
20
161.562500
0
VERTEX
5
244
100
AcDbEntity
8
1
100
AcDbVertex
100
AcDb2dVertex
62
5
10
77.750000
20
158.750000
0
VERTEX
5
245
100
AcDbEntity
8
1
100
AcDbVertex
100
AcDb2dVertex
62
5
10
77.750000
20
161.875000
0
VERTEX
5
246
100
AcDbEntity
8
1
100
AcDbVertex
100
AcDb2dVertex
62
5
10
76.812500
20
161.875000
0
SEQEND
5
247
100
AcDbEntity
8
1
0
POLYLINE
5
248
100
AcDbEntity
8
1
6
DOT2
62
5
100
AcDb2dPolyline
66
1
10
0.0
20
0.0
30
0.0
70
1
0
VERTEX
5
249
100
AcDbEntity
8
1
100
AcDbVertex
100
AcDb2dVertex
62
5
10
70.250000
20
165.000000
0
VERTEX
5
24a
100
AcDbEntity
8
1
100
AcDbVertex
100
AcDb2dVertex
62
5
10
70.250000
20
165.625000
0
VERTEX
5
24b
100
AcDbEntity
8
1
100
AcDbVertex
100
AcDb2dVertex
62
5
10
70.562500
20
165.937500
0
VERTEX
5
24c
100
AcDbEntity
8
1
100
AcDbVertex
100
AcDb2dVertex
62
5
10
71.812500
20
166.562500
0
VERTEX
5
24d
100
AcDbEntity
8
1
100
AcDbVertex
100
AcDb2dVertex
62
5
10
73.062500
20
166.875000
0
VERTEX
5
24e
100
AcDbEntity
8
1
100
AcDbVertex
100
AcDb2dVertex
62
5
10
74.937500
20
166.875000
0
VERTEX
5
24f
100
AcDbEntity
8
1
100
AcDbVertex
100
AcDb2dVertex
62
5
10
76.187500
20
166.562500
0
VERTEX
5
250
100
AcDbEntity
8
1
100
AcDbVertex
100
AcDb2dVertex
62
5
10
77.437500
20
165.937500
0
VERTEX
5
251
100
AcDbEntity
8
1
100
AcDbVertex
100
AcDb2dVertex
62
5
10
77.750000
20
165.625000
0
VERTEX
5
252
100
AcDbEntity
8
1
100
AcDbVertex
100
AcDb2dVertex
62
5
10
77.750000
20
165.000000
0
VERTEX
5
253
100
AcDbEntity
8
1
100
AcDbVertex
100
AcDb2dVertex
62
5
10
77.437500
20
164.687500
0
VERTEX
5
254
100
AcDbEntity
8
1
100
AcDbVertex
100
AcDb2dVertex
62
5
10
76.187500
20
164.062500
0
VERTEX
5
255
100
AcDbEntity
8
1
100
AcDbVertex
100
AcDb2dVertex
62
5
10
74.937500
20
163.750000
0
VERTEX
5
256
100
AcDbEntity
8
1
100
AcDbVertex
100
AcDb2dVertex
62
5
10
73.062500
20
163.750000
0
VERTEX
5
257
100
AcDbEntity
8
1
100
AcDbVertex
100
AcDb2dVertex
62
5
10
71.812500
20
164.062500
0
VERTEX
5
258
100
AcDbEntity
8
1
100
AcDbVertex
100
AcDb2dVertex
62
5
10
70.562500
20
164.687500
0
VERTEX
5
259
100
AcDbEntity
8
1
100
AcDbVertex
100
AcDb2dVertex
62
5
10
70.250000
20
165.000000
0
SEQEND
5
25a
100
AcDbEntity
8
1
0
POLYLINE
5
25b
100
AcDbEntity
8
1
6
DOT2
62
5
100
AcDb2dPolyline
66
1
10
0.0
20
0.0
30
0.0
70
0
0
VERTEX
5
25c
100
AcDbEntity
8
1
100
AcDbVertex
100
AcDb2dVertex
62
5
10
70.875000
20
154.375000
0
VERTEX
5
25d
100
AcDbEntity
8
1
100
AcDbVertex
100
AcDb2dVertex
62
5
10
70.250000
20
155.312500
0
VERTEX
5
25e
100
AcDbEntity
8
1
100
AcDbVertex
100
AcDb2dVertex
62
5
10
77.750000
20
155.312500
0
SEQEND
5
25f
100
AcDbEntity
8
1
0
LINE
5
260
100
AcDbEntity
8
1
100
AcDbLine
6
DOT2
62
5
10
77.750000
20
154.687500
11
77.750000
21
155.937500
0
LINE
5
261
100
AcDbEntity
8
1
100
AcDbLine
6
CONTINUOUS
62
5
10
109.500000
20
220.000000
11
77.000000
21
220.000000
0
LINE
5
262
100
AcDbEntity
8
1
100
AcDbLine
6
CONTINUOUS
62
5
10
109.500000
20
100.000000
11
77.000000
21
100.000000
0
POLYLINE
5
263
100
AcDbEntity
8
1
6
CONTINUOUS
62
5
100
AcDb2dPolyline
66
1
10
0.0
20
0.0
30
0.0
70
0
0
VERTEX
5
264
100
AcDbEntity
8
1
100
AcDbVertex
100
AcDb2dVertex
62
5
10
79.000000
20
160.000000
0
VERTEX
5
265
100
AcDbEntity
8
1
100
AcDbVertex
100
AcDb2dVertex
62
5
10
79.000000
20
100.000000
0
VERTEX
5
266
100
AcDbEntity
8
1
100
AcDbVertex
100
AcDb2dVertex
62
5
10
78.000000
20
106.000000
0
VERTEX
5
267
100
AcDbEntity
8
1
100
AcDbVertex
100
AcDb2dVertex
62
5
10
80.000000
20
106.000000
0
VERTEX
5
268
100
AcDbEntity
8
1
100
AcDbVertex
100
AcDb2dVertex
62
5
10
79.000000
20
100.000000
0
VERTEX
5
269
100
AcDbEntity
8
1
100
AcDbVertex
100
AcDb2dVertex
62
5
10
78.500000
20
106.000000
0
VERTEX
5
26a
100
AcDbEntity
8
1
100
AcDbVertex
100
AcDb2dVertex
62
5
10
79.500000
20
106.000000
0
VERTEX
5
26b
100
AcDbEntity
8
1
100
AcDbVertex
100
AcDb2dVertex
62
5
10
79.000000
20
100.000000
0
SEQEND
5
26c
100
AcDbEntity
8
1
0
POLYLINE
5
26d
100
AcDbEntity
8
1
6
CONTINUOUS
62
5
100
AcDb2dPolyline
66
1
10
0.0
20
0.0
30
0.0
70
0
0
VERTEX
5
26e
100
AcDbEntity
8
1
100
AcDbVertex
100
AcDb2dVertex
62
5
10
79.000000
20
160.000000
0
VERTEX
5
26f
100
AcDbEntity
8
1
100
AcDbVertex
100
AcDb2dVertex
62
5
10
79.000000
20
220.000000
0
VERTEX
5
270
100
AcDbEntity
8
1
100
AcDbVertex
100
AcDb2dVertex
62
5
10
80.000000
20
214.000000
0
VERTEX
5
271
100
AcDbEntity
8
1
100
AcDbVertex
100
AcDb2dVertex
62
5
10
78.000000
20
214.000000
0
VERTEX
5
272
100
AcDbEntity
8
1
100
AcDbVertex
100
AcDb2dVertex
62
5
10
79.000000
20
220.000000
0
VERTEX
5
273
100
AcDbEntity
8
1
100
AcDbVertex
100
AcDb2dVertex
62
5
10
79.500000
20
214.000000
0
VERTEX
5
274
100
AcDbEntity
8
1
100
AcDbVertex
100
AcDb2dVertex
62
5
10
78.500000
20
214.000000
0
VERTEX
5
275
100
AcDbEntity
8
1
100
AcDbVertex
100
AcDb2dVertex
62
5
10
79.000000
20
220.000000
0
SEQEND
5
276
100
AcDbEntity
8
1
0
LINE
5
277
100
AcDbEntity
8
1
100
AcDbLine
6
CONTINUOUS
62
5
10
229.000000
20
161.500000
11
229.000000
21
247.000000
0
LINE
5
278
100
AcDbEntity
8
1
100
AcDbLine
6
CONTINUOUS
62
5
10
236.000000
20
221.500974
11
236.000000
21
247.000000
0
POLYLINE
5
279
100
AcDbEntity
8
1
6
CONTINUOUS
62
5
100
AcDb2dPolyline
66
1
10
0.0
20
0.0
30
0.0
70
0
0
VERTEX
5
27a
100
AcDbEntity
8
1
100
AcDbVertex
100
AcDb2dVertex
62
5
10
252.250000
20
245.000000
0
VERTEX
5
27b
100
AcDbEntity
8
1
100
AcDbVertex
100
AcDb2dVertex
62
5
10
236.000000
20
245.000000
0
VERTEX
5
27c
100
AcDbEntity
8
1
100
AcDbVertex
100
AcDb2dVertex
62
5
10
242.000000
20
246.000000
0
VERTEX
5
27d
100
AcDbEntity
8
1
100
AcDbVertex
100
AcDb2dVertex
62
5
10
242.000000
20
244.000000
0
VERTEX
5
27e
100
AcDbEntity
8
1
100
AcDbVertex
100
AcDb2dVertex
62
5
10
236.000000
20
245.000000
0
VERTEX
5
27f
100
AcDbEntity
8
1
100
AcDbVertex
100
AcDb2dVertex
62
5
10
242.000000
20
245.500000
0
VERTEX
5
280
100
AcDbEntity
8
1
100
AcDbVertex
100
AcDb2dVertex
62
5
10
242.000000
20
244.500000
0
VERTEX
5
281
100
AcDbEntity
8
1
100
AcDbVertex
100
AcDb2dVertex
62
5
10
236.000000
20
245.000000
0
SEQEND
5
282
100
AcDbEntity
8
1
0
LINE
5
283
100
AcDbEntity
8
1
100
AcDbLine
6
CONTINUOUS
62
5
10
236.000000
20
245.000000
11
229.000000
21
245.000000
0
POLYLINE
5
284
100
AcDbEntity
8
1
6
CONTINUOUS
62
5
100
AcDb2dPolyline
66
1
10
0.0
20
0.0
30
0.0
70
0
0
VERTEX
5
285
100
AcDbEntity
8
1
100
AcDbVertex
100
AcDb2dVertex
62
5
10
220.000000
20
245.000000
0
VERTEX
5
286
100
AcDbEntity
8
1
100
AcDbVertex
100
AcDb2dVertex
62
5
10
229.000000
20
245.000000
0
VERTEX
5
287
100
AcDbEntity
8
1
100
AcDbVertex
100
AcDb2dVertex
62
5
10
223.000000
20
244.000000
0
VERTEX
5
288
100
AcDbEntity
8
1
100
AcDbVertex
100
AcDb2dVertex
62
5
10
223.000000
20
246.000000
0
VERTEX
5
289
100
AcDbEntity
8
1
100
AcDbVertex
100
AcDb2dVertex
62
5
10
229.000000
20
245.000000
0
VERTEX
5
28a
100
AcDbEntity
8
1
100
AcDbVertex
100
AcDb2dVertex
62
5
10
223.000000
20
244.500000
0
VERTEX
5
28b
100
AcDbEntity
8
1
100
AcDbVertex
100
AcDb2dVertex
62
5
10
223.000000
20
245.500000
0
VERTEX
5
28c
100
AcDbEntity
8
1
100
AcDbVertex
100
AcDb2dVertex
62
5
10
229.000000
20
245.000000
0
SEQEND
5
28d
100
AcDbEntity
8
1
0
ARC
5
28e
100
AcDbEntity
8
1
100
AcDbCircle
6
CONTINUOUS
62
5
10
233.519782
20
215.805610
40
4.000000
100
AcDbArc
50
93.990912
51
178.932705
0
ARC
5
28f
100
AcDbEntity
8
1
100
AcDbCircle
6
CONTINUOUS
62
5
10
3229.000000
20
160.000000
40
3000.000000
100
AcDbArc
50
178.932705
51
-178.932705
0
ARC
5
290
100
AcDbEntity
8
1
100
AcDbCircle
6
CONTINUOUS
62
5
10
233.519782
20
104.194390
40
4.000000
100
AcDbArc
50
-178.932705
51
-93.990912
0
POLYLINE
5
291
100
AcDbEntity
8
1
6
CONTINUOUS
62
5
100
AcDb2dPolyline
66
1
10
0.0
20
0.0
30
0.0
70
0
0
VERTEX
5
292
100
AcDbEntity
8
1
100
AcDbVertex
100
AcDb2dVertex
62
5
10
233.241389
20
100.204089
0
VERTEX
5
293
100
AcDbEntity
8
1
100
AcDbVertex
100
AcDb2dVertex
62
5
10
233.300000
20
100.200000
0
VERTEX
5
294
100
AcDbEntity
8
1
100
AcDbVertex
100
AcDb2dVertex
62
5
10
233.300000
20
219.800000
0
VERTEX
5
295
100
AcDbEntity
8
1
100
AcDbVertex
100
AcDb2dVertex
62
5
10
233.241389
20
219.795911
0
SEQEND
5
296
100
AcDbEntity
8
1
0
POLYLINE
5
297
100
AcDbEntity
8
1
6
CONTINUOUS
62
5
100
AcDb2dPolyline
66
1
10
0.0
20
0.0
30
0.0
70
0
0
VERTEX
5
298
100
AcDbEntity
8
1
100
AcDbVertex
100
AcDb2dVertex
62
5
10
233.300000
20
219.000974
0
VERTEX
5
299
100
AcDbEntity
8
1
100
AcDbVertex
100
AcDb2dVertex
62
5
10
234.300000
20
219.000974
0
VERTEX
5
29a
100
AcDbEntity
8
1
100
AcDbVertex
100
AcDb2dVertex
62
5
10
234.300000
20
219.900974
0
VERTEX
5
29b
100
AcDbEntity
8
1
100
AcDbVertex
100
AcDb2dVertex
62
5
10
236.000000
20
220.000974
0
VERTEX
5
29c
100
AcDbEntity
8
1
100
AcDbVertex
100
AcDb2dVertex
62
5
10
236.000000
20
100.000974
0
VERTEX
5
29d
100
AcDbEntity
8
1
100
AcDbVertex
100
AcDb2dVertex
62
5
10
234.300000
20
100.100974
0
VERTEX
5
29e
100
AcDbEntity
8
1
100
AcDbVertex
100
AcDb2dVertex
62
5
10
234.300000
20
101.000974
0
VERTEX
5
29f
100
AcDbEntity
8
1
100
AcDbVertex
100
AcDb2dVertex
62
5
10
233.300000
20
101.000974
0
SEQEND
5
2a0
100
AcDbEntity
8
1
0
LINE
5
2a1
100
AcDbEntity
8
1
100
AcDbLine
6
CONTINUOUS
62
5
10
234.300000
20
101.000974
11
234.300000
21
219.000974
0
POLYLINE
5
2a2
100
AcDbEntity
8
1
6
CONTINUOUS
62
5
100
AcDb2dPolyline
66
1
10
0.0
20
0.0
30
0.0
70
1
0
VERTEX
5
2a3
100
AcDbEntity
8
1
100
AcDbVertex
100
AcDb2dVertex
62
5
10
124.750000
20
125.400000
0
VERTEX
5
2a4
100
AcDbEntity
8
1
100
AcDbVertex
100
AcDb2dVertex
62
5
10
153.250000
20
125.400000
0
VERTEX
5
2a5
100
AcDbEntity
8
1
100
AcDbVertex
100
AcDb2dVertex
62
5
10
153.250000
20
194.600000
0
VERTEX
5
2a6
100
AcDbEntity
8
1
100
AcDbVertex
100
AcDb2dVertex
62
5
10
124.750000
20
194.600000
0
SEQEND
5
2a7
100
AcDbEntity
8
1
0
ARC
5
2a8
100
AcDbEntity
8
1
100
AcDbCircle
6
CONTINUOUS
62
5
10
111.000000
20
213.000000
40
6.800000
100
AcDbArc
50
89.999999
51
179.999998
0
POLYLINE
5
2a9
100
AcDbEntity
8
1
6
CONTINUOUS
62
5
100
AcDb2dPolyline
66
1
10
0.0
20
0.0
30
0.0
70
0
0
VERTEX
5
2aa
100
AcDbEntity
8
1
100
AcDbVertex
100
AcDb2dVertex
62
5
10
111.000000
20
219.800000
0
VERTEX
5
2ab
100
AcDbEntity
8
1
100
AcDbVertex
100
AcDb2dVertex
62
5
10
111.000000
20
219.800000
0
VERTEX
5
2ac
100
AcDbEntity
8
1
100
AcDbVertex
100
AcDb2dVertex
62
5
10
167.000000
20
219.800000
0
SEQEND
5
2ad
100
AcDbEntity
8
1
0
ARC
5
2ae
100
AcDbEntity
8
1
100
AcDbCircle
6
CONTINUOUS
62
5
10
167.000000
20
213.000000
40
6.800000
100
AcDbArc
50
0.000000
51
89.999999
0
POLYLINE
5
2af
100
AcDbEntity
8
1
6
CONTINUOUS
62
5
100
AcDb2dPolyline
66
1
10
0.0
20
0.0
30
0.0
70
0
0
VERTEX
5
2b0
100
AcDbEntity
8
1
100
AcDbVertex
100
AcDb2dVertex
62
5
10
173.800000
20
213.000000
0
VERTEX
5
2b1
100
AcDbEntity
8
1
100
AcDbVertex
100
AcDb2dVertex
62
5
10
173.800000
20
213.000000
0
VERTEX
5
2b2
100
AcDbEntity
8
1
100
AcDbVertex
100
AcDb2dVertex
62
5
10
173.800000
20
107.000000
0
SEQEND
5
2b3
100
AcDbEntity
8
1
0
ARC
5
2b4
100
AcDbEntity
8
1
100
AcDbCircle
6
CONTINUOUS
62
5
10
167.000000
20
107.000000
40
6.800000
100
AcDbArc
50
-89.999999
51
0.000000
0
POLYLINE
5
2b5
100
AcDbEntity
8
1
6
CONTINUOUS
62
5
100
AcDb2dPolyline
66
1
10
0.0
20
0.0
30
0.0
70
0
0
VERTEX
5
2b6
100
AcDbEntity
8
1
100
AcDbVertex
100
AcDb2dVertex
62
5
10
167.000000
20
100.200000
0
VERTEX
5
2b7
100
AcDbEntity
8
1
100
AcDbVertex
100
AcDb2dVertex
62
5
10
167.000000
20
100.200000
0
VERTEX
5
2b8
100
AcDbEntity
8
1
100
AcDbVertex
100
AcDb2dVertex
62
5
10
111.000000
20
100.200000
0
SEQEND
5
2b9
100
AcDbEntity
8
1
0
ARC
5
2ba
100
AcDbEntity
8
1
100
AcDbCircle
6
CONTINUOUS
62
5
10
111.000000
20
107.000000
40
6.800000
100
AcDbArc
50
179.999998
51
-89.999999
0
POLYLINE
5
2bb
100
AcDbEntity
8
1
6
CONTINUOUS
62
5
100
AcDb2dPolyline
66
1
10
0.0
20
0.0
30
0.0
70
0
0
VERTEX
5
2bc
100
AcDbEntity
8
1
100
AcDbVertex
100
AcDb2dVertex
62
5
10
104.200000
20
107.000000
0
VERTEX
5
2bd
100
AcDbEntity
8
1
100
AcDbVertex
100
AcDb2dVertex
62
5
10
104.200000
20
107.000000
0
VERTEX
5
2be
100
AcDbEntity
8
1
100
AcDbVertex
100
AcDb2dVertex
62
5
10
104.200000
20
160.000000
0
SEQEND
5
2bf
100
AcDbEntity
8
1
0
LINE
5
2c0
100
AcDbEntity
8
1
100
AcDbLine
6
CONTINUOUS
62
5
10
104.200000
20
160.000000
11
104.200000
21
213.000000
0
ARC
5
2c1
100
AcDbEntity
8
1
100
AcDbCircle
6
CONTINUOUS
62
5
10
167.000000
20
213.000000
40
7.000000
100
AcDbArc
50
0.000000
51
89.999999
0
LINE
5
2c2
100
AcDbEntity
8
1
100
AcDbLine
6
CONTINUOUS
62
5
10
174.000000
20
213.000000
11
174.000000
21
107.000000
0
ARC
5
2c3
100
AcDbEntity
8
1
100
AcDbCircle
6
CONTINUOUS
62
5
10
167.000000
20
107.000000
40
7.000000
100
AcDbArc
50
-89.999999
51
0.000000
0
LINE
5
2c4
100
AcDbEntity
8
1
100
AcDbLine
6
CONTINUOUS
62
5
10
167.000000
20
100.000000
11
111.000000
21
100.000000
0
ARC
5
2c5
100
AcDbEntity
8
1
100
AcDbCircle
6
CONTINUOUS
62
5
10
111.000000
20
107.000000
40
7.000000
100
AcDbArc
50
179.999998
51
-89.999999
0
LINE
5
2c6
100
AcDbEntity
8
1
100
AcDbLine
6
CONTINUOUS
62
5
10
104.000000
20
107.000000
11
104.000000
21
213.000000
0
ARC
5
2c7
100
AcDbEntity
8
1
100
AcDbCircle
6
CONTINUOUS
62
5
10
111.000000
20
213.000000
40
7.000000
100
AcDbArc
50
89.999999
51
179.999998
0
LINE
5
2c8
100
AcDbEntity
8
1
100
AcDbLine
6
CONTINUOUS
62
5
10
111.000000
20
220.000000
11
167.000000
21
220.000000
0
POLYLINE
5
2c9
100
AcDbEntity
8
1
6
DOT2
62
5
100
AcDb2dPolyline
66
1
10
0.0
20
0.0
30
0.0
70
0
0
VERTEX
5
2ca
100
AcDbEntity
8
1
100
AcDbVertex
100
AcDb2dVertex
62
5
10
340.000000
20
10.000000
0
VERTEX
5
2cb
100
AcDbEntity
8
1
100
AcDbVertex
100
AcDb2dVertex
62
5
10
340.000000
20
0.000000
0
VERTEX
5
2cc
100
AcDbEntity
8
1
100
AcDbVertex
100
AcDb2dVertex
62
5
10
330.000000
20
0.000000
0
SEQEND
5
2cd
100
AcDbEntity
8
1
0
POLYLINE
5
2ce
100
AcDbEntity
8
1
6
DOT2
62
5
100
AcDb2dPolyline
66
1
10
0.0
20
0.0
30
0.0
70
0
0
VERTEX
5
2cf
100
AcDbEntity
8
1
100
AcDbVertex
100
AcDb2dVertex
62
5
10
10.000000
20
0.000000
0
VERTEX
5
2d0
100
AcDbEntity
8
1
100
AcDbVertex
100
AcDb2dVertex
62
5
10
-0.000000
20
0.000000
0
VERTEX
5
2d1
100
AcDbEntity
8
1
100
AcDbVertex
100
AcDb2dVertex
62
5
10
-0.000000
20
10.000000
0
SEQEND
5
2d2
100
AcDbEntity
8
1
0
POLYLINE
5
2d3
100
AcDbEntity
8
1
6
DOT2
62
5
100
AcDb2dPolyline
66
1
10
0.0
20
0.0
30
0.0
70
0
0
VERTEX
5
2d4
100
AcDbEntity
8
1
100
AcDbVertex
100
AcDb2dVertex
62
5
10
-0.000000
20
350.000000
0
VERTEX
5
2d5
100
AcDbEntity
8
1
100
AcDbVertex
100
AcDb2dVertex
62
5
10
-0.000000
20
360.000000
0
VERTEX
5
2d6
100
AcDbEntity
8
1
100
AcDbVertex
100
AcDb2dVertex
62
5
10
10.000000
20
360.000000
0
SEQEND
5
2d7
100
AcDbEntity
8
1
0
POLYLINE
5
2d8
100
AcDbEntity
8
1
6
DOT2
62
5
100
AcDb2dPolyline
66
1
10
0.0
20
0.0
30
0.0
70
0
0
VERTEX
5
2d9
100
AcDbEntity
8
1
100
AcDbVertex
100
AcDb2dVertex
62
5
10
330.000000
20
360.000000
0
VERTEX
5
2da
100
AcDbEntity
8
1
100
AcDbVertex
100
AcDb2dVertex
62
5
10
340.000000
20
360.000000
0
VERTEX
5
2db
100
AcDbEntity
8
1
100
AcDbVertex
100
AcDb2dVertex
62
5
10
340.000000
20
350.000000
0
SEQEND
5
2dc
100
AcDbEntity
8
1
0
POLYLINE
5
2dd
100
AcDbEntity
8
1
6
CONTINUOUS
62
5
100
AcDb2dPolyline
66
1
10
0.0
20
0.0
30
0.0
70
1
0
VERTEX
5
2de
100
AcDbEntity
8
1
100
AcDbVertex
100
AcDb2dVertex
62
5
10
330.000000
20
350.000000
0
VERTEX
5
2df
100
AcDbEntity
8
1
100
AcDbVertex
100
AcDb2dVertex
62
5
10
10.000000
20
350.000000
0
VERTEX
5
2e0
100
AcDbEntity
8
1
100
AcDbVertex
100
AcDb2dVertex
62
5
10
10.000000
20
10.000000
0
VERTEX
5
2e1
100
AcDbEntity
8
1
100
AcDbVertex
100
AcDb2dVertex
62
5
10
330.000000
20
10.000000
0
SEQEND
5
2e2
100
AcDbEntity
8
1
0
POLYLINE
5
2e3
100
AcDbEntity
8
1
6
DOT2
62
5
100
AcDb2dPolyline
66
1
10
0.0
20
0.0
30
0.0
70
0
0
VERTEX
5
2e4
100
AcDbEntity
8
1
100
AcDbVertex
100
AcDb2dVertex
62
5
10
340.000000
20
10.000000
0
VERTEX
5
2e5
100
AcDbEntity
8
1
100
AcDbVertex
100
AcDb2dVertex
62
5
10
340.000000
20
0.000000
0
VERTEX
5
2e6
100
AcDbEntity
8
1
100
AcDbVertex
100
AcDb2dVertex
62
5
10
330.000000
20
0.000000
0
SEQEND
5
2e7
100
AcDbEntity
8
1
0
POLYLINE
5
2e8
100
AcDbEntity
8
1
6
DOT2
62
5
100
AcDb2dPolyline
66
1
10
0.0
20
0.0
30
0.0
70
0
0
VERTEX
5
2e9
100
AcDbEntity
8
1
100
AcDbVertex
100
AcDb2dVertex
62
5
10
10.000000
20
0.000000
0
VERTEX
5
2ea
100
AcDbEntity
8
1
100
AcDbVertex
100
AcDb2dVertex
62
5
10
0.000000
20
0.000000
0
VERTEX
5
2eb
100
AcDbEntity
8
1
100
AcDbVertex
100
AcDb2dVertex
62
5
10
0.000000
20
10.000000
0
SEQEND
5
2ec
100
AcDbEntity
8
1
0
POLYLINE
5
2ed
100
AcDbEntity
8
1
6
DOT2
62
5
100
AcDb2dPolyline
66
1
10
0.0
20
0.0
30
0.0
70
0
0
VERTEX
5
2ee
100
AcDbEntity
8
1
100
AcDbVertex
100
AcDb2dVertex
62
5
10
0.000000
20
350.000000
0
VERTEX
5
2ef
100
AcDbEntity
8
1
100
AcDbVertex
100
AcDb2dVertex
62
5
10
0.000000
20
360.000000
0
VERTEX
5
2f0
100
AcDbEntity
8
1
100
AcDbVertex
100
AcDb2dVertex
62
5
10
10.000000
20
360.000000
0
SEQEND
5
2f1
100
AcDbEntity
8
1
0
POLYLINE
5
2f2
100
AcDbEntity
8
1
6
DOT2
62
5
100
AcDb2dPolyline
66
1
10
0.0
20
0.0
30
0.0
70
0
0
VERTEX
5
2f3
100
AcDbEntity
8
1
100
AcDbVertex
100
AcDb2dVertex
62
5
10
330.000000
20
360.000000
0
VERTEX
5
2f4
100
AcDbEntity
8
1
100
AcDbVertex
100
AcDb2dVertex
62
5
10
340.000000
20
360.000000
0
VERTEX
5
2f5
100
AcDbEntity
8
1
100
AcDbVertex
100
AcDb2dVertex
62
5
10
340.000000
20
350.000000
0
SEQEND
5
2f6
100
AcDbEntity
8
1
0
LINE
5
2f7
100
AcDbEntity
8
1
100
AcDbLine
6
DOT2
62
6
10
2569.175404
20
-407.461302
11
2569.338438
21
-407.298268
0
LINE
5
2f8
100
AcDbEntity
8
1
100
AcDbLine
6
DOT2
62
6
10
2569.410795
20
-408.922967
11
2569.494363
21
-408.839399
0
LINE
5
2f9
100
AcDbEntity
8
1
100
AcDbLine
6
DOT2
62
6
10
2569.175404
20
-408.875516
11
2569.494363
21
-408.556556
0
LINE
5
2fa
100
AcDbEntity
8
1
100
AcDbLine
6
DOT2
62
6
10
2569.175404
20
-408.592673
11
2569.494363
21
-408.273714
0
LINE
5
2fb
100
AcDbEntity
8
1
100
AcDbLine
6
DOT2
62
6
10
2569.175404
20
-408.309830
11
2569.494363
21
-407.990871
0
LINE
5
2fc
100
AcDbEntity
8
1
100
AcDbLine
6
DOT2
62
6
10
2569.175404
20
-408.026988
11
2569.494363
21
-407.708028
0
LINE
5
2fd
100
AcDbEntity
8
1
100
AcDbLine
6
DOT2
62
6
10
2569.175404
20
-407.744145
11
2569.590756
21
-407.328792
0
LINE
5
2fe
100
AcDbEntity
8
1
100
AcDbLine
6
DOT2
62
6
10
2569.347962
20
-407.298268
11
2569.557654
21
-407.507959
0
LINE
5
2ff
100
AcDbEntity
8
1
100
AcDbLine
6
DOT2
62
6
10
2569.175404
20
-408.822766
11
2569.275605
21
-408.922967
0
LINE
5
300
100
AcDbEntity
8
1
100
AcDbLine
6
DOT2
62
6
10
2569.175404
20
-408.539923
11
2569.494363
21
-408.858883
0
LINE
5
301
100
AcDbEntity
8
1
100
AcDbLine
6
DOT2
62
6
10
2569.175404
20
-408.257081
11
2569.494363
21
-408.576040
0
LINE
5
302
100
AcDbEntity
8
1
100
AcDbLine
6
DOT2
62
6
10
2569.175404
20
-407.974238
11
2569.494363
21
-408.293197
0
LINE
5
303
100
AcDbEntity
8
1
100
AcDbLine
6
DOT2
62
6
10
2569.175404
20
-407.691395
11
2569.494363
21
-408.010355
0
LINE
5
304
100
AcDbEntity
8
1
100
AcDbLine
6
DOT2
62
6
10
2569.175404
20
-407.408552
11
2569.494363
21
-407.727512
0
LINE
5
305
100
AcDbEntity
8
1
100
AcDbLine
6
DOT2
62
6
10
2570.152217
20
-407.050175
11
2570.215607
21
-406.986784
0
LINE
5
306
100
AcDbEntity
8
1
100
AcDbLine
6
DOT2
62
6
10
2570.143482
20
-409.604493
11
2570.471176
21
-409.276800
0
LINE
5
307
100
AcDbEntity
8
1
100
AcDbLine
6
DOT2
62
6
10
2569.993280
20
-409.471853
11
2570.471176
21
-408.993957
0
LINE
5
308
100
AcDbEntity
8
1
100
AcDbLine
6
DOT2
62
6
10
2569.808033
20
-409.374257
11
2569.997245
21
-409.185045
0
LINE
5
309
100
AcDbEntity
8
1
100
AcDbLine
6
DOT2
62
6
10
2570.152217
20
-409.030074
11
2570.471176
21
-408.711114
0
LINE
5
30a
100
AcDbEntity
8
1
100
AcDbLine
6
DOT2
62
6
10
2569.592561
20
-409.306887
11
2569.728252
21
-409.171196
0
LINE
5
30b
100
AcDbEntity
8
1
100
AcDbLine
6
DOT2
62
6
10
2570.152217
20
-408.747231
11
2570.471176
21
-408.428272
0
LINE
5
30c
100
AcDbEntity
8
1
100
AcDbLine
6
DOT2
62
6
10
2570.152217
20
-408.464388
11
2570.471176
21
-408.145429
0
LINE
5
30d
100
AcDbEntity
8
1
100
AcDbLine
6
DOT2
62
6
10
2570.152217
20
-408.181545
11
2570.471176
21
-407.862586
0
LINE
5
30e
100
AcDbEntity
8
1
100
AcDbLine
6
DOT2
62
6
10
2570.152217
20
-407.898703
11
2570.471176
21
-407.579743
0
LINE
5
30f
100
AcDbEntity
8
1
100
AcDbLine
6
DOT2
62
6
10
2570.152217
20
-407.615860
11
2570.471176
21
-407.296901
0
LINE
5
310
100
AcDbEntity
8
1
100
AcDbLine
6
DOT2
62
6
10
2570.152217
20
-407.333017
11
2570.498450
21
-406.986784
0
LINE
5
311
100
AcDbEntity
8
1
100
AcDbLine
6
DOT2
62
6
10
2570.450692
20
-406.986784
11
2570.612564
21
-407.148656
0
LINE
5
312
100
AcDbEntity
8
1
100
AcDbLine
6
DOT2
62
6
10
2569.545698
20
-409.193060
11
2569.675813
21
-409.323175
0
LINE
5
313
100
AcDbEntity
8
1
100
AcDbLine
6
DOT2
62
6
10
2569.821284
20
-409.185804
11
2570.236341
21
-409.600861
0
LINE
5
314
100
AcDbEntity
8
1
100
AcDbLine
6
DOT2
62
6
10
2570.101749
20
-409.183426
11
2570.411253
21
-409.492930
0
LINE
5
315
100
AcDbEntity
8
1
100
AcDbLine
6
DOT2
62
6
10
2570.152217
20
-408.951051
11
2570.471176
21
-409.270010
0
LINE
5
316
100
AcDbEntity
8
1
100
AcDbLine
6
DOT2
62
6
10
2570.152217
20
-408.668208
11
2570.471176
21
-408.987168
0
LINE
5
317
100
AcDbEntity
8
1
100
AcDbLine
6
DOT2
62
6
10
2570.152217
20
-408.385365
11
2570.471176
21
-408.704325
0
LINE
5
318
100
AcDbEntity
8
1
100
AcDbLine
6
DOT2
62
6
10
2570.152217
20
-408.102523
11
2570.471176
21
-408.421482
0
LINE
5
319
100
AcDbEntity
8
1
100
AcDbLine
6
DOT2
62
6
10
2570.152217
20
-407.819680
11
2570.471176
21
-408.138639
0
LINE
5
31a
100
AcDbEntity
8
1
100
AcDbLine
6
DOT2
62
6
10
2570.152217
20
-407.536837
11
2570.471176
21
-407.855797
0
LINE
5
31b
100
AcDbEntity
8
1
100
AcDbLine
6
DOT2
62
6
10
2570.152217
20
-407.253995
11
2570.471176
21
-407.572954
0
LINE
5
31c
100
AcDbEntity
8
1
100
AcDbLine
6
DOT2
62
6
10
2570.167849
20
-406.986784
11
2570.471176
21
-407.290111
0
LINE
5
31d
100
AcDbEntity
8
1
100
AcDbLine
6
DOT2
62
6
10
2569.282743
20
-411.879446
11
2569.386576
21
-411.775613
0
LINE
5
31e
100
AcDbEntity
8
1
100
AcDbLine
6
DOT2
62
6
10
2569.439125
20
-413.137278
11
2569.570904
21
-413.005499
0
LINE
5
31f
100
AcDbEntity
8
1
100
AcDbLine
6
DOT2
62
6
10
2569.282743
20
-413.010817
11
2569.570904
21
-412.722656
0
LINE
5
320
100
AcDbEntity
8
1
100
AcDbLine
6
DOT2
62
6
10
2569.282743
20
-412.727975
11
2569.570904
21
-412.439813
0
LINE
5
321
100
AcDbEntity
8
1
100
AcDbLine
6
DOT2
62
6
10
2569.282743
20
-412.445132
11
2569.570904
21
-412.156970
0
LINE
5
322
100
AcDbEntity
8
1
100
AcDbLine
6
DOT2
62
6
10
2569.282743
20
-412.162289
11
2569.628700
21
-411.816332
0
LINE
5
323
100
AcDbEntity
8
1
100
AcDbLine
6
DOT2
62
6
10
2569.530118
20
-413.137278
11
2569.282743
21
-412.889903
0
LINE
5
324
100
AcDbEntity
8
1
100
AcDbLine
6
DOT2
62
6
10
2569.705853
20
-411.898800
11
2569.620646
21
-411.813592
0
LINE
5
325
100
AcDbEntity
8
1
100
AcDbLine
6
DOT2
62
6
10
2569.570904
20
-412.046694
11
2569.299824
21
-411.775613
0
LINE
5
326
100
AcDbEntity
8
1
100
AcDbLine
6
DOT2
62
6
10
2569.570904
20
-412.329536
11
2569.282743
21
-412.041375
0
LINE
5
327
100
AcDbEntity
8
1
100
AcDbLine
6
DOT2
62
6
10
2569.570904
20
-412.612379
11
2569.282743
21
-412.324218
0
LINE
5
328
100
AcDbEntity
8
1
100
AcDbLine
6
DOT2
62
6
10
2569.570904
20
-412.895222
11
2569.282743
21
-412.607060
0
LINE
5
329
100
AcDbEntity
8
1
100
AcDbLine
6
DOT2
62
6
10
2570.091421
20
-411.636453
11
2570.108518
21
-411.619357
0
LINE
5
32a
100
AcDbEntity
8
1
100
AcDbLine
6
DOT2
62
6
10
2570.019540
20
-413.688234
11
2570.399876
21
-413.307898
0
LINE
5
32b
100
AcDbEntity
8
1
100
AcDbLine
6
DOT2
62
6
10
2569.907467
20
-413.517464
11
2570.399876
21
-413.025055
0
LINE
5
32c
100
AcDbEntity
8
1
100
AcDbLine
6
DOT2
62
6
10
2569.704699
20
-413.437389
11
2569.854349
21
-413.287740
0
LINE
5
32d
100
AcDbEntity
8
1
100
AcDbLine
6
DOT2
62
6
10
2570.091421
20
-413.050667
11
2570.399876
21
-412.742213
0
LINE
5
32e
100
AcDbEntity
8
1
100
AcDbLine
6
DOT2
62
6
10
2569.547060
20
-413.312186
11
2569.596059
21
-413.263187
0
LINE
5
32f
100
AcDbEntity
8
1
100
AcDbLine
6
DOT2
62
6
10
2570.091421
20
-412.767824
11
2570.399876
21
-412.459370
0
LINE
5
330
100
AcDbEntity
8
1
100
AcDbLine
6
DOT2
62
6
10
2570.091421
20
-412.484982
11
2570.399876
21
-412.176527
0
LINE
5
331
100
AcDbEntity
8
1
100
AcDbLine
6
DOT2
62
6
10
2570.091421
20
-412.202139
11
2570.399876
21
-411.893684
0
LINE
5
332
100
AcDbEntity
8
1
100
AcDbLine
6
DOT2
62
6
10
2570.498581
20
-411.794979
11
2570.535839
21
-411.757721
0
LINE
5
333
100
AcDbEntity
8
1
100
AcDbLine
6
DOT2
62
6
10
2570.091421
20
-411.919296
11
2570.378574
21
-411.632143
0
LINE
5
334
100
AcDbEntity
8
1
100
AcDbLine
6
DOT2
62
6
10
2569.922113
20
-413.529273
11
2569.662326
21
-413.269486
0
LINE
5
335
100
AcDbEntity
8
1
100
AcDbLine
6
DOT2
62
6
10
2570.466407
20
-411.810826
11
2570.274938
21
-411.619357
0
LINE
5
336
100
AcDbEntity
8
1
100
AcDbLine
6
DOT2
62
6
10
2570.399876
20
-412.027137
11
2570.091421
21
-411.718683
0
LINE
5
337
100
AcDbEntity
8
1
100
AcDbLine
6
DOT2
62
6
10
2570.399876
20
-412.309980
11
2570.091421
21
-412.001525
0
LINE
5
338
100
AcDbEntity
8
1
100
AcDbLine
6
DOT2
62
6
10
2570.399876
20
-412.592822
11
2570.091421
21
-412.284368
0
LINE
5
339
100
AcDbEntity
8
1
100
AcDbLine
6
DOT2
62
6
10
2570.399876
20
-412.875665
11
2570.091421
21
-412.567211
0
LINE
5
33a
100
AcDbEntity
8
1
100
AcDbLine
6
DOT2
62
6
10
2570.399876
20
-413.158508
11
2570.091421
21
-412.850053
0
LINE
5
33b
100
AcDbEntity
8
1
100
AcDbLine
6
DOT2
62
6
10
2570.393100
20
-413.434575
11
2570.091421
21
-413.132896
0
LINE
5
33c
100
AcDbEntity
8
1
100
AcDbLine
6
DOT2
62
6
10
2570.287727
20
-413.612044
11
2569.974880
21
-413.299197
0
LINE
5
33d
100
AcDbEntity
8
1
100
AcDbLine
6
DOT2
62
6
10
2570.081074
20
-413.688234
11
2569.966619
21
-413.573779
0
LINE
5
33e
100
AcDbEntity
8
1
100
AcDbLine
6
DOT2
62
6
10
2567.682262
20
-416.308355
11
2567.759782
21
-416.230835
0
LINE
5
33f
100
AcDbEntity
8
1
100
AcDbLine
6
DOT2
62
6
10
2567.576811
20
-420.090761
11
2567.648010
21
-420.019562
0
LINE
5
340
100
AcDbEntity
8
1
100
AcDbLine
6
DOT2
62
6
10
2567.329409
20
-420.055320
11
2567.648010
21
-419.736719
0
LINE
5
341
100
AcDbEntity
8
1
100
AcDbLine
6
DOT2
62
6
10
2567.329409
20
-419.772477
11
2567.648010
21
-419.453876
0
LINE
5
342
100
AcDbEntity
8
1
100
AcDbLine
6
DOT2
62
6
10
2567.329409
20
-419.489634
11
2567.648010
21
-419.171033
0
LINE
5
343
100
AcDbEntity
8
1
100
AcDbLine
6
DOT2
62
6
10
2567.329409
20
-419.206792
11
2567.648010
21
-418.888191
0
LINE
5
344
100
AcDbEntity
8
1
100
AcDbLine
6
DOT2
62
6
10
2567.329409
20
-418.923949
11
2567.648010
21
-418.605348
0
LINE
5
345
100
AcDbEntity
8
1
100
AcDbLine
6
DOT2
62
6
10
2567.329409
20
-418.641106
11
2567.648010
21
-418.322505
0
LINE
5
346
100
AcDbEntity
8
1
100
AcDbLine
6
DOT2
62
6
10
2567.329409
20
-418.358264
11
2567.648010
21
-418.039663
0
LINE
5
347
100
AcDbEntity
8
1
100
AcDbLine
6
DOT2
62
6
10
2567.329409
20
-418.075421
11
2567.648010
21
-417.756820
0
LINE
5
348
100
AcDbEntity
8
1
100
AcDbLine
6
DOT2
62
6
10
2566.751546
20
-418.370442
11
2567.779244
21
-417.342743
0
LINE
5
349
100
AcDbEntity
8
1
100
AcDbLine
6
DOT2
62
6
10
2567.167244
20
-417.671901
11
2567.709243
21
-417.129902
0
LINE
5
34a
100
AcDbEntity
8
1
100
AcDbLine
6
DOT2
62
6
10
2567.408881
20
-417.147421
11
2567.931507
21
-416.624795
0
LINE
5
34b
100
AcDbEntity
8
1
100
AcDbLine
6
DOT2
62
6
10
2567.569761
20
-416.703698
11
2567.978694
21
-416.294765
0
LINE
5
34c
100
AcDbEntity
8
1
100
AcDbLine
6
DOT2
62
6
10
2567.432634
20
-420.090761
11
2567.329409
21
-419.987536
0
LINE
5
34d
100
AcDbEntity
8
1
100
AcDbLine
6
DOT2
62
6
10
2568.039591
20
-416.455077
11
2567.838270
21
-416.253756
0
LINE
5
34e
100
AcDbEntity
8
1
100
AcDbLine
6
DOT2
62
6
10
2567.930096
20
-416.628425
11
2567.667611
21
-416.365940
0
LINE
5
34f
100
AcDbEntity
8
1
100
AcDbLine
6
DOT2
62
6
10
2567.847980
20
-416.829152
11
2567.605885
21
-416.587057
0
LINE
5
350
100
AcDbEntity
8
1
100
AcDbLine
6
DOT2
62
6
10
2567.760207
20
-417.024221
11
2567.537520
21
-416.801535
0
LINE
5
351
100
AcDbEntity
8
1
100
AcDbLine
6
DOT2
62
6
10
2567.666994
20
-417.213851
11
2567.462878
21
-417.009735
0
LINE
5
352
100
AcDbEntity
8
1
100
AcDbLine
6
DOT2
62
6
10
2567.692976
20
-417.522676
11
2567.382264
21
-417.211964
0
LINE
5
353
100
AcDbEntity
8
1
100
AcDbLine
6
DOT2
62
6
10
2567.648010
20
-417.760553
11
2567.295943
21
-417.408485
0
LINE
5
354
100
AcDbEntity
8
1
100
AcDbLine
6
DOT2
62
6
10
2567.648010
20
-418.043396
11
2567.204138
21
-417.599523
0
LINE
5
355
100
AcDbEntity
8
1
100
AcDbLine
6
DOT2
62
6
10
2567.648010
20
-418.326238
11
2567.329409
21
-418.007637
0
LINE
5
356
100
AcDbEntity
8
1
100
AcDbLine
6
DOT2
62
6
10
2567.241083
20
-417.919311
11
2567.107042
21
-417.785270
0
LINE
5
357
100
AcDbEntity
8
1
100
AcDbLine
6
DOT2
62
6
10
2567.648010
20
-418.609081
11
2567.329409
21
-418.290480
0
LINE
5
358
100
AcDbEntity
8
1
100
AcDbLine
6
DOT2
62
6
10
2567.124520
20
-418.085590
11
2567.004819
21
-417.965890
0
LINE
5
359
100
AcDbEntity
8
1
100
AcDbLine
6
DOT2
62
6
10
2567.648010
20
-418.891924
11
2567.329409
21
-418.573323
0
LINE
5
35a
100
AcDbEntity
8
1
100
AcDbLine
6
DOT2
62
6
10
2566.999396
20
-418.243310
11
2566.897610
21
-418.141523
0
LINE
5
35b
100
AcDbEntity
8
1
100
AcDbLine
6
DOT2
62
6
10
2567.648010
20
-419.174766
11
2567.329409
21
-418.856165
0
LINE
5
35c
100
AcDbEntity
8
1
100
AcDbLine
6
DOT2
62
6
10
2566.873355
20
-418.400111
11
2566.785531
21
-418.312287
0
LINE
5
35d
100
AcDbEntity
8
1
100
AcDbLine
6
DOT2
62
6
10
2567.648010
20
-419.457609
11
2567.329409
21
-419.139008
0
LINE
5
35e
100
AcDbEntity
8
1
100
AcDbLine
6
DOT2
62
6
10
2567.648010
20
-419.740452
11
2567.329409
21
-419.421851
0
LINE
5
35f
100
AcDbEntity
8
1
100
AcDbLine
6
DOT2
62
6
10
2567.648010
20
-420.023295
11
2567.329409
21
-419.704694
0
LINE
5
360
100
AcDbEntity
8
1
100
AcDbLine
6
DOT2
62
6
10
2567.158068
20
-412.024222
11
2567.537860
21
-411.644430
0
LINE
5
361
100
AcDbEntity
8
1
100
AcDbLine
6
DOT2
62
6
10
2568.645974
20
-413.647586
11
2568.836234
21
-413.457326
0
LINE
5
362
100
AcDbEntity
8
1
100
AcDbLine
6
DOT2
62
6
10
2568.438484
20
-413.572233
11
2568.837310
21
-413.173407
0
LINE
5
363
100
AcDbEntity
8
1
100
AcDbLine
6
DOT2
62
6
10
2567.964556
20
-413.763318
11
2568.139229
21
-413.588646
0
LINE
5
364
100
AcDbEntity
8
1
100
AcDbLine
6
DOT2
62
6
10
2568.261866
20
-413.466009
11
2568.394769
21
-413.333106
0
LINE
5
365
100
AcDbEntity
8
1
100
AcDbLine
6
DOT2
62
6
10
2568.555237
20
-413.172638
11
2568.838228
21
-412.889647
0
LINE
5
366
100
AcDbEntity
8
1
100
AcDbLine
6
DOT2
62
6
10
2567.849038
20
-413.595994
11
2568.139229
21
-413.305803
0
LINE
5
367
100
AcDbEntity
8
1
100
AcDbLine
6
DOT2
62
6
10
2568.378780
20
-413.066252
11
2568.541125
21
-412.903907
0
LINE
5
368
100
AcDbEntity
8
1
100
AcDbLine
6
DOT2
62
6
10
2568.649871
20
-412.795162
11
2568.659839
21
-412.785193
0
LINE
5
369
100
AcDbEntity
8
1
100
AcDbLine
6
DOT2
62
6
10
2568.797832
20
-412.647200
11
2569.024560
21
-412.420472
0
LINE
5
36a
100
AcDbEntity
8
1
100
AcDbLine
6
DOT2
62
6
10
2567.398871
20
-413.763318
11
2567.455353
21
-413.706836
0
LINE
5
36b
100
AcDbEntity
8
1
100
AcDbLine
6
DOT2
62
6
10
2567.849038
20
-413.313151
11
2568.258282
21
-412.903907
0
LINE
5
36c
100
AcDbEntity
8
1
100
AcDbLine
6
DOT2
62
6
10
2568.514989
20
-412.647200
11
2568.667187
21
-412.495002
0
LINE
5
36d
100
AcDbEntity
8
1
100
AcDbLine
6
DOT2
62
6
10
2567.167192
20
-413.712155
11
2567.455353
21
-413.423994
0
LINE
5
36e
100
AcDbEntity
8
1
100
AcDbLine
6
DOT2
62
6
10
2567.813095
20
-413.066252
11
2568.139229
21
-412.740118
0
LINE
5
36f
100
AcDbEntity
8
1
100
AcDbLine
6
DOT2
62
6
10
2568.232146
20
-412.647200
11
2568.384344
21
-412.495002
0
LINE
5
370
100
AcDbEntity
8
1
100
AcDbLine
6
DOT2
62
6
10
2568.664389
20
-412.214958
11
2568.894891
21
-411.984455
0
LINE
5
371
100
AcDbEntity
8
1
100
AcDbLine
6
DOT2
62
6
10
2567.167192
20
-413.429312
11
2567.455353
21
-413.141151
0
LINE
5
372
100
AcDbEntity
8
1
100
AcDbLine
6
DOT2
62
6
10
2567.530252
20
-413.066252
11
2567.692597
21
-412.903907
0
LINE
5
373
100
AcDbEntity
8
1
100
AcDbLine
6
DOT2
62
6
10
2567.849038
20
-412.747466
11
2568.139229
21
-412.457275
0
LINE
5
374
100
AcDbEntity
8
1
100
AcDbLine
6
DOT2
62
6
10
2568.381546
20
-412.214958
11
2568.551143
21
-412.045361
0
LINE
5
375
100
AcDbEntity
8
1
100
AcDbLine
6
DOT2
62
6
10
2567.167192
20
-413.146470
11
2567.423639
21
-412.890023
0
LINE
5
376
100
AcDbEntity
8
1
100
AcDbLine
6
DOT2
62
6
10
2567.666461
20
-412.647200
11
2567.818659
21
-412.495002
0
LINE
5
377
100
AcDbEntity
8
1
100
AcDbLine
6
DOT2
62
6
10
2567.849038
20
-412.464623
11
2568.268300
21
-412.045361
0
LINE
5
378
100
AcDbEntity
8
1
100
AcDbLine
6
DOT2
62
6
10
2567.167192
20
-412.863627
11
2567.216201
21
-412.814618
0
LINE
5
379
100
AcDbEntity
8
1
100
AcDbLine
6
DOT2
62
6
10
2567.383618
20
-412.647200
11
2567.535816
21
-412.495002
0
LINE
5
37a
100
AcDbEntity
8
1
100
AcDbLine
6
DOT2
62
6
10
2567.815860
20
-412.214958
11
2568.139229
21
-411.891589
0
LINE
5
37b
100
AcDbEntity
8
1
100
AcDbLine
6
DOT2
62
6
10
2567.100776
20
-412.647200
11
2567.252974
21
-412.495002
0
LINE
5
37c
100
AcDbEntity
8
1
100
AcDbLine
6
DOT2
62
6
10
2567.533018
20
-412.214958
11
2567.702615
21
-412.045361
0
LINE
5
37d
100
AcDbEntity
8
1
100
AcDbLine
6
DOT2
62
6
10
2567.849038
20
-411.898937
11
2568.190929
21
-411.557047
0
LINE
5
37e
100
AcDbEntity
8
1
100
AcDbLine
6
DOT2
62
6
10
2566.910753
20
-412.554380
11
2566.970131
21
-412.495002
0
LINE
5
37f
100
AcDbEntity
8
1
100
AcDbLine
6
DOT2
62
6
10
2567.215245
20
-412.249888
11
2567.419772
21
-412.045361
0
LINE
5
380
100
AcDbEntity
8
1
100
AcDbLine
6
DOT2
62
6
10
2567.627033
20
-411.838100
11
2567.719130
21
-411.746004
0
LINE
5
381
100
AcDbEntity
8
1
100
AcDbLine
6
DOT2
62
6
10
2567.849038
20
-411.616095
11
2567.922890
21
-411.542243
0
LINE
5
382
100
AcDbEntity
8
1
100
AcDbLine
6
DOT2
62
6
10
2567.327731
20
-413.763318
11
2567.167192
21
-413.602779
0
LINE
5
383
100
AcDbEntity
8
1
100
AcDbLine
6
DOT2
62
6
10
2568.890641
20
-412.214958
11
2568.659267
21
-411.983584
0
LINE
5
384
100
AcDbEntity
8
1
100
AcDbLine
6
DOT2
62
6
10
2568.290412
20
-411.614730
11
2568.275195
21
-411.599512
0
LINE
5
385
100
AcDbEntity
8
1
100
AcDbLine
6
DOT2
62
6
10
2569.040040
20
-412.647200
11
2568.800798
21
-412.407958
0
LINE
5
386
100
AcDbEntity
8
1
100
AcDbLine
6
DOT2
62
6
10
2568.607798
20
-412.214958
11
2568.438201
21
-412.045361
0
LINE
5
387
100
AcDbEntity
8
1
100
AcDbLine
6
DOT2
62
6
10
2568.148672
20
-411.755832
11
2567.935083
21
-411.542243
0
LINE
5
388
100
AcDbEntity
8
1
100
AcDbLine
6
DOT2
62
6
10
2568.757197
20
-412.647200
11
2568.605000
21
-412.495002
0
LINE
5
389
100
AcDbEntity
8
1
100
AcDbLine
6
DOT2
62
6
10
2568.324955
20
-412.214958
11
2568.155358
21
-412.045361
0
LINE
5
38a
100
AcDbEntity
8
1
100
AcDbLine
6
DOT2
62
6
10
2568.139229
20
-412.029232
11
2567.849038
21
-411.739041
0
LINE
5
38b
100
AcDbEntity
8
1
100
AcDbLine
6
DOT2
62
6
10
2568.889237
20
-413.062083
11
2568.636904
21
-412.809749
0
LINE
5
38c
100
AcDbEntity
8
1
100
AcDbLine
6
DOT2
62
6
10
2568.474355
20
-412.647200
11
2568.322157
21
-412.495002
0
LINE
5
38d
100
AcDbEntity
8
1
100
AcDbLine
6
DOT2
62
6
10
2568.139229
20
-412.312075
11
2567.849038
21
-412.021884
0
LINE
5
38e
100
AcDbEntity
8
1
100
AcDbLine
6
DOT2
62
6
10
2567.655987
20
-411.828832
11
2567.447526
21
-411.620372
0
LINE
5
38f
100
AcDbEntity
8
1
100
AcDbLine
6
DOT2
62
6
10
2568.837310
20
-413.292999
11
2568.448219
21
-412.903907
0
LINE
5
390
100
AcDbEntity
8
1
100
AcDbLine
6
DOT2
62
6
10
2568.191512
20
-412.647200
11
2567.849038
21
-412.304727
0
LINE
5
391
100
AcDbEntity
8
1
100
AcDbLine
6
DOT2
62
6
10
2567.759270
20
-412.214958
11
2567.589673
21
-412.045361
0
LINE
5
392
100
AcDbEntity
8
1
100
AcDbLine
6
DOT2
62
6
10
2567.489960
20
-411.945648
11
2567.303146
21
-411.758834
0
LINE
5
393
100
AcDbEntity
8
1
100
AcDbLine
6
DOT2
62
6
10
2568.806946
20
-413.545477
11
2568.553776
21
-413.292307
0
LINE
5
394
100
AcDbEntity
8
1
100
AcDbLine
6
DOT2
62
6
10
2568.327721
20
-413.066252
11
2568.165377
21
-412.903907
0
LINE
5
395
100
AcDbEntity
8
1
100
AcDbLine
6
DOT2
62
6
10
2568.139229
20
-412.877760
11
2567.756471
21
-412.495002
0
LINE
5
396
100
AcDbEntity
8
1
100
AcDbLine
6
DOT2
62
6
10
2567.476427
20
-412.214958
11
2567.207501
21
-411.946032
0
LINE
5
397
100
AcDbEntity
8
1
100
AcDbLine
6
DOT2
62
6
10
2568.627272
20
-413.648646
11
2568.311732
21
-413.333106
0
LINE
5
398
100
AcDbEntity
8
1
100
AcDbLine
6
DOT2
62
6
10
2568.139229
20
-413.160603
11
2567.849038
21
-412.870412
0
LINE
5
399
100
AcDbEntity
8
1
100
AcDbLine
6
DOT2
62
6
10
2567.625827
20
-412.647200
11
2567.473629
21
-412.495002
0
LINE
5
39a
100
AcDbEntity
8
1
100
AcDbLine
6
DOT2
62
6
10
2567.222238
20
-412.243612
11
2567.092994
21
-412.114368
0
LINE
5
39b
100
AcDbEntity
8
1
100
AcDbLine
6
DOT2
62
6
10
2568.139229
20
-413.443446
11
2567.849038
21
-413.153255
0
LINE
5
39c
100
AcDbEntity
8
1
100
AcDbLine
6
DOT2
62
6
10
2567.762036
20
-413.066252
11
2567.599691
21
-412.903907
0
LINE
5
39d
100
AcDbEntity
8
1
100
AcDbLine
6
DOT2
62
6
10
2567.342984
20
-412.647200
11
2567.190786
21
-412.495002
0
LINE
5
39e
100
AcDbEntity
8
1
100
AcDbLine
6
DOT2
62
6
10
2567.066046
20
-412.370263
11
2566.960927
21
-412.265143
0
LINE
5
39f
100
AcDbEntity
8
1
100
AcDbLine
6
DOT2
62
6
10
2568.139229
20
-413.726288
11
2567.849038
21
-413.436098
0
LINE
5
3a0
100
AcDbEntity
8
1
100
AcDbLine
6
DOT2
62
6
10
2567.479193
20
-413.066252
11
2567.227559
21
-412.814618
0
LINE
5
3a1
100
AcDbEntity
8
1
100
AcDbLine
6
DOT2
62
6
10
2567.060141
20
-412.647200
11
2566.907943
21
-412.495002
0
LINE
5
3a2
100
AcDbEntity
8
1
100
AcDbLine
6
DOT2
62
6
10
2567.893417
20
-413.763318
11
2567.849038
21
-413.718940
0
LINE
5
3a3
100
AcDbEntity
8
1
100
AcDbLine
6
DOT2
62
6
10
2567.455353
20
-413.325255
11
2567.167192
21
-413.037094
0
LINE
5
3a4
100
AcDbEntity
8
1
100
AcDbLine
6
DOT2
62
6
10
2567.455353
20
-413.608098
11
2567.167192
21
-413.319936
0
LINE
5
3a5
100
AcDbEntity
8
1
100
AcDbLine
6
DOT2
62
6
10
2567.420159
20
-410.065075
11
2567.597914
21
-409.887321
0
LINE
5
3a6
100
AcDbEntity
8
1
100
AcDbLine
6
DOT2
62
6
10
2570.536045
20
-410.908987
11
2570.760395
21
-410.684637
0
LINE
5
3a7
100
AcDbEntity
8
1
100
AcDbLine
6
DOT2
62
6
10
2570.253202
20
-410.908987
11
2570.627055
21
-410.535134
0
LINE
5
3a8
100
AcDbEntity
8
1
100
AcDbLine
6
DOT2
62
6
10
2569.970359
20
-410.908987
11
2570.134823
21
-410.744524
0
LINE
5
3a9
100
AcDbEntity
8
1
100
AcDbLine
6
DOT2
62
6
10
2569.687517
20
-410.908987
11
2569.851980
21
-410.744524
0
LINE
5
3aa
100
AcDbEntity
8
1
100
AcDbLine
6
DOT2
62
6
10
2569.404674
20
-410.908987
11
2569.569137
21
-410.744524
0
LINE
5
3ab
100
AcDbEntity
8
1
100
AcDbLine
6
DOT2
62
6
10
2570.246926
20
-410.066735
11
2570.297198
21
-410.016464
0
LINE
5
3ac
100
AcDbEntity
8
1
100
AcDbLine
6
DOT2
62
6
10
2569.121831
20
-410.908987
11
2569.286295
21
-410.744524
0
LINE
5
3ad
100
AcDbEntity
8
1
100
AcDbLine
6
DOT2
62
6
10
2569.964083
20
-410.066735
11
2570.223438
21
-409.807381
0
LINE
5
3ae
100
AcDbEntity
8
1
100
AcDbLine
6
DOT2
62
6
10
2568.838989
20
-410.908987
11
2569.003452
21
-410.744524
0
LINE
5
3af
100
AcDbEntity
8
1
100
AcDbLine
6
DOT2
62
6
10
2569.681241
20
-410.066735
11
2570.083489
21
-409.664487
0
LINE
5
3b0
100
AcDbEntity
8
1
100
AcDbLine
6
DOT2
62
6
10
2568.556146
20
-410.908987
11
2568.968579
21
-410.496555
0
LINE
5
3b1
100
AcDbEntity
8
1
100
AcDbLine
6
DOT2
62
6
10
2569.398398
20
-410.066735
11
2569.577813
21
-409.887321
0
LINE
5
3b2
100
AcDbEntity
8
1
100
AcDbLine
6
DOT2
62
6
10
2568.273303
20
-410.908987
11
2568.437767
21
-410.744524
0
LINE
5
3b3
100
AcDbEntity
8
1
100
AcDbLine
6
DOT2
62
6
10
2568.629684
20
-410.552606
11
2568.968579
21
-410.213712
0
LINE
5
3b4
100
AcDbEntity
8
1
100
AcDbLine
6
DOT2
62
6
10
2569.115555
20
-410.066735
11
2569.294970
21
-409.887321
0
LINE
5
3b5
100
AcDbEntity
8
1
100
AcDbLine
6
DOT2
62
6
10
2567.990460
20
-410.908987
11
2568.154924
21
-410.744524
0
LINE
5
3b6
100
AcDbEntity
8
1
100
AcDbLine
6
DOT2
62
6
10
2568.629684
20
-410.269763
11
2569.012127
21
-409.887321
0
LINE
5
3b7
100
AcDbEntity
8
1
100
AcDbLine
6
DOT2
62
6
10
2567.707618
20
-410.908987
11
2567.872081
21
-410.744524
0
LINE
5
3b8
100
AcDbEntity
8
1
100
AcDbLine
6
DOT2
62
6
10
2568.549870
20
-410.066735
11
2568.968579
21
-409.648026
0
LINE
5
3b9
100
AcDbEntity
8
1
100
AcDbLine
6
DOT2
62
6
10
2569.142719
20
-409.473886
11
2569.143004
21
-409.473601
0
LINE
5
3ba
100
AcDbEntity
8
1
100
AcDbLine
6
DOT2
62
6
10
2567.424775
20
-410.908987
11
2567.589238
21
-410.744524
0
LINE
5
3bb
100
AcDbEntity
8
1
100
AcDbLine
6
DOT2
62
6
10
2568.267027
20
-410.066735
11
2568.446442
21
-409.887321
0
LINE
5
3bc
100
AcDbEntity
8
1
100
AcDbLine
6
DOT2
62
6
10
2568.629684
20
-409.704078
11
2569.008057
21
-409.325705
0
LINE
5
3bd
100
AcDbEntity
8
1
100
AcDbLine
6
DOT2
62
6
10
2567.141932
20
-410.908987
11
2567.306396
21
-410.744524
0
LINE
5
3be
100
AcDbEntity
8
1
100
AcDbLine
6
DOT2
62
6
10
2567.984184
20
-410.066735
11
2568.163599
21
-409.887321
0
LINE
5
3bf
100
AcDbEntity
8
1
100
AcDbLine
6
DOT2
62
6
10
2568.629684
20
-409.421235
11
2568.741713
21
-409.309207
0
LINE
5
3c0
100
AcDbEntity
8
1
100
AcDbLine
6
DOT2
62
6
10
2566.887965
20
-410.880112
11
2567.023553
21
-410.744524
0
LINE
5
3c1
100
AcDbEntity
8
1
100
AcDbLine
6
DOT2
62
6
10
2567.701342
20
-410.066735
11
2567.880756
21
-409.887321
0
LINE
5
3c2
100
AcDbEntity
8
1
100
AcDbLine
6
DOT2
62
6
10
2570.001073
20
-409.648435
11
2570.299635
21
-409.946997
0
LINE
5
3c3
100
AcDbEntity
8
1
100
AcDbLine
6
DOT2
62
6
10
2566.854521
20
-410.744524
11
2567.018985
21
-410.908987
0
LINE
5
3c4
100
AcDbEntity
8
1
100
AcDbLine
6
DOT2
62
6
10
2567.137364
20
-410.744524
11
2567.301827
21
-410.908987
0
LINE
5
3c5
100
AcDbEntity
8
1
100
AcDbLine
6
DOT2
62
6
10
2567.420207
20
-410.744524
11
2567.584670
21
-410.908987
0
LINE
5
3c6
100
AcDbEntity
8
1
100
AcDbLine
6
DOT2
62
6
10
2567.703049
20
-410.744524
11
2567.867513
21
-410.908987
0
LINE
5
3c7
100
AcDbEntity
8
1
100
AcDbLine
6
DOT2
62
6
10
2567.985892
20
-410.744524
11
2568.150355
21
-410.908987
0
LINE
5
3c8
100
AcDbEntity
8
1
100
AcDbLine
6
DOT2
62
6
10
2567.411531
20
-409.887321
11
2567.590946
21
-410.066735
0
LINE
5
3c9
100
AcDbEntity
8
1
100
AcDbLine
6
DOT2
62
6
10
2568.268735
20
-410.744524
11
2568.433198
21
-410.908987
0
LINE
5
3ca
100
AcDbEntity
8
1
100
AcDbLine
6
DOT2
62
6
10
2567.694374
20
-409.887321
11
2567.873789
21
-410.066735
0
LINE
5
3cb
100
AcDbEntity
8
1
100
AcDbLine
6
DOT2
62
6
10
2568.551577
20
-410.744524
11
2568.716041
21
-410.908987
0
LINE
5
3cc
100
AcDbEntity
8
1
100
AcDbLine
6
DOT2
62
6
10
2567.977217
20
-409.887321
11
2568.156632
21
-410.066735
0
LINE
5
3cd
100
AcDbEntity
8
1
100
AcDbLine
6
DOT2
62
6
10
2568.629684
20
-410.539788
11
2568.998884
21
-410.908987
0
LINE
5
3ce
100
AcDbEntity
8
1
100
AcDbLine
6
DOT2
62
6
10
2568.260060
20
-409.887321
11
2568.439474
21
-410.066735
0
LINE
5
3cf
100
AcDbEntity
8
1
100
AcDbLine
6
DOT2
62
6
10
2568.629684
20
-410.256945
11
2568.968579
21
-410.595840
0
LINE
5
3d0
100
AcDbEntity
8
1
100
AcDbLine
6
DOT2
62
6
10
2569.117263
20
-410.744524
11
2569.281726
21
-410.908987
0
LINE
5
3d1
100
AcDbEntity
8
1
100
AcDbLine
6
DOT2
62
6
10
2568.542902
20
-409.887321
11
2568.968579
21
-410.312997
0
LINE
5
3d2
100
AcDbEntity
8
1
100
AcDbLine
6
DOT2
62
6
10
2569.400106
20
-410.744524
11
2569.564569
21
-410.908987
0
LINE
5
3d3
100
AcDbEntity
8
1
100
AcDbLine
6
DOT2
62
6
10
2568.629684
20
-409.691260
11
2569.005160
21
-410.066735
0
LINE
5
3d4
100
AcDbEntity
8
1
100
AcDbLine
6
DOT2
62
6
10
2569.682948
20
-410.744524
11
2569.847412
21
-410.908987
0
LINE
5
3d5
100
AcDbEntity
8
1
100
AcDbLine
6
DOT2
62
6
10
2568.629684
20
-409.408417
11
2568.968579
21
-409.747312
0
LINE
5
3d6
100
AcDbEntity
8
1
100
AcDbLine
6
DOT2
62
6
10
2569.108588
20
-409.887321
11
2569.288002
21
-410.066735
0
LINE
5
3d7
100
AcDbEntity
8
1
100
AcDbLine
6
DOT2
62
6
10
2569.965791
20
-410.744524
11
2570.130254
21
-410.908987
0
LINE
5
3d8
100
AcDbEntity
8
1
100
AcDbLine
6
DOT2
62
6
10
2568.813317
20
-409.309207
11
2569.048206
21
-409.544096
0
LINE
5
3d9
100
AcDbEntity
8
1
100
AcDbLine
6
DOT2
62
6
10
2569.391430
20
-409.887321
11
2569.570845
21
-410.066735
0
LINE
5
3da
100
AcDbEntity
8
1
100
AcDbLine
6
DOT2
62
6
10
2570.248634
20
-410.744524
11
2570.413097
21
-410.908987
0
LINE
5
3db
100
AcDbEntity
8
1
100
AcDbLine
6
DOT2
62
6
10
2569.674273
20
-409.887321
11
2569.853688
21
-410.066735
0
LINE
5
3dc
100
AcDbEntity
8
1
100
AcDbLine
6
DOT2
62
6
10
2570.396223
20
-410.609271
11
2570.695940
21
-410.908987
0
LINE
5
3dd
100
AcDbEntity
8
1
100
AcDbLine
6
DOT2
62
6
10
2569.877532
20
-409.807737
11
2570.136530
21
-410.066735
0
LINE
5
3de
100
AcDbEntity
8
1
100
AcDbLine
6
DOT2
62
6
10
2570.537722
20
-410.467926
11
2570.809595
21
-410.739799
0
LINE
5
3df
100
AcDbEntity
8
1
100
AcDbLine
6
DOT2
62
6
10
2566.958579
20
-407.415386
11
2567.131764
21
-407.242201
0
LINE
5
3e0
100
AcDbEntity
8
1
100
AcDbLine
6
DOT2
62
6
10
2568.440197
20
-409.610723
11
2568.472697
21
-409.578223
0
LINE
5
3e1
100
AcDbEntity
8
1
100
AcDbLine
6
DOT2
62
6
10
2568.157354
20
-409.610723
11
2568.472697
21
-409.295380
0
LINE
5
3e2
100
AcDbEntity
8
1
100
AcDbLine
6
DOT2
62
6
10
2568.148753
20
-409.336481
11
2568.472697
21
-409.012538
0
LINE
5
3e3
100
AcDbEntity
8
1
100
AcDbLine
6
DOT2
62
6
10
2568.148753
20
-409.053638
11
2568.472697
21
-408.729695
0
LINE
5
3e4
100
AcDbEntity
8
1
100
AcDbLine
6
DOT2
62
6
10
2568.841341
20
-408.361050
11
2568.992673
21
-408.209718
0
LINE
5
3e5
100
AcDbEntity
8
1
100
AcDbLine
6
DOT2
62
6
10
2568.148753
20
-408.770795
11
2568.472697
21
-408.446852
0
LINE
5
3e6
100
AcDbEntity
8
1
100
AcDbLine
6
DOT2
62
6
10
2568.558498
20
-408.361050
11
2568.863117
21
-408.056432
0
LINE
5
3e7
100
AcDbEntity
8
1
100
AcDbLine
6
DOT2
62
6
10
2566.889662
20
-409.747044
11
2567.565219
21
-409.071487
0
LINE
5
3e8
100
AcDbEntity
8
1
100
AcDbLine
6
DOT2
62
6
10
2568.148753
20
-408.487953
11
2568.472697
21
-408.164009
0
LINE
5
3e9
100
AcDbEntity
8
1
100
AcDbLine
6
DOT2
62
6
10
2567.229882
20
-409.123981
11
2567.644715
21
-408.709148
0
LINE
5
3ea
100
AcDbEntity
8
1
100
AcDbLine
6
DOT2
62
6
10
2567.992813
20
-408.361050
11
2568.472697
21
-407.881167
0
LINE
5
3eb
100
AcDbEntity
8
1
100
AcDbLine
6
DOT2
62
6
10
2567.333389
20
-408.737632
11
2567.680696
21
-408.390325
0
LINE
5
3ec
100
AcDbEntity
8
1
100
AcDbLine
6
DOT2
62
6
10
2567.709970
20
-408.361050
11
2567.866958
21
-408.204063
0
LINE
5
3ed
100
AcDbEntity
8
1
100
AcDbLine
6
DOT2
62
6
10
2568.148753
20
-407.922267
11
2568.472697
21
-407.598324
0
LINE
5
3ee
100
AcDbEntity
8
1
100
AcDbLine
6
DOT2
62
6
10
2568.655635
20
-407.415386
11
2568.855318
21
-407.215702
0
LINE
5
3ef
100
AcDbEntity
8
1
100
AcDbLine
6
DOT2
62
6
10
2567.348863
20
-408.439315
11
2567.687758
21
-408.100420
0
LINE
5
3f0
100
AcDbEntity
8
1
100
AcDbLine
6
DOT2
62
6
10
2568.148753
20
-407.639424
11
2568.719107
21
-407.069071
0
LINE
5
3f1
100
AcDbEntity
8
1
100
AcDbLine
6
DOT2
62
6
10
2567.144285
20
-408.361050
11
2567.301273
21
-408.204063
0
LINE
5
3f2
100
AcDbEntity
8
1
100
AcDbLine
6
DOT2
62
6
10
2567.383749
20
-408.121586
11
2567.687758
21
-407.817578
0
LINE
5
3f3
100
AcDbEntity
8
1
100
AcDbLine
6
DOT2
62
6
10
2568.089949
20
-407.415386
11
2568.263134
21
-407.242201
0
LINE
5
3f4
100
AcDbEntity
8
1
100
AcDbLine
6
DOT2
62
6
10
2566.861442
20
-408.361050
11
2567.018430
21
-408.204063
0
LINE
5
3f5
100
AcDbEntity
8
1
100
AcDbLine
6
DOT2
62
6
10
2567.383749
20
-407.838743
11
2567.687758
21
-407.534735
0
LINE
5
3f6
100
AcDbEntity
8
1
100
AcDbLine
6
DOT2
62
6
10
2567.807107
20
-407.415386
11
2567.980292
21
-407.242201
0
LINE
5
3f7
100
AcDbEntity
8
1
100
AcDbLine
6
DOT2
62
6
10
2567.383749
20
-407.555900
11
2567.697449
21
-407.242201
0
LINE
5
3f8
100
AcDbEntity
8
1
100
AcDbLine
6
DOT2
62
6
10
2567.241421
20
-407.415386
11
2567.414606
21
-407.242201
0
LINE
5
3f9
100
AcDbEntity
8
1
100
AcDbLine
6
DOT2
62
6
10
2568.563933
20
-407.079924
11
2568.873116
21
-407.389107
0
LINE
5
3fa
100
AcDbEntity
8
1
100
AcDbLine
6
DOT2
62
6
10
2566.901535
20
-409.660167
11
2567.020513
21
-409.779145
0
LINE
5
3fb
100
AcDbEntity
8
1
100
AcDbLine
6
DOT2
62
6
10
2567.030265
20
-409.506054
11
2567.178049
21
-409.653839
0
LINE
5
3fc
100
AcDbEntity
8
1
100
AcDbLine
6
DOT2
62
6
10
2567.138025
20
-409.330972
11
2567.315983
21
-409.508929
0
LINE
5
3fd
100
AcDbEntity
8
1
100
AcDbLine
6
DOT2
62
6
10
2567.225463
20
-409.135566
11
2567.434107
21
-409.344211
0
LINE
5
3fe
100
AcDbEntity
8
1
100
AcDbLine
6
DOT2
62
6
10
2567.294372
20
-408.921633
11
2567.530976
21
-409.158237
0
LINE
5
3ff
100
AcDbEntity
8
1
100
AcDbLine
6
DOT2
62
6
10
2566.859644
20
-408.204063
11
2567.016632
21
-408.361050
0
LINE
5
400
100
AcDbEntity
8
1
100
AcDbLine
6
DOT2
62
6
10
2567.338767
20
-408.683186
11
2567.603391
21
-408.947809
0
LINE
5
401
100
AcDbEntity
8
1
100
AcDbLine
6
DOT2
62
6
10
2568.148753
20
-409.493172
11
2568.266305
21
-409.610723
0
LINE
5
402
100
AcDbEntity
8
1
100
AcDbLine
6
DOT2
62
6
10
2567.142487
20
-408.204063
11
2567.299475
21
-408.361050
0
LINE
5
403
100
AcDbEntity
8
1
100
AcDbLine
6
DOT2
62
6
10
2567.348863
20
-408.410439
11
2567.644945
21
-408.706520
0
LINE
5
404
100
AcDbEntity
8
1
100
AcDbLine
6
DOT2
62
6
10
2568.148753
20
-409.210329
11
2568.472697
21
-409.534272
0
LINE
5
405
100
AcDbEntity
8
1
100
AcDbLine
6
DOT2
62
6
10
2567.383749
20
-408.162482
11
2567.673649
21
-408.452382
0
LINE
5
406
100
AcDbEntity
8
1
100
AcDbLine
6
DOT2
62
6
10
2568.148753
20
-408.927486
11
2568.472697
21
-409.251430
0
LINE
5
407
100
AcDbEntity
8
1
100
AcDbLine
6
DOT2
62
6
10
2567.383749
20
-407.879640
11
2567.687758
21
-408.183648
0
LINE
5
408
100
AcDbEntity
8
1
100
AcDbLine
6
DOT2
62
6
10
2567.708172
20
-408.204063
11
2567.865160
21
-408.361050
0
LINE
5
409
100
AcDbEntity
8
1
100
AcDbLine
6
DOT2
62
6
10
2568.148753
20
-408.644644
11
2568.472697
21
-408.968587
0
LINE
5
40a
100
AcDbEntity
8
1
100
AcDbLine
6
DOT2
62
6
10
2567.029153
20
-407.242201
11
2567.202338
21
-407.415386
0
LINE
5
40b
100
AcDbEntity
8
1
100
AcDbLine
6
DOT2
62
6
10
2567.383749
20
-407.596797
11
2567.687758
21
-407.900805
0
LINE
5
40c
100
AcDbEntity
8
1
100
AcDbLine
6
DOT2
62
6
10
2567.991015
20
-408.204063
11
2568.148003
21
-408.361050
0
LINE
5
40d
100
AcDbEntity
8
1
100
AcDbLine
6
DOT2
62
6
10
2568.148753
20
-408.361801
11
2568.472697
21
-408.685744
0
LINE
5
40e
100
AcDbEntity
8
1
100
AcDbLine
6
DOT2
62
6
10
2567.311996
20
-407.242201
11
2567.687758
21
-407.617962
0
LINE
5
40f
100
AcDbEntity
8
1
100
AcDbLine
6
DOT2
62
6
10
2568.148753
20
-408.078958
11
2568.472697
21
-408.402901
0
LINE
5
410
100
AcDbEntity
8
1
100
AcDbLine
6
DOT2
62
6
10
2567.594839
20
-407.242201
11
2567.768024
21
-407.415386
0
LINE
5
411
100
AcDbEntity
8
1
100
AcDbLine
6
DOT2
62
6
10
2568.148753
20
-407.796116
11
2568.472697
21
-408.120059
0
LINE
5
412
100
AcDbEntity
8
1
100
AcDbLine
6
DOT2
62
6
10
2568.556700
20
-408.204063
11
2568.713688
21
-408.361050
0
LINE
5
413
100
AcDbEntity
8
1
100
AcDbLine
6
DOT2
62
6
10
2567.877681
20
-407.242201
11
2568.050866
21
-407.415386
0
LINE
5
414
100
AcDbEntity
8
1
100
AcDbLine
6
DOT2
62
6
10
2568.148753
20
-407.513273
11
2568.472697
21
-407.837216
0
LINE
5
415
100
AcDbEntity
8
1
100
AcDbLine
6
DOT2
62
6
10
2568.679158
20
-408.043678
11
2568.983066
21
-408.347586
0
LINE
5
416
100
AcDbEntity
8
1
100
AcDbLine
6
DOT2
62
6
10
2568.160524
20
-407.242201
11
2568.472697
21
-407.554373
0
LINE
5
417
100
AcDbEntity
8
1
100
AcDbLine
6
DOT2
62
6
10
2568.443367
20
-407.242201
11
2568.616552
21
-407.415386
0
LINE
5
418
100
AcDbEntity
8
1
100
AcDbLine
6
DOT2
62
6
10
2568.630158
20
-416.491829
11
2568.866581
21
-416.255407
0
LINE
5
419
100
AcDbEntity
8
1
100
AcDbLine
6
DOT2
62
6
10
2569.273867
20
-420.090761
11
2569.347554
21
-420.017074
0
LINE
5
41a
100
AcDbEntity
8
1
100
AcDbLine
6
DOT2
62
6
10
2570.426513
20
-418.938116
11
2570.537703
21
-418.826925
0
LINE
5
41b
100
AcDbEntity
8
1
100
AcDbLine
6
DOT2
62
6
10
2569.026924
20
-420.054862
11
2569.347554
21
-419.734231
0
LINE
5
41c
100
AcDbEntity
8
1
100
AcDbLine
6
DOT2
62
6
10
2570.143670
20
-418.938116
11
2570.410912
21
-418.670874
0
LINE
5
41d
100
AcDbEntity
8
1
100
AcDbLine
6
DOT2
62
6
10
2569.026924
20
-419.772019
11
2569.347554
21
-419.451389
0
LINE
5
41e
100
AcDbEntity
8
1
100
AcDbLine
6
DOT2
62
6
10
2569.860827
20
-418.938116
11
2570.015054
21
-418.783888
0
LINE
5
41f
100
AcDbEntity
8
1
100
AcDbLine
6
DOT2
62
6
10
2569.026924
20
-419.489176
11
2569.347554
21
-419.168546
0
LINE
5
420
100
AcDbEntity
8
1
100
AcDbLine
6
DOT2
62
6
10
2569.577984
20
-418.938116
11
2569.732212
21
-418.783888
0
LINE
5
421
100
AcDbEntity
8
1
100
AcDbLine
6
DOT2
62
6
10
2570.462762
20
-418.053338
11
2570.487547
21
-418.028553
0
LINE
5
422
100
AcDbEntity
8
1
100
AcDbLine
6
DOT2
62
6
10
2569.026924
20
-419.206334
11
2569.449369
21
-418.783888
0
LINE
5
423
100
AcDbEntity
8
1
100
AcDbLine
6
DOT2
62
6
10
2570.179919
20
-418.053338
11
2570.428865
21
-417.804392
0
LINE
5
424
100
AcDbEntity
8
1
100
AcDbLine
6
DOT2
62
6
10
2569.026924
20
-418.923491
11
2569.347554
21
-418.602861
0
LINE
5
425
100
AcDbEntity
8
1
100
AcDbLine
6
DOT2
62
6
10
2569.897076
20
-418.053338
11
2570.276556
21
-417.673858
0
LINE
5
426
100
AcDbEntity
8
1
100
AcDbLine
6
DOT2
62
6
10
2569.026924
20
-418.640648
11
2569.347554
21
-418.320018
0
LINE
5
427
100
AcDbEntity
8
1
100
AcDbLine
6
DOT2
62
6
10
2569.614234
20
-418.053338
11
2569.780637
21
-417.886935
0
LINE
5
428
100
AcDbEntity
8
1
100
AcDbLine
6
DOT2
62
6
10
2570.555831
20
-417.111740
11
2570.669204
21
-416.998368
0
LINE
5
429
100
AcDbEntity
8
1
100
AcDbLine
6
DOT2
62
6
10
2569.026924
20
-418.357805
11
2569.497794
21
-417.886935
0
LINE
5
42a
100
AcDbEntity
8
1
100
AcDbLine
6
DOT2
62
6
10
2570.272989
20
-417.111740
11
2570.537024
21
-416.847705
0
LINE
5
42b
100
AcDbEntity
8
1
100
AcDbLine
6
DOT2
62
6
10
2569.026924
20
-418.074963
11
2569.347554
21
-417.754332
0
LINE
5
42c
100
AcDbEntity
8
1
100
AcDbLine
6
DOT2
62
6
10
2569.990146
20
-417.111740
11
2570.124080
21
-416.977806
0
LINE
5
42d
100
AcDbEntity
8
1
100
AcDbLine
6
DOT2
62
6
10
2570.279750
20
-416.822136
11
2570.357450
21
-416.744436
0
LINE
5
42e
100
AcDbEntity
8
1
100
AcDbLine
6
DOT2
62
6
10
2569.026924
20
-417.792120
11
2569.347554
21
-417.471490
0
LINE
5
42f
100
AcDbEntity
8
1
100
AcDbLine
6
DOT2
62
6
10
2569.707303
20
-417.111740
11
2569.841238
21
-416.977806
0
LINE
5
430
100
AcDbEntity
8
1
100
AcDbLine
6
DOT2
62
6
10
2569.026924
20
-417.509277
11
2569.347554
21
-417.188647
0
LINE
5
431
100
AcDbEntity
8
1
100
AcDbLine
6
DOT2
62
6
10
2569.424461
20
-417.111740
11
2569.558395
21
-416.977806
0
LINE
5
432
100
AcDbEntity
8
1
100
AcDbLine
6
DOT2
62
6
10
2567.967740
20
-418.285618
11
2568.277475
21
-417.975883
0
LINE
5
433
100
AcDbEntity
8
1
100
AcDbLine
6
DOT2
62
6
10
2569.026924
20
-417.226435
11
2569.275552
21
-416.977806
0
LINE
5
434
100
AcDbEntity
8
1
100
AcDbLine
6
DOT2
62
6
10
2568.147284
20
-417.823232
11
2568.684458
21
-417.286057
0
LINE
5
435
100
AcDbEntity
8
1
100
AcDbLine
6
DOT2
62
6
10
2568.858775
20
-417.111740
11
2568.992709
21
-416.977806
0
LINE
5
436
100
AcDbEntity
8
1
100
AcDbLine
6
DOT2
62
6
10
2568.383291
20
-417.304382
11
2568.849254
21
-416.838419
0
LINE
5
437
100
AcDbEntity
8
1
100
AcDbLine
6
DOT2
62
6
10
2568.531770
20
-416.873060
11
2569.067227
21
-416.337603
0
LINE
5
438
100
AcDbEntity
8
1
100
AcDbLine
6
DOT2
62
6
10
2569.129691
20
-420.090761
11
2569.026924
21
-419.987994
0
LINE
5
439
100
AcDbEntity
8
1
100
AcDbLine
6
DOT2
62
6
10
2570.650446
20
-417.086033
11
2570.325898
21
-416.761485
0
LINE
5
43a
100
AcDbEntity
8
1
100
AcDbLine
6
DOT2
62
6
10
2570.393310
20
-417.111740
11
2570.203682
21
-416.922112
0
LINE
5
43b
100
AcDbEntity
8
1
100
AcDbLine
6
DOT2
62
6
10
2570.110468
20
-417.111740
11
2569.976534
21
-416.977806
0
LINE
5
43c
100
AcDbEntity
8
1
100
AcDbLine
6
DOT2
62
6
10
2569.827625
20
-417.111740
11
2569.693691
21
-416.977806
0
LINE
5
43d
100
AcDbEntity
8
1
100
AcDbLine
6
DOT2
62
6
10
2569.114184
20
-416.398299
11
2569.043953
21
-416.328068
0
LINE
5
43e
100
AcDbEntity
8
1
100
AcDbLine
6
DOT2
62
6
10
2570.477868
20
-418.044826
11
2570.164730
21
-417.731688
0
LINE
5
43f
100
AcDbEntity
8
1
100
AcDbLine
6
DOT2
62
6
10
2569.544782
20
-417.111740
11
2569.410848
21
-416.977806
0
LINE
5
440
100
AcDbEntity
8
1
100
AcDbLine
6
DOT2
62
6
10
2568.939731
20
-416.506689
11
2568.678263
21
-416.245221
0
LINE
5
441
100
AcDbEntity
8
1
100
AcDbLine
6
DOT2
62
6
10
2570.203538
20
-418.053338
11
2570.037134
21
-417.886935
0
LINE
5
442
100
AcDbEntity
8
1
100
AcDbLine
6
DOT2
62
6
10
2569.347554
20
-417.197355
11
2569.128005
21
-416.977806
0
LINE
5
443
100
AcDbEntity
8
1
100
AcDbLine
6
DOT2
62
6
10
2568.879423
20
-416.729224
11
2568.632286
21
-416.482087
0
LINE
5
444
100
AcDbEntity
8
1
100
AcDbLine
6
DOT2
62
6
10
2569.920695
20
-418.053338
11
2569.754292
21
-417.886935
0
LINE
5
445
100
AcDbEntity
8
1
100
AcDbLine
6
DOT2
62
6
10
2569.347554
20
-417.480197
11
2569.026924
21
-417.159567
0
LINE
5
446
100
AcDbEntity
8
1
100
AcDbLine
6
DOT2
62
6
10
2568.979097
20
-417.111740
11
2568.845163
21
-416.977806
0
LINE
5
447
100
AcDbEntity
8
1
100
AcDbLine
6
DOT2
62
6
10
2568.815205
20
-416.947848
11
2568.577469
21
-416.710113
0
LINE
5
448
100
AcDbEntity
8
1
100
AcDbLine
6
DOT2
62
6
10
2570.517449
20
-418.932935
11
2570.200238
21
-418.615725
0
LINE
5
449
100
AcDbEntity
8
1
100
AcDbLine
6
DOT2
62
6
10
2569.637852
20
-418.053338
11
2569.471449
21
-417.886935
0
LINE
5
44a
100
AcDbEntity
8
1
100
AcDbLine
6
DOT2
62
6
10
2569.347554
20
-417.763040
11
2569.026924
21
-417.442410
0
LINE
5
44b
100
AcDbEntity
8
1
100
AcDbLine
6
DOT2
62
6
10
2568.739760
20
-417.155247
11
2568.514494
21
-416.929980
0
LINE
5
44c
100
AcDbEntity
8
1
100
AcDbLine
6
DOT2
62
6
10
2570.239787
20
-418.938116
11
2570.077328
21
-418.775657
0
LINE
5
44d
100
AcDbEntity
8
1
100
AcDbLine
6
DOT2
62
6
10
2569.355009
20
-418.053338
11
2569.026924
21
-417.725253
0
LINE
5
44e
100
AcDbEntity
8
1
100
AcDbLine
6
DOT2
62
6
10
2568.654030
20
-417.352359
11
2568.443919
21
-417.142248
0
LINE
5
44f
100
AcDbEntity
8
1
100
AcDbLine
6
DOT2
62
6
10
2569.956944
20
-418.938116
11
2569.802717
21
-418.783888
0
LINE
5
450
100
AcDbEntity
8
1
100
AcDbLine
6
DOT2
62
6
10
2569.347554
20
-418.328726
11
2569.026924
21
-418.008095
0
LINE
5
451
100
AcDbEntity
8
1
100
AcDbLine
6
DOT2
62
6
10
2568.558729
20
-417.539900
11
2568.366206
21
-417.347378
0
LINE
5
452
100
AcDbEntity
8
1
100
AcDbLine
6
DOT2
62
6
10
2569.674101
20
-418.938116
11
2569.519874
21
-418.783888
0
LINE
5
453
100
AcDbEntity
8
1
100
AcDbLine
6
DOT2
62
6
10
2569.347554
20
-418.611568
11
2569.026924
21
-418.290938
0
LINE
5
454
100
AcDbEntity
8
1
100
AcDbLine
6
DOT2
62
6
10
2568.454397
20
-417.718411
11
2568.281739
21
-417.545753
0
LINE
5
455
100
AcDbEntity
8
1
100
AcDbLine
6
DOT2
62
6
10
2569.391259
20
-418.938116
11
2569.026924
21
-418.573781
0
LINE
5
456
100
AcDbEntity
8
1
100
AcDbLine
6
DOT2
62
6
10
2568.341440
20
-417.888297
11
2568.190836
21
-417.737693
0
LINE
5
457
100
AcDbEntity
8
1
100
AcDbLine
6
DOT2
62
6
10
2569.347554
20
-419.177254
11
2569.026924
21
-418.856623
0
LINE
5
458
100
AcDbEntity
8
1
100
AcDbLine
6
DOT2
62
6
10
2568.220155
20
-418.049855
11
2568.093766
21
-417.923466
0
LINE
5
459
100
AcDbEntity
8
1
100
AcDbLine
6
DOT2
62
6
10
2569.347554
20
-419.460096
11
2569.026924
21
-419.139466
0
LINE
5
45a
100
AcDbEntity
8
1
100
AcDbLine
6
DOT2
62
6
10
2568.090742
20
-418.203284
11
2567.990750
21
-418.103292
0
LINE
5
45b
100
AcDbEntity
8
1
100
AcDbLine
6
DOT2
62
6
10
2569.347554
20
-419.742939
11
2569.026924
21
-419.422309
0
LINE
5
45c
100
AcDbEntity
8
1
100
AcDbLine
6
DOT2
62
6
10
2569.347554
20
-420.025782
11
2569.026924
21
-419.705152
0
LINE
5
45d
100
AcDbEntity
8
1
100
AcDbLine
6
DOT2
62
6
10
2572.331486
20
-406.039151
11
2572.599132
21
-406.306797
0
LINE
5
45e
100
AcDbEntity
8
1
100
AcDbLine
6
DOT2
62
6
10
2572.299132
20
-413.643550
11
2572.599132
21
-413.943550
0
LINE
5
45f
100
AcDbEntity
8
1
100
AcDbLine
6
DOT2
62
6
10
2564.999132
20
-406.060707
11
2565.299132
21
-406.360707
0
LINE
5
460
100
AcDbEntity
8
1
100
AcDbLine
6
DOT2
62
6
10
2572.299132
20
-413.360707
11
2572.599132
21
-413.660707
0
LINE
5
461
100
AcDbEntity
8
1
100
AcDbLine
6
DOT2
62
6
10
2565.260418
20
-406.039151
11
2565.560418
21
-406.339151
0
LINE
5
462
100
AcDbEntity
8
1
100
AcDbLine
6
DOT2
62
6
10
2572.299132
20
-413.077865
11
2572.599132
21
-413.377865
0
LINE
5
463
100
AcDbEntity
8
1
100
AcDbLine
6
DOT2
62
6
10
2565.543261
20
-406.039151
11
2565.843261
21
-406.339151
0
LINE
5
464
100
AcDbEntity
8
1
100
AcDbLine
6
DOT2
62
6
10
2572.299132
20
-412.795022
11
2572.599132
21
-413.095022
0
LINE
5
465
100
AcDbEntity
8
1
100
AcDbLine
6
DOT2
62
6
10
2565.826103
20
-406.039151
11
2566.126103
21
-406.339151
0
LINE
5
466
100
AcDbEntity
8
1
100
AcDbLine
6
DOT2
62
6
10
2572.299132
20
-412.512179
11
2572.599132
21
-412.812179
0
LINE
5
467
100
AcDbEntity
8
1
100
AcDbLine
6
DOT2
62
6
10
2566.108946
20
-406.039151
11
2566.408946
21
-406.339151
0
LINE
5
468
100
AcDbEntity
8
1
100
AcDbLine
6
DOT2
62
6
10
2572.299132
20
-412.229336
11
2572.599132
21
-412.529336
0
LINE
5
469
100
AcDbEntity
8
1
100
AcDbLine
6
DOT2
62
6
10
2566.391789
20
-406.039151
11
2566.691789
21
-406.339151
0
LINE
5
46a
100
AcDbEntity
8
1
100
AcDbLine
6
DOT2
62
6
10
2572.299132
20
-411.946494
11
2572.599132
21
-412.246494
0
LINE
5
46b
100
AcDbEntity
8
1
100
AcDbLine
6
DOT2
62
6
10
2566.674631
20
-406.039151
11
2566.974631
21
-406.339151
0
LINE
5
46c
100
AcDbEntity
8
1
100
AcDbLine
6
DOT2
62
6
10
2572.299132
20
-411.663651
11
2572.599132
21
-411.963651
0
LINE
5
46d
100
AcDbEntity
8
1
100
AcDbLine
6
DOT2
62
6
10
2566.957474
20
-406.039151
11
2567.257474
21
-406.339151
0
LINE
5
46e
100
AcDbEntity
8
1
100
AcDbLine
6
DOT2
62
6
10
2572.299132
20
-411.380808
11
2572.599132
21
-411.680808
0
LINE
5
46f
100
AcDbEntity
8
1
100
AcDbLine
6
DOT2
62
6
10
2567.240317
20
-406.039151
11
2567.540317
21
-406.339151
0
LINE
5
470
100
AcDbEntity
8
1
100
AcDbLine
6
DOT2
62
6
10
2572.299132
20
-411.097966
11
2572.599132
21
-411.397966
0
LINE
5
471
100
AcDbEntity
8
1
100
AcDbLine
6
DOT2
62
6
10
2567.523160
20
-406.039151
11
2567.823160
21
-406.339151
0
LINE
5
472
100
AcDbEntity
8
1
100
AcDbLine
6
DOT2
62
6
10
2572.299132
20
-410.815123
11
2572.599132
21
-411.115123
0
LINE
5
473
100
AcDbEntity
8
1
100
AcDbLine
6
DOT2
62
6
10
2567.806002
20
-406.039151
11
2568.106002
21
-406.339151
0
LINE
5
474
100
AcDbEntity
8
1
100
AcDbLine
6
DOT2
62
6
10
2572.299132
20
-410.532280
11
2572.599132
21
-410.832280
0
LINE
5
475
100
AcDbEntity
8
1
100
AcDbLine
6
DOT2
62
6
10
2568.088845
20
-406.039151
11
2568.388845
21
-406.339151
0
LINE
5
476
100
AcDbEntity
8
1
100
AcDbLine
6
DOT2
62
6
10
2572.299132
20
-410.249437
11
2572.599132
21
-410.549437
0
LINE
5
477
100
AcDbEntity
8
1
100
AcDbLine
6
DOT2
62
6
10
2568.371688
20
-406.039151
11
2568.671688
21
-406.339151
0
LINE
5
478
100
AcDbEntity
8
1
100
AcDbLine
6
DOT2
62
6
10
2572.299132
20
-409.966595
11
2572.599132
21
-410.266595
0
LINE
5
479
100
AcDbEntity
8
1
100
AcDbLine
6
DOT2
62
6
10
2568.654530
20
-406.039151
11
2568.954530
21
-406.339151
0
LINE
5
47a
100
AcDbEntity
8
1
100
AcDbLine
6
DOT2
62
6
10
2572.299132
20
-409.683752
11
2572.599132
21
-409.983752
0
LINE
5
47b
100
AcDbEntity
8
1
100
AcDbLine
6
DOT2
62
6
10
2568.937373
20
-406.039151
11
2569.237373
21
-406.339151
0
LINE
5
47c
100
AcDbEntity
8
1
100
AcDbLine
6
DOT2
62
6
10
2572.299132
20
-409.400909
11
2572.599132
21
-409.700909
0
LINE
5
47d
100
AcDbEntity
8
1
100
AcDbLine
6
DOT2
62
6
10
2569.220216
20
-406.039151
11
2569.520216
21
-406.339151
0
LINE
5
47e
100
AcDbEntity
8
1
100
AcDbLine
6
DOT2
62
6
10
2572.299132
20
-409.118067
11
2572.599132
21
-409.418067
0
LINE
5
47f
100
AcDbEntity
8
1
100
AcDbLine
6
DOT2
62
6
10
2569.503059
20
-406.039151
11
2569.803059
21
-406.339151
0
LINE
5
480
100
AcDbEntity
8
1
100
AcDbLine
6
DOT2
62
6
10
2572.299132
20
-408.835224
11
2572.599132
21
-409.135224
0
LINE
5
481
100
AcDbEntity
8
1
100
AcDbLine
6
DOT2
62
6
10
2569.785901
20
-406.039151
11
2570.085901
21
-406.339151
0
LINE
5
482
100
AcDbEntity
8
1
100
AcDbLine
6
DOT2
62
6
10
2572.299132
20
-408.552381
11
2572.599132
21
-408.852381
0
LINE
5
483
100
AcDbEntity
8
1
100
AcDbLine
6
DOT2
62
6
10
2570.068744
20
-406.039151
11
2570.368744
21
-406.339151
0
LINE
5
484
100
AcDbEntity
8
1
100
AcDbLine
6
DOT2
62
6
10
2572.299132
20
-408.269538
11
2572.599132
21
-408.569538
0
LINE
5
485
100
AcDbEntity
8
1
100
AcDbLine
6
DOT2
62
6
10
2570.351587
20
-406.039151
11
2570.651587
21
-406.339151
0
LINE
5
486
100
AcDbEntity
8
1
100
AcDbLine
6
DOT2
62
6
10
2572.299132
20
-407.986696
11
2572.599132
21
-408.286696
0
LINE
5
487
100
AcDbEntity
8
1
100
AcDbLine
6
DOT2
62
6
10
2570.634429
20
-406.039151
11
2570.934429
21
-406.339151
0
LINE
5
488
100
AcDbEntity
8
1
100
AcDbLine
6
DOT2
62
6
10
2572.299132
20
-407.703853
11
2572.599132
21
-408.003853
0
LINE
5
489
100
AcDbEntity
8
1
100
AcDbLine
6
DOT2
62
6
10
2570.917272
20
-406.039151
11
2571.217272
21
-406.339151
0
LINE
5
48a
100
AcDbEntity
8
1
100
AcDbLine
6
DOT2
62
6
10
2572.299132
20
-407.421010
11
2572.599132
21
-407.721010
0
LINE
5
48b
100
AcDbEntity
8
1
100
AcDbLine
6
DOT2
62
6
10
2571.200115
20
-406.039151
11
2571.500115
21
-406.339151
0
LINE
5
48c
100
AcDbEntity
8
1
100
AcDbLine
6
DOT2
62
6
10
2572.299132
20
-407.138168
11
2572.599132
21
-407.438168
0
LINE
5
48d
100
AcDbEntity
8
1
100
AcDbLine
6
DOT2
62
6
10
2571.482958
20
-406.039151
11
2571.782958
21
-406.339151
0
LINE
5
48e
100
AcDbEntity
8
1
100
AcDbLine
6
DOT2
62
6
10
2572.299132
20
-406.855325
11
2572.599132
21
-407.155325
0
LINE
5
48f
100
AcDbEntity
8
1
100
AcDbLine
6
DOT2
62
6
10
2571.765800
20
-406.039151
11
2572.065800
21
-406.339151
0
LINE
5
490
100
AcDbEntity
8
1
100
AcDbLine
6
DOT2
62
6
10
2572.299132
20
-406.572482
11
2572.599132
21
-406.872482
0
LINE
5
491
100
AcDbEntity
8
1
100
AcDbLine
6
DOT2
62
6
10
2572.048643
20
-406.039151
11
2572.599132
21
-406.589639
0
LINE
5
492
100
AcDbEntity
8
1
100
AcDbLine
6
DOT2
62
6
10
2564.999132
20
-406.343550
11
2565.299132
21
-406.643550
0
LINE
5
493
100
AcDbEntity
8
1
100
AcDbLine
6
DOT2
62
6
10
2564.999132
20
-420.768528
11
2565.269754
21
-421.039151
0
LINE
5
494
100
AcDbEntity
8
1
100
AcDbLine
6
DOT2
62
6
10
2564.999132
20
-420.485686
11
2565.552597
21
-421.039151
0
LINE
5
495
100
AcDbEntity
8
1
100
AcDbLine
6
DOT2
62
6
10
2564.999132
20
-420.202843
11
2565.299132
21
-420.502843
0
LINE
5
496
100
AcDbEntity
8
1
100
AcDbLine
6
DOT2
62
6
10
2565.535440
20
-420.739151
11
2565.835440
21
-421.039151
0
LINE
5
497
100
AcDbEntity
8
1
100
AcDbLine
6
DOT2
62
6
10
2564.999132
20
-419.920000
11
2565.299132
21
-420.220000
0
LINE
5
498
100
AcDbEntity
8
1
100
AcDbLine
6
DOT2
62
6
10
2565.818282
20
-420.739151
11
2566.118282
21
-421.039151
0
LINE
5
499
100
AcDbEntity
8
1
100
AcDbLine
6
DOT2
62
6
10
2564.999132
20
-419.637157
11
2565.299132
21
-419.937157
0
LINE
5
49a
100
AcDbEntity
8
1
100
AcDbLine
6
DOT2
62
6
10
2566.101125
20
-420.739151
11
2566.401125
21
-421.039151
0
LINE
5
49b
100
AcDbEntity
8
1
100
AcDbLine
6
DOT2
62
6
10
2564.999132
20
-419.354315
11
2565.299132
21
-419.654315
0
LINE
5
49c
100
AcDbEntity
8
1
100
AcDbLine
6
DOT2
62
6
10
2566.383968
20
-420.739151
11
2566.683968
21
-421.039151
0
LINE
5
49d
100
AcDbEntity
8
1
100
AcDbLine
6
DOT2
62
6
10
2564.999132
20
-419.071472
11
2565.299132
21
-419.371472
0
LINE
5
49e
100
AcDbEntity
8
1
100
AcDbLine
6
DOT2
62
6
10
2566.666810
20
-420.739151
11
2566.966810
21
-421.039151
0
LINE
5
49f
100
AcDbEntity
8
1
100
AcDbLine
6
DOT2
62
6
10
2564.999132
20
-418.788629
11
2565.299132
21
-419.088629
0
LINE
5
4a0
100
AcDbEntity
8
1
100
AcDbLine
6
DOT2
62
6
10
2566.949653
20
-420.739151
11
2567.249653
21
-421.039151
0
LINE
5
4a1
100
AcDbEntity
8
1
100
AcDbLine
6
DOT2
62
6
10
2564.999132
20
-418.505787
11
2565.299132
21
-418.805787
0
LINE
5
4a2
100
AcDbEntity
8
1
100
AcDbLine
6
DOT2
62
6
10
2567.232496
20
-420.739151
11
2567.532496
21
-421.039151
0
LINE
5
4a3
100
AcDbEntity
8
1
100
AcDbLine
6
DOT2
62
6
10
2564.999132
20
-418.222944
11
2565.299132
21
-418.522944
0
LINE
5
4a4
100
AcDbEntity
8
1
100
AcDbLine
6
DOT2
62
6
10
2567.515338
20
-420.739151
11
2567.815338
21
-421.039151
0
LINE
5
4a5
100
AcDbEntity
8
1
100
AcDbLine
6
DOT2
62
6
10
2564.999132
20
-417.940101
11
2565.299132
21
-418.240101
0
LINE
5
4a6
100
AcDbEntity
8
1
100
AcDbLine
6
DOT2
62
6
10
2567.798181
20
-420.739151
11
2568.098181
21
-421.039151
0
LINE
5
4a7
100
AcDbEntity
8
1
100
AcDbLine
6
DOT2
62
6
10
2564.999132
20
-417.657258
11
2565.299132
21
-417.957258
0
LINE
5
4a8
100
AcDbEntity
8
1
100
AcDbLine
6
DOT2
62
6
10
2568.081024
20
-420.739151
11
2568.381024
21
-421.039151
0
LINE
5
4a9
100
AcDbEntity
8
1
100
AcDbLine
6
DOT2
62
6
10
2564.999132
20
-417.374416
11
2565.299132
21
-417.674416
0
LINE
5
4aa
100
AcDbEntity
8
1
100
AcDbLine
6
DOT2
62
6
10
2568.363867
20
-420.739151
11
2568.663867
21
-421.039151
0
LINE
5
4ab
100
AcDbEntity
8
1
100
AcDbLine
6
DOT2
62
6
10
2564.999132
20
-417.091573
11
2565.299132
21
-417.391573
0
LINE
5
4ac
100
AcDbEntity
8
1
100
AcDbLine
6
DOT2
62
6
10
2568.646709
20
-420.739151
11
2568.946709
21
-421.039151
0
LINE
5
4ad
100
AcDbEntity
8
1
100
AcDbLine
6
DOT2
62
6
10
2564.999132
20
-416.808730
11
2565.299132
21
-417.108730
0
LINE
5
4ae
100
AcDbEntity
8
1
100
AcDbLine
6
DOT2
62
6
10
2568.929552
20
-420.739151
11
2569.229552
21
-421.039151
0
LINE
5
4af
100
AcDbEntity
8
1
100
AcDbLine
6
DOT2
62
6
10
2564.999132
20
-416.525888
11
2565.299132
21
-416.825888
0
LINE
5
4b0
100
AcDbEntity
8
1
100
AcDbLine
6
DOT2
62
6
10
2569.212395
20
-420.739151
11
2569.512395
21
-421.039151
0
LINE
5
4b1
100
AcDbEntity
8
1
100
AcDbLine
6
DOT2
62
6
10
2564.999132
20
-416.243045
11
2565.299132
21
-416.543045
0
LINE
5
4b2
100
AcDbEntity
8
1
100
AcDbLine
6
DOT2
62
6
10
2569.495237
20
-420.739151
11
2569.795237
21
-421.039151
0
LINE
5
4b3
100
AcDbEntity
8
1
100
AcDbLine
6
DOT2
62
6
10
2564.999132
20
-415.960202
11
2565.299132
21
-416.260202
0
LINE
5
4b4
100
AcDbEntity
8
1
100
AcDbLine
6
DOT2
62
6
10
2569.778080
20
-420.739151
11
2570.078080
21
-421.039151
0
LINE
5
4b5
100
AcDbEntity
8
1
100
AcDbLine
6
DOT2
62
6
10
2564.999132
20
-415.677359
11
2565.299132
21
-415.977359
0
LINE
5
4b6
100
AcDbEntity
8
1
100
AcDbLine
6
DOT2
62
6
10
2570.060923
20
-420.739151
11
2570.360923
21
-421.039151
0
LINE
5
4b7
100
AcDbEntity
8
1
100
AcDbLine
6
DOT2
62
6
10
2564.999132
20
-415.394517
11
2565.299132
21
-415.694517
0
LINE
5
4b8
100
AcDbEntity
8
1
100
AcDbLine
6
DOT2
62
6
10
2570.343766
20
-420.739151
11
2570.643766
21
-421.039151
0
LINE
5
4b9
100
AcDbEntity
8
1
100
AcDbLine
6
DOT2
62
6
10
2564.999132
20
-415.111674
11
2565.299132
21
-415.411674
0
LINE
5
4ba
100
AcDbEntity
8
1
100
AcDbLine
6
DOT2
62
6
10
2570.626608
20
-420.739151
11
2570.926608
21
-421.039151
0
LINE
5
4bb
100
AcDbEntity
8
1
100
AcDbLine
6
DOT2
62
6
10
2564.999132
20
-414.828831
11
2565.299132
21
-415.128831
0
LINE
5
4bc
100
AcDbEntity
8
1
100
AcDbLine
6
DOT2
62
6
10
2570.909451
20
-420.739151
11
2571.209451
21
-421.039151
0
LINE
5
4bd
100
AcDbEntity
8
1
100
AcDbLine
6
DOT2
62
6
10
2564.999132
20
-414.545989
11
2565.299132
21
-414.845989
0
LINE
5
4be
100
AcDbEntity
8
1
100
AcDbLine
6
DOT2
62
6
10
2571.192294
20
-420.739151
11
2571.492294
21
-421.039151
0
LINE
5
4bf
100
AcDbEntity
8
1
100
AcDbLine
6
DOT2
62
6
10
2564.999132
20
-414.263146
11
2565.299132
21
-414.563146
0
LINE
5
4c0
100
AcDbEntity
8
1
100
AcDbLine
6
DOT2
62
6
10
2571.475136
20
-420.739151
11
2571.775136
21
-421.039151
0
LINE
5
4c1
100
AcDbEntity
8
1
100
AcDbLine
6
DOT2
62
6
10
2564.999132
20
-413.980303
11
2565.299132
21
-414.280303
0
LINE
5
4c2
100
AcDbEntity
8
1
100
AcDbLine
6
DOT2
62
6
10
2571.757979
20
-420.739151
11
2572.057979
21
-421.039151
0
LINE
5
4c3
100
AcDbEntity
8
1
100
AcDbLine
6
DOT2
62
6
10
2564.999132
20
-413.697460
11
2565.299132
21
-413.997460
0
LINE
5
4c4
100
AcDbEntity
8
1
100
AcDbLine
6
DOT2
62
6
10
2572.040822
20
-420.739151
11
2572.340822
21
-421.039151
0
LINE
5
4c5
100
AcDbEntity
8
1
100
AcDbLine
6
DOT2
62
6
10
2564.999132
20
-413.414618
11
2565.299132
21
-413.714618
0
LINE
5
4c6
100
AcDbEntity
8
1
100
AcDbLine
6
DOT2
62
6
10
2572.299132
20
-420.714618
11
2572.599132
21
-421.014618
0
LINE
5
4c7
100
AcDbEntity
8
1
100
AcDbLine
6
DOT2
62
6
10
2564.999132
20
-413.131775
11
2565.299132
21
-413.431775
0
LINE
5
4c8
100
AcDbEntity
8
1
100
AcDbLine
6
DOT2
62
6
10
2572.299132
20
-420.431775
11
2572.599132
21
-420.731775
0
LINE
5
4c9
100
AcDbEntity
8
1
100
AcDbLine
6
DOT2
62
6
10
2564.999132
20
-412.848932
11
2565.299132
21
-413.148932
0
LINE
5
4ca
100
AcDbEntity
8
1
100
AcDbLine
6
DOT2
62
6
10
2572.299132
20
-420.148932
11
2572.599132
21
-420.448932
0
LINE
5
4cb
100
AcDbEntity
8
1
100
AcDbLine
6
DOT2
62
6
10
2564.999132
20
-412.566090
11
2565.299132
21
-412.866090
0
LINE
5
4cc
100
AcDbEntity
8
1
100
AcDbLine
6
DOT2
62
6
10
2572.299132
20
-419.866090
11
2572.599132
21
-420.166090
0
LINE
5
4cd
100
AcDbEntity
8
1
100
AcDbLine
6
DOT2
62
6
10
2564.999132
20
-412.283247
11
2565.299132
21
-412.583247
0
LINE
5
4ce
100
AcDbEntity
8
1
100
AcDbLine
6
DOT2
62
6
10
2572.299132
20
-419.583247
11
2572.599132
21
-419.883247
0
LINE
5
4cf
100
AcDbEntity
8
1
100
AcDbLine
6
DOT2
62
6
10
2564.999132
20
-412.000404
11
2565.299132
21
-412.300404
0
LINE
5
4d0
100
AcDbEntity
8
1
100
AcDbLine
6
DOT2
62
6
10
2572.299132
20
-419.300404
11
2572.599132
21
-419.600404
0
LINE
5
4d1
100
AcDbEntity
8
1
100
AcDbLine
6
DOT2
62
6
10
2564.999132
20
-411.717561
11
2565.299132
21
-412.017561
0
LINE
5
4d2
100
AcDbEntity
8
1
100
AcDbLine
6
DOT2
62
6
10
2572.299132
20
-419.017561
11
2572.599132
21
-419.317561
0
LINE
5
4d3
100
AcDbEntity
8
1
100
AcDbLine
6
DOT2
62
6
10
2564.999132
20
-411.434719
11
2565.299132
21
-411.734719
0
LINE
5
4d4
100
AcDbEntity
8
1
100
AcDbLine
6
DOT2
62
6
10
2572.299132
20
-418.734719
11
2572.599132
21
-419.034719
0
LINE
5
4d5
100
AcDbEntity
8
1
100
AcDbLine
6
DOT2
62
6
10
2564.999132
20
-411.151876
11
2565.299132
21
-411.451876
0
LINE
5
4d6
100
AcDbEntity
8
1
100
AcDbLine
6
DOT2
62
6
10
2572.299132
20
-418.451876
11
2572.599132
21
-418.751876
0
LINE
5
4d7
100
AcDbEntity
8
1
100
AcDbLine
6
DOT2
62
6
10
2564.999132
20
-410.869033
11
2565.299132
21
-411.169033
0
LINE
5
4d8
100
AcDbEntity
8
1
100
AcDbLine
6
DOT2
62
6
10
2572.299132
20
-418.169033
11
2572.599132
21
-418.469033
0
LINE
5
4d9
100
AcDbEntity
8
1
100
AcDbLine
6
DOT2
62
6
10
2564.999132
20
-410.586191
11
2565.299132
21
-410.886191
0
LINE
5
4da
100
AcDbEntity
8
1
100
AcDbLine
6
DOT2
62
6
10
2572.299132
20
-417.886191
11
2572.599132
21
-418.186191
0
LINE
5
4db
100
AcDbEntity
8
1
100
AcDbLine
6
DOT2
62
6
10
2564.999132
20
-410.303348
11
2565.299132
21
-410.603348
0
LINE
5
4dc
100
AcDbEntity
8
1
100
AcDbLine
6
DOT2
62
6
10
2572.299132
20
-417.603348
11
2572.599132
21
-417.903348
0
LINE
5
4dd
100
AcDbEntity
8
1
100
AcDbLine
6
DOT2
62
6
10
2564.999132
20
-410.020505
11
2565.299132
21
-410.320505
0
LINE
5
4de
100
AcDbEntity
8
1
100
AcDbLine
6
DOT2
62
6
10
2572.299132
20
-417.320505
11
2572.599132
21
-417.620505
0
LINE
5
4df
100
AcDbEntity
8
1
100
AcDbLine
6
DOT2
62
6
10
2564.999132
20
-409.737662
11
2565.299132
21
-410.037662
0
LINE
5
4e0
100
AcDbEntity
8
1
100
AcDbLine
6
DOT2
62
6
10
2572.299132
20
-417.037662
11
2572.599132
21
-417.337662
0
LINE
5
4e1
100
AcDbEntity
8
1
100
AcDbLine
6
DOT2
62
6
10
2564.999132
20
-409.454820
11
2565.299132
21
-409.754820
0
LINE
5
4e2
100
AcDbEntity
8
1
100
AcDbLine
6
DOT2
62
6
10
2572.299132
20
-416.754820
11
2572.599132
21
-417.054820
0
LINE
5
4e3
100
AcDbEntity
8
1
100
AcDbLine
6
DOT2
62
6
10
2564.999132
20
-409.171977
11
2565.299132
21
-409.471977
0
LINE
5
4e4
100
AcDbEntity
8
1
100
AcDbLine
6
DOT2
62
6
10
2572.299132
20
-416.471977
11
2572.599132
21
-416.771977
0
LINE
5
4e5
100
AcDbEntity
8
1
100
AcDbLine
6
DOT2
62
6
10
2564.999132
20
-408.889134
11
2565.299132
21
-409.189134
0
LINE
5
4e6
100
AcDbEntity
8
1
100
AcDbLine
6
DOT2
62
6
10
2572.299132
20
-416.189134
11
2572.599132
21
-416.489134
0
LINE
5
4e7
100
AcDbEntity
8
1
100
AcDbLine
6
DOT2
62
6
10
2564.999132
20
-408.606292
11
2565.299132
21
-408.906292
0
LINE
5
4e8
100
AcDbEntity
8
1
100
AcDbLine
6
DOT2
62
6
10
2572.299132
20
-415.906292
11
2572.599132
21
-416.206292
0
LINE
5
4e9
100
AcDbEntity
8
1
100
AcDbLine
6
DOT2
62
6
10
2564.999132
20
-408.323449
11
2565.299132
21
-408.623449
0
LINE
5
4ea
100
AcDbEntity
8
1
100
AcDbLine
6
DOT2
62
6
10
2572.299132
20
-415.623449
11
2572.599132
21
-415.923449
0
LINE
5
4eb
100
AcDbEntity
8
1
100
AcDbLine
6
DOT2
62
6
10
2564.999132
20
-408.040606
11
2565.299132
21
-408.340606
0
LINE
5
4ec
100
AcDbEntity
8
1
100
AcDbLine
6
DOT2
62
6
10
2572.299132
20
-415.340606
11
2572.599132
21
-415.640606
0
LINE
5
4ed
100
AcDbEntity
8
1
100
AcDbLine
6
DOT2
62
6
10
2564.999132
20
-407.757763
11
2565.299132
21
-408.057763
0
LINE
5
4ee
100
AcDbEntity
8
1
100
AcDbLine
6
DOT2
62
6
10
2572.299132
20
-415.057763
11
2572.599132
21
-415.357763
0
LINE
5
4ef
100
AcDbEntity
8
1
100
AcDbLine
6
DOT2
62
6
10
2564.999132
20
-407.474921
11
2565.299132
21
-407.774921
0
LINE
5
4f0
100
AcDbEntity
8
1
100
AcDbLine
6
DOT2
62
6
10
2572.299132
20
-414.774921
11
2572.599132
21
-415.074921
0
LINE
5
4f1
100
AcDbEntity
8
1
100
AcDbLine
6
DOT2
62
6
10
2564.999132
20
-407.192078
11
2565.299132
21
-407.492078
0
LINE
5
4f2
100
AcDbEntity
8
1
100
AcDbLine
6
DOT2
62
6
10
2572.299132
20
-414.492078
11
2572.599132
21
-414.792078
0
LINE
5
4f3
100
AcDbEntity
8
1
100
AcDbLine
6
DOT2
62
6
10
2564.999132
20
-406.909235
11
2565.299132
21
-407.209235
0
LINE
5
4f4
100
AcDbEntity
8
1
100
AcDbLine
6
DOT2
62
6
10
2572.299132
20
-414.209235
11
2572.599132
21
-414.509235
0
LINE
5
4f5
100
AcDbEntity
8
1
100
AcDbLine
6
DOT2
62
6
10
2564.999132
20
-406.626393
11
2565.299132
21
-406.926393
0
LINE
5
4f6
100
AcDbEntity
8
1
100
AcDbLine
6
DOT2
62
6
10
2572.299132
20
-413.926393
11
2572.599132
21
-414.226393
0
LINE
5
4f7
100
AcDbEntity
8
1
100
AcDbLine
6
DOT2
62
6
10
2564.999132
20
-406.263563
11
2565.223544
21
-406.039151
0
LINE
5
4f8
100
AcDbEntity
8
1
100
AcDbLine
6
DOT2
62
6
10
2564.999132
20
-413.900316
11
2565.299132
21
-413.600316
0
LINE
5
4f9
100
AcDbEntity
8
1
100
AcDbLine
6
DOT2
62
6
10
2572.299132
20
-406.600316
11
2572.599132
21
-406.300316
0
LINE
5
4fa
100
AcDbEntity
8
1
100
AcDbLine
6
DOT2
62
6
10
2564.999132
20
-413.617474
11
2565.299132
21
-413.317474
0
LINE
5
4fb
100
AcDbEntity
8
1
100
AcDbLine
6
DOT2
62
6
10
2572.277454
20
-406.339151
11
2572.577454
21
-406.039151
0
LINE
5
4fc
100
AcDbEntity
8
1
100
AcDbLine
6
DOT2
62
6
10
2564.999132
20
-413.334631
11
2565.299132
21
-413.034631
0
LINE
5
4fd
100
AcDbEntity
8
1
100
AcDbLine
6
DOT2
62
6
10
2571.994612
20
-406.339151
11
2572.294612
21
-406.039151
0
LINE
5
4fe
100
AcDbEntity
8
1
100
AcDbLine
6
DOT2
62
6
10
2564.999132
20
-413.051788
11
2565.299132
21
-412.751788
0
LINE
5
4ff
100
AcDbEntity
8
1
100
AcDbLine
6
DOT2
62
6
10
2571.711769
20
-406.339151
11
2572.011769
21
-406.039151
0
LINE
5
500
100
AcDbEntity
8
1
100
AcDbLine
6
DOT2
62
6
10
2564.999132
20
-412.768945
11
2565.299132
21
-412.468945
0
LINE
5
501
100
AcDbEntity
8
1
100
AcDbLine
6
DOT2
62
6
10
2571.428926
20
-406.339151
11
2571.728926
21
-406.039151
0
LINE
5
502
100
AcDbEntity
8
1
100
AcDbLine
6
DOT2
62
6
10
2564.999132
20
-412.486103
11
2565.299132
21
-412.186103
0
LINE
5
503
100
AcDbEntity
8
1
100
AcDbLine
6
DOT2
62
6
10
2571.146083
20
-406.339151
11
2571.446083
21
-406.039151
0
LINE
5
504
100
AcDbEntity
8
1
100
AcDbLine
6
DOT2
62
6
10
2564.999132
20
-412.203260
11
2565.299132
21
-411.903260
0
LINE
5
505
100
AcDbEntity
8
1
100
AcDbLine
6
DOT2
62
6
10
2570.863241
20
-406.339151
11
2571.163241
21
-406.039151
0
LINE
5
506
100
AcDbEntity
8
1
100
AcDbLine
6
DOT2
62
6
10
2564.999132
20
-411.920417
11
2565.299132
21
-411.620417
0
LINE
5
507
100
AcDbEntity
8
1
100
AcDbLine
6
DOT2
62
6
10
2570.580398
20
-406.339151
11
2570.880398
21
-406.039151
0
LINE
5
508
100
AcDbEntity
8
1
100
AcDbLine
6
DOT2
62
6
10
2564.999132
20
-411.637575
11
2565.299132
21
-411.337575
0
LINE
5
509
100
AcDbEntity
8
1
100
AcDbLine
6
DOT2
62
6
10
2570.297555
20
-406.339151
11
2570.597555
21
-406.039151
0
LINE
5
50a
100
AcDbEntity
8
1
100
AcDbLine
6
DOT2
62
6
10
2564.999132
20
-411.354732
11
2565.299132
21
-411.054732
0
LINE
5
50b
100
AcDbEntity
8
1
100
AcDbLine
6
DOT2
62
6
10
2570.014713
20
-406.339151
11
2570.314713
21
-406.039151
0
LINE
5
50c
100
AcDbEntity
8
1
100
AcDbLine
6
DOT2
62
6
10
2564.999132
20
-411.071889
11
2565.299132
21
-410.771889
0
LINE
5
50d
100
AcDbEntity
8
1
100
AcDbLine
6
DOT2
62
6
10
2569.731870
20
-406.339151
11
2570.031870
21
-406.039151
0
LINE
5
50e
100
AcDbEntity
8
1
100
AcDbLine
6
DOT2
62
6
10
2564.999132
20
-410.789046
11
2565.299132
21
-410.489046
0
LINE
5
50f
100
AcDbEntity
8
1
100
AcDbLine
6
DOT2
62
6
10
2569.449027
20
-406.339151
11
2569.749027
21
-406.039151
0
LINE
5
510
100
AcDbEntity
8
1
100
AcDbLine
6
DOT2
62
6
10
2564.999132
20
-410.506204
11
2565.299132
21
-410.206204
0
LINE
5
511
100
AcDbEntity
8
1
100
AcDbLine
6
DOT2
62
6
10
2569.166184
20
-406.339151
11
2569.466184
21
-406.039151
0
LINE
5
512
100
AcDbEntity
8
1
100
AcDbLine
6
DOT2
62
6
10
2564.999132
20
-410.223361
11
2565.299132
21
-409.923361
0
LINE
5
513
100
AcDbEntity
8
1
100
AcDbLine
6
DOT2
62
6
10
2568.883342
20
-406.339151
11
2569.183342
21
-406.039151
0
LINE
5
514
100
AcDbEntity
8
1
100
AcDbLine
6
DOT2
62
6
10
2564.999132
20
-409.940518
11
2565.299132
21
-409.640518
0
LINE
5
515
100
AcDbEntity
8
1
100
AcDbLine
6
DOT2
62
6
10
2568.600499
20
-406.339151
11
2568.900499
21
-406.039151
0
LINE
5
516
100
AcDbEntity
8
1
100
AcDbLine
6
DOT2
62
6
10
2564.999132
20
-409.657676
11
2565.299132
21
-409.357676
0
LINE
5
517
100
AcDbEntity
8
1
100
AcDbLine
6
DOT2
62
6
10
2568.317656
20
-406.339151
11
2568.617656
21
-406.039151
0
LINE
5
518
100
AcDbEntity
8
1
100
AcDbLine
6
DOT2
62
6
10
2564.999132
20
-409.374833
11
2565.299132
21
-409.074833
0
LINE
5
519
100
AcDbEntity
8
1
100
AcDbLine
6
DOT2
62
6
10
2568.034814
20
-406.339151
11
2568.334814
21
-406.039151
0
LINE
5
51a
100
AcDbEntity
8
1
100
AcDbLine
6
DOT2
62
6
10
2564.999132
20
-409.091990
11
2565.299132
21
-408.791990
0
LINE
5
51b
100
AcDbEntity
8
1
100
AcDbLine
6
DOT2
62
6
10
2567.751971
20
-406.339151
11
2568.051971
21
-406.039151
0
LINE
5
51c
100
AcDbEntity
8
1
100
AcDbLine
6
DOT2
62
6
10
2564.999132
20
-408.809147
11
2565.299132
21
-408.509147
0
LINE
5
51d
100
AcDbEntity
8
1
100
AcDbLine
6
DOT2
62
6
10
2567.469128
20
-406.339151
11
2567.769128
21
-406.039151
0
LINE
5
51e
100
AcDbEntity
8
1
100
AcDbLine
6
DOT2
62
6
10
2564.999132
20
-408.526305
11
2565.299132
21
-408.226305
0
LINE
5
51f
100
AcDbEntity
8
1
100
AcDbLine
6
DOT2
62
6
10
2567.186285
20
-406.339151
11
2567.486285
21
-406.039151
0
LINE
5
520
100
AcDbEntity
8
1
100
AcDbLine
6
DOT2
62
6
10
2564.999132
20
-408.243462
11
2565.299132
21
-407.943462
0
LINE
5
521
100
AcDbEntity
8
1
100
AcDbLine
6
DOT2
62
6
10
2566.903443
20
-406.339151
11
2567.203443
21
-406.039151
0
LINE
5
522
100
AcDbEntity
8
1
100
AcDbLine
6
DOT2
62
6
10
2564.999132
20
-407.960619
11
2565.299132
21
-407.660619
0
LINE
5
523
100
AcDbEntity
8
1
100
AcDbLine
6
DOT2
62
6
10
2566.620600
20
-406.339151
11
2566.920600
21
-406.039151
0
LINE
5
524
100
AcDbEntity
8
1
100
AcDbLine
6
DOT2
62
6
10
2564.999132
20
-407.677777
11
2565.299132
21
-407.377777
0
LINE
5
525
100
AcDbEntity
8
1
100
AcDbLine
6
DOT2
62
6
10
2566.337757
20
-406.339151
11
2566.637757
21
-406.039151
0
LINE
5
526
100
AcDbEntity
8
1
100
AcDbLine
6
DOT2
62
6
10
2564.999132
20
-407.394934
11
2565.299132
21
-407.094934
0
LINE
5
527
100
AcDbEntity
8
1
100
AcDbLine
6
DOT2
62
6
10
2566.054915
20
-406.339151
11
2566.354915
21
-406.039151
0
LINE
5
528
100
AcDbEntity
8
1
100
AcDbLine
6
DOT2
62
6
10
2564.999132
20
-407.112091
11
2565.299132
21
-406.812091
0
LINE
5
529
100
AcDbEntity
8
1
100
AcDbLine
6
DOT2
62
6
10
2565.772072
20
-406.339151
11
2566.072072
21
-406.039151
0
LINE
5
52a
100
AcDbEntity
8
1
100
AcDbLine
6
DOT2
62
6
10
2564.999132
20
-406.829248
11
2565.299132
21
-406.529248
0
LINE
5
52b
100
AcDbEntity
8
1
100
AcDbLine
6
DOT2
62
6
10
2565.489229
20
-406.339151
11
2565.789229
21
-406.039151
0
LINE
5
52c
100
AcDbEntity
8
1
100
AcDbLine
6
DOT2
62
6
10
2564.999132
20
-406.546406
11
2565.506386
21
-406.039151
0
LINE
5
52d
100
AcDbEntity
8
1
100
AcDbLine
6
DOT2
62
6
10
2572.299132
20
-406.883159
11
2572.599132
21
-406.583159
0
LINE
5
52e
100
AcDbEntity
8
1
100
AcDbLine
6
DOT2
62
6
10
2572.568118
20
-421.039151
11
2572.599132
21
-421.008137
0
LINE
5
52f
100
AcDbEntity
8
1
100
AcDbLine
6
DOT2
62
6
10
2572.285275
20
-421.039151
11
2572.599132
21
-420.725295
0
LINE
5
530
100
AcDbEntity
8
1
100
AcDbLine
6
DOT2
62
6
10
2572.002433
20
-421.039151
11
2572.599132
21
-420.442452
0
LINE
5
531
100
AcDbEntity
8
1
100
AcDbLine
6
DOT2
62
6
10
2571.719590
20
-421.039151
11
2572.019590
21
-420.739151
0
LINE
5
532
100
AcDbEntity
8
1
100
AcDbLine
6
DOT2
62
6
10
2572.299132
20
-420.459609
11
2572.599132
21
-420.159609
0
LINE
5
533
100
AcDbEntity
8
1
100
AcDbLine
6
DOT2
62
6
10
2571.436747
20
-421.039151
11
2571.736747
21
-420.739151
0
LINE
5
534
100
AcDbEntity
8
1
100
AcDbLine
6
DOT2
62
6
10
2572.299132
20
-420.176766
11
2572.599132
21
-419.876766
0
LINE
5
535
100
AcDbEntity
8
1
100
AcDbLine
6
DOT2
62
6
10
2571.153904
20
-421.039151
11
2571.453904
21
-420.739151
0
LINE
5
536
100
AcDbEntity
8
1
100
AcDbLine
6
DOT2
62
6
10
2572.299132
20
-419.893924
11
2572.599132
21
-419.593924
0
LINE
5
537
100
AcDbEntity
8
1
100
AcDbLine
6
DOT2
62
6
10
2570.871062
20
-421.039151
11
2571.171062
21
-420.739151
0
LINE
5
538
100
AcDbEntity
8
1
100
AcDbLine
6
DOT2
62
6
10
2572.299132
20
-419.611081
11
2572.599132
21
-419.311081
0
LINE
5
539
100
AcDbEntity
8
1
100
AcDbLine
6
DOT2
62
6
10
2570.588219
20
-421.039151
11
2570.888219
21
-420.739151
0
LINE
5
53a
100
AcDbEntity
8
1
100
AcDbLine
6
DOT2
62
6
10
2572.299132
20
-419.328238
11
2572.599132
21
-419.028238
0
LINE
5
53b
100
AcDbEntity
8
1
100
AcDbLine
6
DOT2
62
6
10
2570.305376
20
-421.039151
11
2570.605376
21
-420.739151
0
LINE
5
53c
100
AcDbEntity
8
1
100
AcDbLine
6
DOT2
62
6
10
2572.299132
20
-419.045396
11
2572.599132
21
-418.745396
0
LINE
5
53d
100
AcDbEntity
8
1
100
AcDbLine
6
DOT2
62
6
10
2570.022534
20
-421.039151
11
2570.322534
21
-420.739151
0
LINE
5
53e
100
AcDbEntity
8
1
100
AcDbLine
6
DOT2
62
6
10
2572.299132
20
-418.762553
11
2572.599132
21
-418.462553
0
LINE
5
53f
100
AcDbEntity
8
1
100
AcDbLine
6
DOT2
62
6
10
2569.739691
20
-421.039151
11
2570.039691
21
-420.739151
0
LINE
5
540
100
AcDbEntity
8
1
100
AcDbLine
6
DOT2
62
6
10
2572.299132
20
-418.479710
11
2572.599132
21
-418.179710
0
LINE
5
541
100
AcDbEntity
8
1
100
AcDbLine
6
DOT2
62
6
10
2569.456848
20
-421.039151
11
2569.756848
21
-420.739151
0
LINE
5
542
100
AcDbEntity
8
1
100
AcDbLine
6
DOT2
62
6
10
2572.299132
20
-418.196867
11
2572.599132
21
-417.896867
0
LINE
5
543
100
AcDbEntity
8
1
100
AcDbLine
6
DOT2
62
6
10
2569.174005
20
-421.039151
11
2569.474005
21
-420.739151
0
LINE
5
544
100
AcDbEntity
8
1
100
AcDbLine
6
DOT2
62
6
10
2572.299132
20
-417.914025
11
2572.599132
21
-417.614025
0
LINE
5
545
100
AcDbEntity
8
1
100
AcDbLine
6
DOT2
62
6
10
2568.891163
20
-421.039151
11
2569.191163
21
-420.739151
0
LINE
5
546
100
AcDbEntity
8
1
100
AcDbLine
6
DOT2
62
6
10
2572.299132
20
-417.631182
11
2572.599132
21
-417.331182
0
LINE
5
547
100
AcDbEntity
8
1
100
AcDbLine
6
DOT2
62
6
10
2568.608320
20
-421.039151
11
2568.908320
21
-420.739151
0
LINE
5
548
100
AcDbEntity
8
1
100
AcDbLine
6
DOT2
62
6
10
2572.299132
20
-417.348339
11
2572.599132
21
-417.048339
0
LINE
5
549
100
AcDbEntity
8
1
100
AcDbLine
6
DOT2
62
6
10
2568.325477
20
-421.039151
11
2568.625477
21
-420.739151
0
LINE
5
54a
100
AcDbEntity
8
1
100
AcDbLine
6
DOT2
62
6
10
2572.299132
20
-417.065497
11
2572.599132
21
-416.765497
0
LINE
5
54b
100
AcDbEntity
8
1
100
AcDbLine
6
DOT2
62
6
10
2568.042635
20
-421.039151
11
2568.342635
21
-420.739151
0
LINE
5
54c
100
AcDbEntity
8
1
100
AcDbLine
6
DOT2
62
6
10
2572.299132
20
-416.782654
11
2572.599132
21
-416.482654
0
LINE
5
54d
100
AcDbEntity
8
1
100
AcDbLine
6
DOT2
62
6
10
2567.759792
20
-421.039151
11
2568.059792
21
-420.739151
0
LINE
5
54e
100
AcDbEntity
8
1
100
AcDbLine
6
DOT2
62
6
10
2572.299132
20
-416.499811
11
2572.599132
21
-416.199811
0
LINE
5
54f
100
AcDbEntity
8
1
100
AcDbLine
6
DOT2
62
6
10
2567.476949
20
-421.039151
11
2567.776949
21
-420.739151
0
LINE
5
550
100
AcDbEntity
8
1
100
AcDbLine
6
DOT2
62
6
10
2572.299132
20
-416.216968
11
2572.599132
21
-415.916968
0
LINE
5
551
100
AcDbEntity
8
1
100
AcDbLine
6
DOT2
62
6
10
2567.194106
20
-421.039151
11
2567.494106
21
-420.739151
0
LINE
5
552
100
AcDbEntity
8
1
100
AcDbLine
6
DOT2
62
6
10
2572.299132
20
-415.934126
11
2572.599132
21
-415.634126
0
LINE
5
553
100
AcDbEntity
8
1
100
AcDbLine
6
DOT2
62
6
10
2566.911264
20
-421.039151
11
2567.211264
21
-420.739151
0
LINE
5
554
100
AcDbEntity
8
1
100
AcDbLine
6
DOT2
62
6
10
2572.299132
20
-415.651283
11
2572.599132
21
-415.351283
0
LINE
5
555
100
AcDbEntity
8
1
100
AcDbLine
6
DOT2
62
6
10
2566.628421
20
-421.039151
11
2566.928421
21
-420.739151
0
LINE
5
556
100
AcDbEntity
8
1
100
AcDbLine
6
DOT2
62
6
10
2572.299132
20
-415.368440
11
2572.599132
21
-415.068440
0
LINE
5
557
100
AcDbEntity
8
1
100
AcDbLine
6
DOT2
62
6
10
2566.345578
20
-421.039151
11
2566.645578
21
-420.739151
0
LINE
5
558
100
AcDbEntity
8
1
100
AcDbLine
6
DOT2
62
6
10
2572.299132
20
-415.085598
11
2572.599132
21
-414.785598
0
LINE
5
559
100
AcDbEntity
8
1
100
AcDbLine
6
DOT2
62
6
10
2566.062736
20
-421.039151
11
2566.362736
21
-420.739151
0
LINE
5
55a
100
AcDbEntity
8
1
100
AcDbLine
6
DOT2
62
6
10
2572.299132
20
-414.802755
11
2572.599132
21
-414.502755
0
LINE
5
55b
100
AcDbEntity
8
1
100
AcDbLine
6
DOT2
62
6
10
2565.779893
20
-421.039151
11
2566.079893
21
-420.739151
0
LINE
5
55c
100
AcDbEntity
8
1
100
AcDbLine
6
DOT2
62
6
10
2572.299132
20
-414.519912
11
2572.599132
21
-414.219912
0
LINE
5
55d
100
AcDbEntity
8
1
100
AcDbLine
6
DOT2
62
6
10
2565.497050
20
-421.039151
11
2565.797050
21
-420.739151
0
LINE
5
55e
100
AcDbEntity
8
1
100
AcDbLine
6
DOT2
62
6
10
2572.299132
20
-414.237069
11
2572.599132
21
-413.937069
0
LINE
5
55f
100
AcDbEntity
8
1
100
AcDbLine
6
DOT2
62
6
10
2565.214207
20
-421.039151
11
2565.514207
21
-420.739151
0
LINE
5
560
100
AcDbEntity
8
1
100
AcDbLine
6
DOT2
62
6
10
2572.299132
20
-413.954227
11
2572.599132
21
-413.654227
0
LINE
5
561
100
AcDbEntity
8
1
100
AcDbLine
6
DOT2
62
6
10
2564.999132
20
-420.971384
11
2565.299132
21
-420.671384
0
LINE
5
562
100
AcDbEntity
8
1
100
AcDbLine
6
DOT2
62
6
10
2572.299132
20
-413.671384
11
2572.599132
21
-413.371384
0
LINE
5
563
100
AcDbEntity
8
1
100
AcDbLine
6
DOT2
62
6
10
2564.999132
20
-420.688541
11
2565.299132
21
-420.388541
0
LINE
5
564
100
AcDbEntity
8
1
100
AcDbLine
6
DOT2
62
6
10
2572.299132
20
-413.388541
11
2572.599132
21
-413.088541
0
LINE
5
565
100
AcDbEntity
8
1
100
AcDbLine
6
DOT2
62
6
10
2564.999132
20
-420.405699
11
2565.299132
21
-420.105699
0
LINE
5
566
100
AcDbEntity
8
1
100
AcDbLine
6
DOT2
62
6
10
2572.299132
20
-413.105699
11
2572.599132
21
-412.805699
0
LINE
5
567
100
AcDbEntity
8
1
100
AcDbLine
6
DOT2
62
6
10
2564.999132
20
-420.122856
11
2565.299132
21
-419.822856
0
LINE
5
568
100
AcDbEntity
8
1
100
AcDbLine
6
DOT2
62
6
10
2572.299132
20
-412.822856
11
2572.599132
21
-412.522856
0
LINE
5
569
100
AcDbEntity
8
1
100
AcDbLine
6
DOT2
62
6
10
2564.999132
20
-419.840013
11
2565.299132
21
-419.540013
0
LINE
5
56a
100
AcDbEntity
8
1
100
AcDbLine
6
DOT2
62
6
10
2572.299132
20
-412.540013
11
2572.599132
21
-412.240013
0
LINE
5
56b
100
AcDbEntity
8
1
100
AcDbLine
6
DOT2
62
6
10
2564.999132
20
-419.557170
11
2565.299132
21
-419.257170
0
LINE
5
56c
100
AcDbEntity
8
1
100
AcDbLine
6
DOT2
62
6
10
2572.299132
20
-412.257170
11
2572.599132
21
-411.957170
0
LINE
5
56d
100
AcDbEntity
8
1
100
AcDbLine
6
DOT2
62
6
10
2564.999132
20
-419.274328
11
2565.299132
21
-418.974328
0
LINE
5
56e
100
AcDbEntity
8
1
100
AcDbLine
6
DOT2
62
6
10
2572.299132
20
-411.974328
11
2572.599132
21
-411.674328
0
LINE
5
56f
100
AcDbEntity
8
1
100
AcDbLine
6
DOT2
62
6
10
2564.999132
20
-418.991485
11
2565.299132
21
-418.691485
0
LINE
5
570
100
AcDbEntity
8
1
100
AcDbLine
6
DOT2
62
6
10
2572.299132
20
-411.691485
11
2572.599132
21
-411.391485
0
LINE
5
571
100
AcDbEntity
8
1
100
AcDbLine
6
DOT2
62
6
10
2564.999132
20
-418.708642
11
2565.299132
21
-418.408642
0
LINE
5
572
100
AcDbEntity
8
1
100
AcDbLine
6
DOT2
62
6
10
2572.299132
20
-411.408642
11
2572.599132
21
-411.108642
0
LINE
5
573
100
AcDbEntity
8
1
100
AcDbLine
6
DOT2
62
6
10
2564.999132
20
-418.425800
11
2565.299132
21
-418.125800
0
LINE
5
574
100
AcDbEntity
8
1
100
AcDbLine
6
DOT2
62
6
10
2572.299132
20
-411.125800
11
2572.599132
21
-410.825800
0
LINE
5
575
100
AcDbEntity
8
1
100
AcDbLine
6
DOT2
62
6
10
2564.999132
20
-418.142957
11
2565.299132
21
-417.842957
0
LINE
5
576
100
AcDbEntity
8
1
100
AcDbLine
6
DOT2
62
6
10
2572.299132
20
-410.842957
11
2572.599132
21
-410.542957
0
LINE
5
577
100
AcDbEntity
8
1
100
AcDbLine
6
DOT2
62
6
10
2564.999132
20
-417.860114
11
2565.299132
21
-417.560114
0
LINE
5
578
100
AcDbEntity
8
1
100
AcDbLine
6
DOT2
62
6
10
2572.299132
20
-410.560114
11
2572.599132
21
-410.260114
0
LINE
5
579
100
AcDbEntity
8
1
100
AcDbLine
6
DOT2
62
6
10
2564.999132
20
-417.577272
11
2565.299132
21
-417.277272
0
LINE
5
57a
100
AcDbEntity
8
1
100
AcDbLine
6
DOT2
62
6
10
2572.299132
20
-410.277272
11
2572.599132
21
-409.977272
0
LINE
5
57b
100
AcDbEntity
8
1
100
AcDbLine
6
DOT2
62
6
10
2564.999132
20
-417.294429
11
2565.299132
21
-416.994429
0
LINE
5
57c
100
AcDbEntity
8
1
100
AcDbLine
6
DOT2
62
6
10
2572.299132
20
-409.994429
11
2572.599132
21
-409.694429
0
LINE
5
57d
100
AcDbEntity
8
1
100
AcDbLine
6
DOT2
62
6
10
2564.999132
20
-417.011586
11
2565.299132
21
-416.711586
0
LINE
5
57e
100
AcDbEntity
8
1
100
AcDbLine
6
DOT2
62
6
10
2572.299132
20
-409.711586
11
2572.599132
21
-409.411586
0
LINE
5
57f
100
AcDbEntity
8
1
100
AcDbLine
6
DOT2
62
6
10
2564.999132
20
-416.728743
11
2565.299132
21
-416.428743
0
LINE
5
580
100
AcDbEntity
8
1
100
AcDbLine
6
DOT2
62
6
10
2572.299132
20
-409.428743
11
2572.599132
21
-409.128743
0
LINE
5
581
100
AcDbEntity
8
1
100
AcDbLine
6
DOT2
62
6
10
2564.999132
20
-416.445901
11
2565.299132
21
-416.145901
0
LINE
5
582
100
AcDbEntity
8
1
100
AcDbLine
6
DOT2
62
6
10
2572.299132
20
-409.145901
11
2572.599132
21
-408.845901
0
LINE
5
583
100
AcDbEntity
8
1
100
AcDbLine
6
DOT2
62
6
10
2564.999132
20
-416.163058
11
2565.299132
21
-415.863058
0
LINE
5
584
100
AcDbEntity
8
1
100
AcDbLine
6
DOT2
62
6
10
2572.299132
20
-408.863058
11
2572.599132
21
-408.563058
0
LINE
5
585
100
AcDbEntity
8
1
100
AcDbLine
6
DOT2
62
6
10
2564.999132
20
-415.880215
11
2565.299132
21
-415.580215
0
LINE
5
586
100
AcDbEntity
8
1
100
AcDbLine
6
DOT2
62
6
10
2572.299132
20
-408.580215
11
2572.599132
21
-408.280215
0
LINE
5
587
100
AcDbEntity
8
1
100
AcDbLine
6
DOT2
62
6
10
2564.999132
20
-415.597373
11
2565.299132
21
-415.297373
0
LINE
5
588
100
AcDbEntity
8
1
100
AcDbLine
6
DOT2
62
6
10
2572.299132
20
-408.297373
11
2572.599132
21
-407.997373
0
LINE
5
589
100
AcDbEntity
8
1
100
AcDbLine
6
DOT2
62
6
10
2564.999132
20
-415.314530
11
2565.299132
21
-415.014530
0
LINE
5
58a
100
AcDbEntity
8
1
100
AcDbLine
6
DOT2
62
6
10
2572.299132
20
-408.014530
11
2572.599132
21
-407.714530
0
LINE
5
58b
100
AcDbEntity
8
1
100
AcDbLine
6
DOT2
62
6
10
2564.999132
20
-415.031687
11
2565.299132
21
-414.731687
0
LINE
5
58c
100
AcDbEntity
8
1
100
AcDbLine
6
DOT2
62
6
10
2572.299132
20
-407.731687
11
2572.599132
21
-407.431687
0
LINE
5
58d
100
AcDbEntity
8
1
100
AcDbLine
6
DOT2
62
6
10
2564.999132
20
-414.748844
11
2565.299132
21
-414.448844
0
LINE
5
58e
100
AcDbEntity
8
1
100
AcDbLine
6
DOT2
62
6
10
2572.299132
20
-407.448844
11
2572.599132
21
-407.148844
0
LINE
5
58f
100
AcDbEntity
8
1
100
AcDbLine
6
DOT2
62
6
10
2564.999132
20
-414.466002
11
2565.299132
21
-414.166002
0
LINE
5
590
100
AcDbEntity
8
1
100
AcDbLine
6
DOT2
62
6
10
2572.299132
20
-407.166002
11
2572.599132
21
-406.866002
0
LINE
5
591
100
AcDbEntity
8
1
100
AcDbLine
6
DOT2
62
6
10
2564.999132
20
-414.183159
11
2565.299132
21
-413.883159
0
LINE
5
592
100
AcDbEntity
8
1
100
AcDbLine
6
DOT2
62
6
10
2566.834546
20
-414.044800
11
2566.850697
21
-414.028650
0
LINE
5
593
100
AcDbEntity
8
1
100
AcDbLine
6
DOT2
62
6
10
2570.531869
20
-415.438647
11
2570.675028
21
-415.295488
0
LINE
5
594
100
AcDbEntity
8
1
100
AcDbLine
6
DOT2
62
6
10
2570.295876
20
-415.391797
11
2570.590212
21
-415.097461
0
LINE
5
595
100
AcDbEntity
8
1
100
AcDbLine
6
DOT2
62
6
10
2570.078530
20
-415.326300
11
2570.345951
21
-415.058879
0
LINE
5
596
100
AcDbEntity
8
1
100
AcDbLine
6
DOT2
62
6
10
2569.877178
20
-415.244810
11
2570.121959
21
-415.000029
0
LINE
5
597
100
AcDbEntity
8
1
100
AcDbLine
6
DOT2
62
6
10
2569.690074
20
-415.149070
11
2569.915021
21
-414.924124
0
LINE
5
598
100
AcDbEntity
8
1
100
AcDbLine
6
DOT2
62
6
10
2570.283839
20
-414.555305
11
2570.325392
21
-414.513753
0
LINE
5
599
100
AcDbEntity
8
1
100
AcDbLine
6
DOT2
62
6
10
2569.516058
20
-415.040244
11
2569.723060
21
-414.833242
0
LINE
5
59a
100
AcDbEntity
8
1
100
AcDbLine
6
DOT2
62
6
10
2569.979271
20
-414.577031
11
2570.197846
21
-414.358456
0
LINE
5
59b
100
AcDbEntity
8
1
100
AcDbLine
6
DOT2
62
6
10
2570.375229
20
-414.181073
11
2570.589979
21
-413.966323
0
LINE
5
59c
100
AcDbEntity
8
1
100
AcDbLine
6
DOT2
62
6
10
2569.354377
20
-414.919082
11
2569.544700
21
-414.728759
0
LINE
5
59d
100
AcDbEntity
8
1
100
AcDbLine
6
DOT2
62
6
10
2569.577231
20
-414.696229
11
2570.039358
21
-414.234101
0
LINE
5
59e
100
AcDbEntity
8
1
100
AcDbLine
6
DOT2
62
6
10
2570.092128
20
-414.181331
11
2570.454856
21
-413.818604
0
LINE
5
59f
100
AcDbEntity
8
1
100
AcDbLine
6
DOT2
62
6
10
2568.916089
20
-415.074527
11
2569.061833
21
-414.928784
0
LINE
5
5a0
100
AcDbEntity
8
1
100
AcDbLine
6
DOT2
62
6
10
2569.204592
20
-414.786025
11
2569.379042
21
-414.611574
0
LINE
5
5a1
100
AcDbEntity
8
1
100
AcDbLine
6
DOT2
62
6
10
2569.809028
20
-414.181588
11
2569.961966
21
-414.028650
0
LINE
5
5a2
100
AcDbEntity
8
1
100
AcDbLine
6
DOT2
62
6
10
2568.553332
20
-415.154442
11
2568.743985
21
-414.963789
0
LINE
5
5a3
100
AcDbEntity
8
1
100
AcDbLine
6
DOT2
62
6
10
2569.066527
20
-414.641246
11
2569.225539
21
-414.482235
0
LINE
5
5a4
100
AcDbEntity
8
1
100
AcDbLine
6
DOT2
62
6
10
2569.525928
20
-414.181846
11
2569.679124
21
-414.028650
0
LINE
5
5a5
100
AcDbEntity
8
1
100
AcDbLine
6
DOT2
62
6
10
2568.190575
20
-415.234356
11
2568.426137
21
-414.998794
0
LINE
5
5a6
100
AcDbEntity
8
1
100
AcDbLine
6
DOT2
62
6
10
2568.940254
20
-414.484677
11
2569.083929
21
-414.341002
0
LINE
5
5a7
100
AcDbEntity
8
1
100
AcDbLine
6
DOT2
62
6
10
2569.242828
20
-414.182104
11
2569.396281
21
-414.028650
0
LINE
5
5a8
100
AcDbEntity
8
1
100
AcDbLine
6
DOT2
62
6
10
2567.827818
20
-415.314270
11
2568.188713
21
-414.953375
0
LINE
5
5a9
100
AcDbEntity
8
1
100
AcDbLine
6
DOT2
62
6
10
2568.826094
20
-414.315994
11
2568.954208
21
-414.187880
0
LINE
5
5aa
100
AcDbEntity
8
1
100
AcDbLine
6
DOT2
62
6
10
2568.959727
20
-414.182361
11
2569.113438
21
-414.028650
0
LINE
5
5ab
100
AcDbEntity
8
1
100
AcDbLine
6
DOT2
62
6
10
2567.295952
20
-415.563293
11
2567.457011
21
-415.402235
0
LINE
5
5ac
100
AcDbEntity
8
1
100
AcDbLine
6
DOT2
62
6
10
2567.465061
20
-415.394185
11
2567.790441
21
-415.068805
0
LINE
5
5ad
100
AcDbEntity
8
1
100
AcDbLine
6
DOT2
62
6
10
2567.890132
20
-414.969114
11
2568.188713
21
-414.670532
0
LINE
5
5ae
100
AcDbEntity
8
1
100
AcDbLine
6
DOT2
62
6
10
2568.518638
20
-414.340608
11
2568.978854
21
-413.880391
0
LINE
5
5af
100
AcDbEntity
8
1
100
AcDbLine
6
DOT2
62
6
10
2567.235307
20
-415.341097
11
2567.472593
21
-415.103810
0
LINE
5
5b0
100
AcDbEntity
8
1
100
AcDbLine
6
DOT2
62
6
10
2567.890132
20
-414.686271
11
2568.547753
21
-414.028650
0
LINE
5
5b1
100
AcDbEntity
8
1
100
AcDbLine
6
DOT2
62
6
10
2568.666341
20
-413.910062
11
2568.945791
21
-413.630612
0
LINE
5
5b2
100
AcDbEntity
8
1
100
AcDbLine
6
DOT2
62
6
10
2567.434461
20
-414.859099
11
2567.834473
21
-414.459087
0
LINE
5
5b3
100
AcDbEntity
8
1
100
AcDbLine
6
DOT2
62
6
10
2568.112712
20
-414.180848
11
2568.264910
21
-414.028650
0
LINE
5
5b4
100
AcDbEntity
8
1
100
AcDbLine
6
DOT2
62
6
10
2568.666341
20
-413.627219
11
2568.680918
21
-413.612643
0
LINE
5
5b5
100
AcDbEntity
8
1
100
AcDbLine
6
DOT2
62
6
10
2567.035373
20
-414.975344
11
2567.274710
21
-414.736007
0
LINE
5
5b6
100
AcDbEntity
8
1
100
AcDbLine
6
DOT2
62
6
10
2567.829869
20
-414.180848
11
2567.982067
21
-414.028650
0
LINE
5
5b7
100
AcDbEntity
8
1
100
AcDbLine
6
DOT2
62
6
10
2566.818338
20
-414.909537
11
2566.835738
21
-414.892137
0
LINE
5
5b8
100
AcDbEntity
8
1
100
AcDbLine
6
DOT2
62
6
10
2567.547027
20
-414.180848
11
2567.699225
21
-414.028650
0
LINE
5
5b9
100
AcDbEntity
8
1
100
AcDbLine
6
DOT2
62
6
10
2567.264184
20
-414.180848
11
2567.416382
21
-414.028650
0
LINE
5
5ba
100
AcDbEntity
8
1
100
AcDbLine
6
DOT2
62
6
10
2566.981341
20
-414.180848
11
2567.133539
21
-414.028650
0
LINE
5
5bb
100
AcDbEntity
8
1
100
AcDbLine
6
DOT2
62
6
10
2567.385131
20
-415.517775
11
2567.245387
21
-415.378031
0
LINE
5
5bc
100
AcDbEntity
8
1
100
AcDbLine
6
DOT2
62
6
10
2570.573733
20
-414.180893
11
2570.274725
21
-413.881885
0
LINE
5
5bd
100
AcDbEntity
8
1
100
AcDbLine
6
DOT2
62
6
10
2570.291147
20
-414.181150
11
2570.138647
21
-414.028650
0
LINE
5
5be
100
AcDbEntity
8
1
100
AcDbLine
6
DOT2
62
6
10
2570.329000
20
-414.501846
11
2570.062472
21
-414.235317
0
LINE
5
5bf
100
AcDbEntity
8
1
100
AcDbLine
6
DOT2
62
6
10
2570.008561
20
-414.181407
11
2569.855805
21
-414.028650
0
LINE
5
5c0
100
AcDbEntity
8
1
100
AcDbLine
6
DOT2
62
6
10
2570.738118
20
-415.193806
11
2570.647072
21
-415.102760
0
LINE
5
5c1
100
AcDbEntity
8
1
100
AcDbLine
6
DOT2
62
6
10
2570.094685
20
-414.550373
11
2569.880643
21
-414.336331
0
LINE
5
5c2
100
AcDbEntity
8
1
100
AcDbLine
6
DOT2
62
6
10
2569.725976
20
-414.181664
11
2569.572962
21
-414.028650
0
LINE
5
5c3
100
AcDbEntity
8
1
100
AcDbLine
6
DOT2
62
6
10
2570.629819
20
-415.368350
11
2570.313175
21
-415.051706
0
LINE
5
5c4
100
AcDbEntity
8
1
100
AcDbLine
6
DOT2
62
6
10
2569.875463
20
-414.613994
11
2569.708616
21
-414.447146
0
LINE
5
5c5
100
AcDbEntity
8
1
100
AcDbLine
6
DOT2
62
6
10
2569.443390
20
-414.181921
11
2569.290119
21
-414.028650
0
LINE
5
5c6
100
AcDbEntity
8
1
100
AcDbLine
6
DOT2
62
6
10
2569.053767
20
-413.792298
11
2568.874112
21
-413.612643
0
LINE
5
5c7
100
AcDbEntity
8
1
100
AcDbLine
6
DOT2
62
6
10
2570.392579
20
-415.413953
11
2569.893650
21
-414.915024
0
LINE
5
5c8
100
AcDbEntity
8
1
100
AcDbLine
6
DOT2
62
6
10
2569.656378
20
-414.677751
11
2569.531814
21
-414.553187
0
LINE
5
5c9
100
AcDbEntity
8
1
100
AcDbLine
6
DOT2
62
6
10
2569.160805
20
-414.182178
11
2569.007277
21
-414.028650
0
LINE
5
5ca
100
AcDbEntity
8
1
100
AcDbLine
6
DOT2
62
6
10
2568.978854
20
-414.000228
11
2568.666341
21
-413.687715
0
LINE
5
5cb
100
AcDbEntity
8
1
100
AcDbLine
6
DOT2
62
6
10
2569.988076
20
-415.292292
11
2568.666341
21
-413.970558
0
LINE
5
5cc
100
AcDbEntity
8
1
100
AcDbLine
6
DOT2
62
6
10
2568.658837
20
-414.245897
11
2568.441591
21
-414.028650
0
LINE
5
5cd
100
AcDbEntity
8
1
100
AcDbLine
6
DOT2
62
6
10
2569.136915
20
-415.006817
11
2569.059175
21
-414.929076
0
LINE
5
5ce
100
AcDbEntity
8
1
100
AcDbLine
6
DOT2
62
6
10
2568.489432
20
-414.359334
11
2568.158748
21
-414.028650
0
LINE
5
5cf
100
AcDbEntity
8
1
100
AcDbLine
6
DOT2
62
6
10
2568.920755
20
-415.073500
11
2568.804392
21
-414.957136
0
LINE
5
5d0
100
AcDbEntity
8
1
100
AcDbLine
6
DOT2
62
6
10
2568.312862
20
-414.465606
11
2568.123583
21
-414.276328
0
LINE
5
5d1
100
AcDbEntity
8
1
100
AcDbLine
6
DOT2
62
6
10
2568.028104
20
-414.180848
11
2567.875906
21
-414.028650
0
LINE
5
5d2
100
AcDbEntity
8
1
100
AcDbLine
6
DOT2
62
6
10
2568.688973
20
-415.124560
11
2568.549609
21
-414.985196
0
LINE
5
5d3
100
AcDbEntity
8
1
100
AcDbLine
6
DOT2
62
6
10
2568.188713
20
-414.624301
11
2567.952489
21
-414.388076
0
LINE
5
5d4
100
AcDbEntity
8
1
100
AcDbLine
6
DOT2
62
6
10
2567.745261
20
-414.180848
11
2567.593063
21
-414.028650
0
LINE
5
5d5
100
AcDbEntity
8
1
100
AcDbLine
6
DOT2
62
6
10
2568.457191
20
-415.175621
11
2568.294826
21
-415.013256
0
LINE
5
5d6
100
AcDbEntity
8
1
100
AcDbLine
6
DOT2
62
6
10
2568.188713
20
-414.907143
11
2567.774785
21
-414.493215
0
LINE
5
5d7
100
AcDbEntity
8
1
100
AcDbLine
6
DOT2
62
6
10
2567.462418
20
-414.180848
11
2567.310220
21
-414.028650
0
LINE
5
5d8
100
AcDbEntity
8
1
100
AcDbLine
6
DOT2
62
6
10
2568.225409
20
-415.226682
11
2567.890132
21
-414.891405
0
LINE
5
5d9
100
AcDbEntity
8
1
100
AcDbLine
6
DOT2
62
6
10
2567.742554
20
-414.743826
11
2567.590241
21
-414.591514
0
LINE
5
5da
100
AcDbEntity
8
1
100
AcDbLine
6
DOT2
62
6
10
2567.179576
20
-414.180848
11
2567.027378
21
-414.028650
0
LINE
5
5db
100
AcDbEntity
8
1
100
AcDbLine
6
DOT2
62
6
10
2567.993628
20
-415.277743
11
2567.785260
21
-415.069375
0
LINE
5
5dc
100
AcDbEntity
8
1
100
AcDbLine
6
DOT2
62
6
10
2567.538600
20
-414.822715
11
2567.398568
21
-414.682684
0
LINE
5
5dd
100
AcDbEntity
8
1
100
AcDbLine
6
DOT2
62
6
10
2566.896733
20
-414.180848
11
2566.887667
21
-414.171783
0
LINE
5
5de
100
AcDbEntity
8
1
100
AcDbLine
6
DOT2
62
6
10
2567.761846
20
-415.328804
11
2567.530477
21
-415.097435
0
LINE
5
5df
100
AcDbEntity
8
1
100
AcDbLine
6
DOT2
62
6
10
2567.327008
20
-414.893966
11
2567.199409
21
-414.766367
0
LINE
5
5e0
100
AcDbEntity
8
1
100
AcDbLine
6
DOT2
62
6
10
2567.530064
20
-415.379865
11
2567.275694
21
-415.125495
0
LINE
5
5e1
100
AcDbEntity
8
1
100
AcDbLine
6
DOT2
62
6
10
2567.107250
20
-414.957051
11
2566.992321
21
-414.842122
0
ENDSEC
0
SECTION
2
OBJECTS
0
DICTIONARY
5
5e2
100
AcDbDictionary
3
ACAD_GROUP
350
5e3
3
ACAD_MLINESTYLE
350
5e4
0
DICTIONARY
5
5e3
102
{ACAD_REACTORS
330
5e2
102
}
100
AcDbDictionary
0
DICTIONARY
5
5e4
102
{ACAD_REACTORS
330
5e2
102
}
100
AcDbDictionary
3
STANDARD
350
5e5
0
MLINESTYLE
5
5e5
102
{ACAD_REACTORS
330
5e4
102
}
100
AcDbMlineStyle
2
STANDARD
70
0
3

62
0
51
90.0
52
90.0
71
2
49
0.5
62
256
6
BYLAYER
49
-0.5
62
256
6
BYLAYER
0
ENDSEC
0
EOF
