0
SECTION
2
HEADER
9
$ACADVER
1
AC1012
9
$EXTMIN
10
-0.013701
20
-0.013701
30
0.0
9
$EXTMAX
10
12.606299
20
13.386299
30
0.0
9
$LIMMIN
10
-0.348005
20
-0.348005
9
$LIMMAX
10
320.199995
20
340.011995
9
$DIMSCALE
40
1.000000
9
$PDMODE
70
2
9
$PDSIZE
40
0.0
  9
$HANDSEED
  5
587
0
ENDSEC
0
SECTION
2
CLASSES
0
ENDSEC
0
SECTION
2
TABLES
0
TABLE
2
LTYPE
5
1e
100
AcDbSymbolTable
70
12
0
LTYPE
5
1f
100
AcDbSymbolTableRecord
100
AcDbLinetypeTableRecord
2
BYBLOCK
70
0
3

72
65
73
0
40
0.0
0
LTYPE
5
20
100
AcDbSymbolTableRecord
100
AcDbLinetypeTableRecord
2
BYLAYER
70
0
3

72
65
73
0
40
0.0
0
LTYPE
5
21
100
AcDbSymbolTableRecord
100
AcDbLinetypeTableRecord
2
CONTINUOUS
70
64
3
Solid line
72
65
73
0
40
0.0
0
LTYPE
5
22
100
AcDbSymbolTableRecord
100
AcDbLinetypeTableRecord
2
DASHED
70
64
3
__ __ __ __ __ __ __ __ __ __ __ __ __ __ __
72
65
73
2
40
0.75
49
0.5
74
0
49
-0.25
74
0
0
LTYPE
5
23
100
AcDbSymbolTableRecord
100
AcDbLinetypeTableRecord
2
DOT
70
64
3
...............................................
72
65
73
2
40
0.25
49
0.0
74
0
49
-0.25
74
0
0
LTYPE
5
24
100
AcDbSymbolTableRecord
100
AcDbLinetypeTableRecord
2
DASHDOT
70
64
3
__ . __ . __ . __ . __ . __ . __ . __ . __ . --
72
65
73
4
40
1.0
49
0.5
74
0
49
-0.25
74
0
49
0.0
74
0
49
-0.25
74
0
0
LTYPE
5
25
100
AcDbSymbolTableRecord
100
AcDbLinetypeTableRecord
2
CENTER
70
64
3
____ _ ____ _ ____ _ ____ _ ____ _ ____ _ ____
72
65
73
4
40
2.0
49
1.25
74
0
49
-0.25
74
0
49
0.25
74
0
49
-0.25
74
0
0
LTYPE
5
26
100
AcDbSymbolTableRecord
100
AcDbLinetypeTableRecord
2
PHANTOM
70
64
3
_____ _ _ _____ _ _ _____ _ _ _____ _ _ ____
72
65
73
6
40
2.5
49
1.25
74
0
49
-0.25
74
0
49
0.25
74
0
49
-0.25
74
0
49
0.25
74
0
49
-0.25
74
0
0
LTYPE
5
27
100
AcDbSymbolTableRecord
100
AcDbLinetypeTableRecord
2
HIDDEN
70
64
3
_ _ _ _ _ _ _ _ _ _ _ _ _ _ _ _ _ _ _ _ _ _ _
72
65
73
2
40
0.375
49
0.25
74
0
49
-0.125
74
0
0
LTYPE
5
28
100
AcDbSymbolTableRecord
100
AcDbLinetypeTableRecord
2
BORDER
70
64
3
__ __ . __ __ . __ __ . __ __ . __ __ . __ __
72
65
73
6
40
1.75
49
0.5
74
0
49
-0.25
74
0
49
0.5
74
0
49
-0.25
74
0
49
0.0
74
0
49
-0.25
74
0
0
LTYPE
5
29
100
AcDbSymbolTableRecord
100
AcDbLinetypeTableRecord
2
DIVIDE
70
64
3
__ . . __ . . __ . . __ . . __ . . __ . . __
72
65
73
6
40
1.25
49
0.5
74
0
49
-0.25
74
0
49
0.0
74
0
49
-0.25
74
0
49
0.0
74
0
49
-0.25
74
0
0
LTYPE
5
2a
100
AcDbSymbolTableRecord
100
AcDbLinetypeTableRecord
2
DOT2
70
64
3
...............................................
72
65
73
2
40
0.125
49
0.0
74
0
49
-0.125
74
0
0
ENDTAB
0
TABLE
2
STYLE
5
2b
100
AcDbSymbolTable
70
1
0
STYLE
5
2c
100
AcDbSymbolTableRecord
100
AcDbTextStyleTableRecord
2
STANDARD
70
64
40
0.0
41
1.0
50
0.0
71
0
42
5.0
3
txt
4
bigfont
0
ENDTAB
0
TABLE
2
LAYER
5
2d
100
AcDbSymbolTable
70
2
0
LAYER
5
2e
100
AcDbSymbolTableRecord
100
AcDbLayerTableRecord
2
0
70
0
62
7
6
CONTINUOUS
0
LAYER
5
2f
100
AcDbSymbolTableRecord
100
AcDbLayerTableRecord
2
1
70
0
62
7
6
CONTINUOUS
0
ENDTAB
0
TABLE
2
APPID
5
30
100
AcDbSymbolTable
70
1
0
APPID
5
31
100
AcDbSymbolTableRecord
100
AcDbRegAppTableRecord
2
ACAD
70
64
0
ENDTAB
0
TABLE
2
DIMSTYLE
5
32
100
AcDbSymbolTable
70
0
0
ENDTAB
0
TABLE
2
UCS
5
33
100
AcDbSymbolTable
70
0
0
ENDTAB
0
TABLE
2
VIEW
5
34
100
AcDbSymbolTable
70
0
0
ENDTAB
0
TABLE
2
VPORT
5
35
100
AcDbSymbolTable
70
0
0
ENDTAB
0
TABLE
2
BLOCK_RECORD
5
36
100
AcDbSymbolTable
70
0
0
BLOCK_RECORD
5
37
100
AcDbSymbolTableRecord
100
AcDbBlockTableRecord
2
*MODEL_SPACE
0
BLOCK_RECORD
5
38
100
AcDbSymbolTableRecord
100
AcDbBlockTableRecord
2
*PAPER_SPACE
0
BLOCK_RECORD
5
39
100
AcDbSymbolTableRecord
100
AcDbBlockTableRecord
2
OPEN
0
BLOCK_RECORD
5
3a
100
AcDbSymbolTableRecord
100
AcDbBlockTableRecord
2
HALF
0
BLOCK_RECORD
5
3b
100
AcDbSymbolTableRecord
100
AcDbBlockTableRecord
2
CLOSEDBLANK
0
BLOCK_RECORD
5
3c
100
AcDbSymbolTableRecord
100
AcDbBlockTableRecord
2
HALFCLOSE_R
0
BLOCK_RECORD
5
3d
100
AcDbSymbolTableRecord
100
AcDbBlockTableRecord
2
DOT
0
BLOCK_RECORD
5
3e
100
AcDbSymbolTableRecord
100
AcDbBlockTableRecord
2
HALFOPEN_R
0
BLOCK_RECORD
5
3f
100
AcDbSymbolTableRecord
100
AcDbBlockTableRecord
2
CLOSEDF
0
BLOCK_RECORD
5
40
100
AcDbSymbolTableRecord
100
AcDbBlockTableRecord
2
HALF_R
0
ENDTAB
0
ENDSEC
0
SECTION
2
BLOCKS
0
BLOCK
5
41
100
AcDbEntity
8
0
100
AcDbBlockBegin
2
*MODEL_SPACE
70
0
10
0.0
20
0.0
30
0.0
3
*MODEL_SPACE
1

0
ENDBLK
5
42
100
AcDbEntity
8
0
100
AcDbBlockEnd
0
BLOCK
5
43
100
AcDbEntity
67
1
8
0
100
AcDbBlockBegin
2
*PAPER_SPACE
70
0
10
0.0
20
0.0
30
0.0
3
*PAPER_SPACE
1

0
ENDBLK
5
44
100
AcDbEntity
67
1
8
0
100
AcDbBlockEnd
0
BLOCK
5
45
100
AcDbEntity
8
0
100
AcDbBlockBegin
2
OPEN
70
0
10
0.0
20
0.0
30
0.0
3
OPEN
1

0
LINE
5
46
100
AcDbEntity
8
0
6
BYBLOCK
62
0
100
AcDbLine
10
0.000000
20
0.000000
11
-1.000000
21
0.000000
0
LINE
5
47
100
AcDbEntity
8
0
6
BYBLOCK
62
0
100
AcDbLine
10
-1.000000
20
-0.166667
11
0.000000
21
0.000000
0
LINE
5
48
100
AcDbEntity
8
0
6
BYBLOCK
62
0
100
AcDbLine
10
-1.000000
20
0.166667
11
0.000000
21
0.000000
0
ENDBLK
5
49
100
AcDbEntity
8
0
100
AcDbBlockEnd
0
BLOCK
5
4a
100
AcDbEntity
8
0
100
AcDbBlockBegin
2
HALF
70
0
10
0.0
20
0.0
30
0.0
3
HALF
1

0
SOLID
5
4b
100
AcDbEntity
8
0
6
BYBLOCK
62
0
100
AcDbTrace
10
-1.000000
20
0.166667
11
-1.000000
21
-0.166667
12
0.000000
22
0.000000
13
0.000000
23
0.000000
0
ENDBLK
5
4c
100
AcDbEntity
8
0
100
AcDbBlockEnd
0
BLOCK
5
4d
100
AcDbEntity
8
0
100
AcDbBlockBegin
2
CLOSEDBLANK
70
0
10
0.0
20
0.0
30
0.0
3
CLOSEDBLANK
1

0
LINE
5
4e
100
AcDbEntity
8
0
6
BYBLOCK
62
0
100
AcDbLine
10
-1.000000
20
0.166667
11
-1.000000
21
-0.166667
0
LINE
5
4f
100
AcDbEntity
8
0
6
BYBLOCK
62
0
100
AcDbLine
10
0.000000
20
0.000000
11
-1.000000
21
-0.166667
0
LINE
5
50
100
AcDbEntity
8
0
6
BYBLOCK
62
0
100
AcDbLine
10
-1.000000
20
0.166667
11
0.000000
21
0.000000
0
ENDBLK
5
51
100
AcDbEntity
8
0
100
AcDbBlockEnd
0
BLOCK
5
52
100
AcDbEntity
8
0
100
AcDbBlockBegin
2
HALFCLOSE_R
70
0
10
0.0
20
0.0
30
0.0
3
HALFCLOSE_R
1

0
LINE
5
53
100
AcDbEntity
8
0
6
BYBLOCK
62
0
100
AcDbLine
10
-1.000000
20
-0.166667
11
-1.000000
21
0.000000
0
LINE
5
54
100
AcDbEntity
8
0
6
BYBLOCK
62
0
100
AcDbLine
10
-1.000000
20
-0.166667
11
0.000000
21
0.000000
0
LINE
5
55
100
AcDbEntity
8
0
6
BYBLOCK
62
0
100
AcDbLine
10
0.000000
20
0.000000
11
-1.000000
21
0.000000
0
ENDBLK
5
56
100
AcDbEntity
8
0
100
AcDbBlockEnd
0
BLOCK
5
57
100
AcDbEntity
8
0
100
AcDbBlockBegin
2
DOT
70
0
10
0.0
20
0.0
30
0.0
3
DOT
1

0
LINE
5
58
100
AcDbEntity
8
0
6
BYBLOCK
62
0
100
AcDbLine
10
0.000000
20
0.000000
11
-1.000000
21
0.000000
0
POLYLINE
5
59
100
AcDbEntity
8
0
6
BYBLOCK
62
0
100
AcDb2dPolyline
66
1
10
0.0
20
0.0
30
0.0
70
1
40
0.166667
41
0.166667
0
VERTEX
5
5a
100
AcDbEntity
8
0
100
AcDbVertex
100
AcDb2dVertex
62
10
10
-0.083333
20
0.000000
42
1.000000
0
VERTEX
5
5b
100
AcDbEntity
8
0
100
AcDbVertex
100
AcDb2dVertex
62
10
10
0.083333
20
0.000000
42
1.000000
0
SEQEND
5
5c
100
AcDbEntity
8
0
0
ENDBLK
5
5d
100
AcDbEntity
8
0
100
AcDbBlockEnd
0
BLOCK
5
5e
100
AcDbEntity
8
0
100
AcDbBlockBegin
2
HALFOPEN_R
70
0
10
0.0
20
0.0
30
0.0
3
HALFOPEN_R
1

0
LINE
5
5f
100
AcDbEntity
8
0
6
BYBLOCK
62
0
100
AcDbLine
10
-1.000000
20
-0.166667
11
0.000000
21
0.000000
0
LINE
5
60
100
AcDbEntity
8
0
6
BYBLOCK
62
0
100
AcDbLine
10
0.000000
20
0.000000
11
-1.000000
21
0.000000
0
ENDBLK
5
61
100
AcDbEntity
8
0
100
AcDbBlockEnd
0
BLOCK
5
62
100
AcDbEntity
8
0
100
AcDbBlockBegin
2
CLOSEDF
70
0
10
0.0
20
0.0
30
0.0
3
CLOSEDF
1

0
SOLID
5
63
100
AcDbEntity
8
0
6
BYBLOCK
62
0
100
AcDbTrace
10
-1.000000
20
0.166667
11
-1.000000
21
-0.166667
12
0.000000
22
0.000000
13
0.000000
23
0.000000
0
ENDBLK
5
64
100
AcDbEntity
8
0
100
AcDbBlockEnd
0
BLOCK
5
65
100
AcDbEntity
8
0
100
AcDbBlockBegin
2
HALF_R
70
0
10
0.0
20
0.0
30
0.0
3
HALF_R
1

0
SOLID
5
66
100
AcDbEntity
8
0
6
BYBLOCK
62
0
100
AcDbTrace
10
-1.000000
20
-0.166667
11
-1.000000
21
0.000000
12
0.000000
22
0.000000
13
0.000000
23
0.000000
0
ENDBLK
5
67
100
AcDbEntity
8
0
100
AcDbBlockEnd
0
ENDSEC
0
SECTION
2
ENTITIES
0
LINE
5
68
100
AcDbEntity
8
1
100
AcDbLine
6
CONTINUOUS
62
5
10
213.500000
20
327.750000
11
217.000000
21
327.750000
0
LINE
5
69
100
AcDbEntity
8
1
100
AcDbLine
6
CONTINUOUS
62
5
10
213.250000
20
324.625000
11
217.500000
21
324.625000
0
POLYLINE
5
6a
100
AcDbEntity
8
1
6
CONTINUOUS
62
5
100
AcDb2dPolyline
66
1
10
0.0
20
0.0
30
0.0
70
0
0
VERTEX
5
6b
100
AcDbEntity
8
1
100
AcDbVertex
100
AcDb2dVertex
62
5
10
214.500000
20
327.750000
0
VERTEX
5
6c
100
AcDbEntity
8
1
100
AcDbVertex
100
AcDb2dVertex
62
5
10
214.500000
20
323.375000
0
VERTEX
5
6d
100
AcDbEntity
8
1
100
AcDbVertex
100
AcDb2dVertex
62
5
10
214.250000
20
321.187500
0
VERTEX
5
6e
100
AcDbEntity
8
1
100
AcDbVertex
100
AcDb2dVertex
62
5
10
213.500000
20
319.312500
0
SEQEND
5
6f
100
AcDbEntity
8
1
0
LINE
5
70
100
AcDbEntity
8
1
100
AcDbLine
6
CONTINUOUS
62
5
10
216.000000
20
327.750000
11
216.000000
21
319.312500
0
POLYLINE
5
71
100
AcDbEntity
8
1
6
CONTINUOUS
62
5
100
AcDb2dPolyline
66
1
10
0.0
20
0.0
30
0.0
70
0
0
VERTEX
5
72
100
AcDbEntity
8
1
100
AcDbVertex
100
AcDb2dVertex
62
5
10
219.750000
20
328.062500
0
VERTEX
5
73
100
AcDbEntity
8
1
100
AcDbVertex
100
AcDb2dVertex
62
5
10
218.250000
20
326.500000
0
VERTEX
5
74
100
AcDbEntity
8
1
100
AcDbVertex
100
AcDb2dVertex
62
5
10
217.000000
20
325.562500
0
SEQEND
5
75
100
AcDbEntity
8
1
0
POLYLINE
5
76
100
AcDbEntity
8
1
6
CONTINUOUS
62
5
100
AcDb2dPolyline
66
1
10
0.0
20
0.0
30
0.0
70
0
0
VERTEX
5
77
100
AcDbEntity
8
1
100
AcDbVertex
100
AcDb2dVertex
62
5
10
220.000000
20
325.562500
0
VERTEX
5
78
100
AcDbEntity
8
1
100
AcDbVertex
100
AcDb2dVertex
62
5
10
219.000000
20
324.312500
0
VERTEX
5
79
100
AcDbEntity
8
1
100
AcDbVertex
100
AcDb2dVertex
62
5
10
218.250000
20
323.687500
0
VERTEX
5
7a
100
AcDbEntity
8
1
100
AcDbVertex
100
AcDb2dVertex
62
5
10
217.500000
20
323.062500
0
SEQEND
5
7b
100
AcDbEntity
8
1
0
POLYLINE
5
7c
100
AcDbEntity
8
1
6
CONTINUOUS
62
5
100
AcDb2dPolyline
66
1
10
0.0
20
0.0
30
0.0
70
0
0
VERTEX
5
7d
100
AcDbEntity
8
1
100
AcDbVertex
100
AcDb2dVertex
62
5
10
220.250000
20
322.750000
0
VERTEX
5
7e
100
AcDbEntity
8
1
100
AcDbVertex
100
AcDb2dVertex
62
5
10
219.500000
20
321.812500
0
VERTEX
5
7f
100
AcDbEntity
8
1
100
AcDbVertex
100
AcDb2dVertex
62
5
10
218.750000
20
320.875000
0
VERTEX
5
80
100
AcDbEntity
8
1
100
AcDbVertex
100
AcDb2dVertex
62
5
10
217.250000
20
319.625000
0
SEQEND
5
81
100
AcDbEntity
8
1
0
POLYLINE
5
82
100
AcDbEntity
8
1
6
CONTINUOUS
62
5
100
AcDb2dPolyline
66
1
10
0.0
20
0.0
30
0.0
70
0
0
VERTEX
5
83
100
AcDbEntity
8
1
100
AcDbVertex
100
AcDb2dVertex
62
5
10
194.500000
20
327.125000
0
VERTEX
5
84
100
AcDbEntity
8
1
100
AcDbVertex
100
AcDb2dVertex
62
5
10
195.250000
20
327.750000
0
VERTEX
5
85
100
AcDbEntity
8
1
100
AcDbVertex
100
AcDb2dVertex
62
5
10
195.250000
20
320.250000
0
SEQEND
5
86
100
AcDbEntity
8
1
0
LINE
5
87
100
AcDbEntity
8
1
100
AcDbLine
6
CONTINUOUS
62
5
10
194.750000
20
320.250000
11
195.750000
21
320.250000
0
LINE
5
88
100
AcDbEntity
8
1
100
AcDbLine
6
CONTINUOUS
62
5
10
199.000000
20
327.437500
11
199.000000
21
325.875000
0
LINE
5
89
100
AcDbEntity
8
1
100
AcDbLine
6
CONTINUOUS
62
5
10
197.750000
20
325.875000
11
200.000000
21
325.875000
0
POLYLINE
5
8a
100
AcDbEntity
8
1
6
CONTINUOUS
62
5
100
AcDb2dPolyline
66
1
10
0.0
20
0.0
30
0.0
70
0
0
VERTEX
5
8b
100
AcDbEntity
8
1
100
AcDbVertex
100
AcDb2dVertex
62
5
10
198.000000
20
324.625000
0
VERTEX
5
8c
100
AcDbEntity
8
1
100
AcDbVertex
100
AcDb2dVertex
62
5
10
198.250000
20
323.687500
0
VERTEX
5
8d
100
AcDbEntity
8
1
100
AcDbVertex
100
AcDb2dVertex
62
5
10
198.500000
20
322.125000
0
SEQEND
5
8e
100
AcDbEntity
8
1
0
LINE
5
8f
100
AcDbEntity
8
1
100
AcDbLine
6
CONTINUOUS
62
5
10
199.500000
20
325.250000
11
199.000000
21
321.812500
0
LINE
5
90
100
AcDbEntity
8
1
100
AcDbLine
6
CONTINUOUS
62
5
10
197.500000
20
321.187500
11
200.000000
21
322.125000
0
POLYLINE
5
91
100
AcDbEntity
8
1
6
CONTINUOUS
62
5
100
AcDb2dPolyline
66
1
10
0.0
20
0.0
30
0.0
70
0
0
VERTEX
5
92
100
AcDbEntity
8
1
100
AcDbVertex
100
AcDb2dVertex
62
5
10
200.500000
20
327.437500
0
VERTEX
5
93
100
AcDbEntity
8
1
100
AcDbVertex
100
AcDb2dVertex
62
5
10
200.500000
20
325.562500
0
VERTEX
5
94
100
AcDbEntity
8
1
100
AcDbVertex
100
AcDb2dVertex
62
5
10
204.000000
20
325.562500
0
VERTEX
5
95
100
AcDbEntity
8
1
100
AcDbVertex
100
AcDb2dVertex
62
5
10
204.000000
20
327.437500
0
SEQEND
5
96
100
AcDbEntity
8
1
0
LINE
5
97
100
AcDbEntity
8
1
100
AcDbLine
6
CONTINUOUS
62
5
10
202.250000
20
328.062500
11
202.250000
21
325.562500
0
LINE
5
98
100
AcDbEntity
8
1
100
AcDbLine
6
CONTINUOUS
62
5
10
200.250000
20
324.625000
11
204.500000
21
324.625000
0
LINE
5
99
100
AcDbEntity
8
1
100
AcDbLine
6
CONTINUOUS
62
5
10
202.250000
20
324.625000
11
201.250000
21
323.375000
0
POLYLINE
5
9a
100
AcDbEntity
8
1
6
CONTINUOUS
62
5
100
AcDb2dPolyline
66
1
10
0.0
20
0.0
30
0.0
70
0
0
VERTEX
5
9b
100
AcDbEntity
8
1
100
AcDbVertex
100
AcDb2dVertex
62
5
10
200.500000
20
319.937500
0
VERTEX
5
9c
100
AcDbEntity
8
1
100
AcDbVertex
100
AcDb2dVertex
62
5
10
200.500000
20
323.375000
0
VERTEX
5
9d
100
AcDbEntity
8
1
100
AcDbVertex
100
AcDb2dVertex
62
5
10
204.250000
20
323.375000
0
VERTEX
5
9e
100
AcDbEntity
8
1
100
AcDbVertex
100
AcDb2dVertex
62
5
10
204.250000
20
319.937500
0
VERTEX
5
9f
100
AcDbEntity
8
1
100
AcDbVertex
100
AcDb2dVertex
62
5
10
204.000000
20
319.937500
0
SEQEND
5
a0
100
AcDbEntity
8
1
0
LINE
5
a1
100
AcDbEntity
8
1
100
AcDbLine
6
CONTINUOUS
62
5
10
201.750000
20
323.375000
11
201.750000
21
319.937500
0
LINE
5
a2
100
AcDbEntity
8
1
100
AcDbLine
6
CONTINUOUS
62
5
10
203.000000
20
323.375000
11
203.000000
21
319.937500
0
POLYLINE
5
a3
100
AcDbEntity
8
1
6
CONTINUOUS
62
5
100
AcDb2dPolyline
66
1
10
0.0
20
0.0
30
0.0
70
0
0
VERTEX
5
a4
100
AcDbEntity
8
1
100
AcDbVertex
100
AcDb2dVertex
62
5
10
206.500000
20
327.750000
0
VERTEX
5
a5
100
AcDbEntity
8
1
100
AcDbVertex
100
AcDb2dVertex
62
5
10
211.250000
20
327.750000
0
VERTEX
5
a6
100
AcDbEntity
8
1
100
AcDbVertex
100
AcDb2dVertex
62
5
10
208.750000
20
325.875000
0
VERTEX
5
a7
100
AcDbEntity
8
1
100
AcDbVertex
100
AcDb2dVertex
62
5
10
208.750000
20
319.625000
0
VERTEX
5
a8
100
AcDbEntity
8
1
100
AcDbVertex
100
AcDb2dVertex
62
5
10
207.750000
20
319.937500
0
SEQEND
5
a9
100
AcDbEntity
8
1
0
LINE
5
aa
100
AcDbEntity
8
1
100
AcDbLine
6
CONTINUOUS
62
5
10
205.250000
20
324.000000
11
212.250000
21
324.000000
0
POLYLINE
5
ab
100
AcDbEntity
8
1
6
CONTINUOUS
62
5
100
AcDb2dPolyline
66
1
10
0.0
20
0.0
30
0.0
70
0
0
VERTEX
5
ac
100
AcDbEntity
8
1
100
AcDbVertex
100
AcDb2dVertex
62
5
10
178.500000
20
327.750000
0
VERTEX
5
ad
100
AcDbEntity
8
1
100
AcDbVertex
100
AcDb2dVertex
62
5
10
183.250000
20
327.750000
0
VERTEX
5
ae
100
AcDbEntity
8
1
100
AcDbVertex
100
AcDb2dVertex
62
5
10
180.750000
20
325.875000
0
VERTEX
5
af
100
AcDbEntity
8
1
100
AcDbVertex
100
AcDb2dVertex
62
5
10
180.750000
20
319.625000
0
VERTEX
5
b0
100
AcDbEntity
8
1
100
AcDbVertex
100
AcDb2dVertex
62
5
10
179.750000
20
319.937500
0
SEQEND
5
b1
100
AcDbEntity
8
1
0
LINE
5
b2
100
AcDbEntity
8
1
100
AcDbLine
6
CONTINUOUS
62
5
10
177.250000
20
324.000000
11
184.250000
21
324.000000
0
POLYLINE
5
b3
100
AcDbEntity
8
1
6
CONTINUOUS
62
5
100
AcDb2dPolyline
66
1
10
0.0
20
0.0
30
0.0
70
0
0
VERTEX
5
b4
100
AcDbEntity
8
1
100
AcDbVertex
100
AcDb2dVertex
62
5
10
162.750000
20
326.500000
0
VERTEX
5
b5
100
AcDbEntity
8
1
100
AcDbVertex
100
AcDb2dVertex
62
5
10
162.750000
20
321.187500
0
VERTEX
5
b6
100
AcDbEntity
8
1
100
AcDbVertex
100
AcDb2dVertex
62
5
10
163.250000
20
320.562500
0
VERTEX
5
b7
100
AcDbEntity
8
1
100
AcDbVertex
100
AcDb2dVertex
62
5
10
167.000000
20
320.562500
0
SEQEND
5
b8
100
AcDbEntity
8
1
0
LINE
5
b9
100
AcDbEntity
8
1
100
AcDbLine
6
CONTINUOUS
62
5
10
166.000000
20
324.625000
11
162.750000
21
323.687500
0
LINE
5
ba
100
AcDbEntity
8
1
100
AcDbLine
6
CONTINUOUS
62
5
10
166.250000
20
326.187500
11
167.000000
21
325.250000
0
LINE
5
bb
100
AcDbEntity
8
1
100
AcDbLine
6
CONTINUOUS
62
5
10
167.000000
20
327.125000
11
167.750000
21
326.187500
0
POLYLINE
5
bc
100
AcDbEntity
8
1
6
CONTINUOUS
62
5
100
AcDb2dPolyline
66
1
10
0.0
20
0.0
30
0.0
70
0
0
VERTEX
5
bd
100
AcDbEntity
8
1
100
AcDbVertex
100
AcDb2dVertex
62
5
10
155.250000
20
327.125000
0
VERTEX
5
be
100
AcDbEntity
8
1
100
AcDbVertex
100
AcDb2dVertex
62
5
10
155.250000
20
320.875000
0
VERTEX
5
bf
100
AcDbEntity
8
1
100
AcDbVertex
100
AcDb2dVertex
62
5
10
155.750000
20
320.562500
0
VERTEX
5
c0
100
AcDbEntity
8
1
100
AcDbVertex
100
AcDb2dVertex
62
5
10
157.000000
20
321.187500
0
VERTEX
5
c1
100
AcDbEntity
8
1
100
AcDbVertex
100
AcDb2dVertex
62
5
10
158.250000
20
322.125000
0
VERTEX
5
c2
100
AcDbEntity
8
1
100
AcDbVertex
100
AcDb2dVertex
62
5
10
159.500000
20
323.375000
0
SEQEND
5
c3
100
AcDbEntity
8
1
0
LINE
5
c4
100
AcDbEntity
8
1
100
AcDbLine
6
CONTINUOUS
62
5
10
171.000000
20
327.437500
11
171.000000
21
325.875000
0
LINE
5
c5
100
AcDbEntity
8
1
100
AcDbLine
6
CONTINUOUS
62
5
10
169.750000
20
325.875000
11
172.000000
21
325.875000
0
POLYLINE
5
c6
100
AcDbEntity
8
1
6
CONTINUOUS
62
5
100
AcDb2dPolyline
66
1
10
0.0
20
0.0
30
0.0
70
0
0
VERTEX
5
c7
100
AcDbEntity
8
1
100
AcDbVertex
100
AcDb2dVertex
62
5
10
170.000000
20
324.625000
0
VERTEX
5
c8
100
AcDbEntity
8
1
100
AcDbVertex
100
AcDb2dVertex
62
5
10
170.250000
20
323.687500
0
VERTEX
5
c9
100
AcDbEntity
8
1
100
AcDbVertex
100
AcDb2dVertex
62
5
10
170.500000
20
322.125000
0
SEQEND
5
ca
100
AcDbEntity
8
1
0
LINE
5
cb
100
AcDbEntity
8
1
100
AcDbLine
6
CONTINUOUS
62
5
10
171.500000
20
325.250000
11
171.000000
21
321.812500
0
LINE
5
cc
100
AcDbEntity
8
1
100
AcDbLine
6
CONTINUOUS
62
5
10
169.500000
20
321.187500
11
172.000000
21
322.125000
0
POLYLINE
5
cd
100
AcDbEntity
8
1
6
CONTINUOUS
62
5
100
AcDb2dPolyline
66
1
10
0.0
20
0.0
30
0.0
70
0
0
VERTEX
5
ce
100
AcDbEntity
8
1
100
AcDbVertex
100
AcDb2dVertex
62
5
10
172.500000
20
327.437500
0
VERTEX
5
cf
100
AcDbEntity
8
1
100
AcDbVertex
100
AcDb2dVertex
62
5
10
172.500000
20
325.562500
0
VERTEX
5
d0
100
AcDbEntity
8
1
100
AcDbVertex
100
AcDb2dVertex
62
5
10
176.000000
20
325.562500
0
VERTEX
5
d1
100
AcDbEntity
8
1
100
AcDbVertex
100
AcDb2dVertex
62
5
10
176.000000
20
327.437500
0
SEQEND
5
d2
100
AcDbEntity
8
1
0
LINE
5
d3
100
AcDbEntity
8
1
100
AcDbLine
6
CONTINUOUS
62
5
10
174.250000
20
328.062500
11
174.250000
21
325.562500
0
LINE
5
d4
100
AcDbEntity
8
1
100
AcDbLine
6
CONTINUOUS
62
5
10
172.250000
20
324.625000
11
176.500000
21
324.625000
0
LINE
5
d5
100
AcDbEntity
8
1
100
AcDbLine
6
CONTINUOUS
62
5
10
174.250000
20
324.625000
11
173.250000
21
323.375000
0
POLYLINE
5
d6
100
AcDbEntity
8
1
6
CONTINUOUS
62
5
100
AcDb2dPolyline
66
1
10
0.0
20
0.0
30
0.0
70
0
0
VERTEX
5
d7
100
AcDbEntity
8
1
100
AcDbVertex
100
AcDb2dVertex
62
5
10
172.500000
20
319.937500
0
VERTEX
5
d8
100
AcDbEntity
8
1
100
AcDbVertex
100
AcDb2dVertex
62
5
10
172.500000
20
323.375000
0
VERTEX
5
d9
100
AcDbEntity
8
1
100
AcDbVertex
100
AcDb2dVertex
62
5
10
176.250000
20
323.375000
0
VERTEX
5
da
100
AcDbEntity
8
1
100
AcDbVertex
100
AcDb2dVertex
62
5
10
176.250000
20
319.937500
0
VERTEX
5
db
100
AcDbEntity
8
1
100
AcDbVertex
100
AcDb2dVertex
62
5
10
176.000000
20
319.937500
0
SEQEND
5
dc
100
AcDbEntity
8
1
0
LINE
5
dd
100
AcDbEntity
8
1
100
AcDbLine
6
CONTINUOUS
62
5
10
173.750000
20
323.375000
11
173.750000
21
319.937500
0
LINE
5
de
100
AcDbEntity
8
1
100
AcDbLine
6
CONTINUOUS
62
5
10
175.000000
20
323.375000
11
175.000000
21
319.937500
0
POLYLINE
5
df
100
AcDbEntity
8
1
6
DOT2
62
5
100
AcDb2dPolyline
66
1
10
0.0
20
0.0
30
0.0
70
0
0
VERTEX
5
e0
100
AcDbEntity
8
1
100
AcDbVertex
100
AcDb2dVertex
62
5
10
234.712581
20
193.077215
0
VERTEX
5
e1
100
AcDbEntity
8
1
100
AcDbVertex
100
AcDb2dVertex
62
5
10
235.025081
20
194.639715
0
VERTEX
5
e2
100
AcDbEntity
8
1
100
AcDbVertex
100
AcDb2dVertex
62
5
10
235.962581
20
195.264715
0
VERTEX
5
e3
100
AcDbEntity
8
1
100
AcDbVertex
100
AcDb2dVertex
62
5
10
236.900081
20
195.264715
0
VERTEX
5
e4
100
AcDbEntity
8
1
100
AcDbVertex
100
AcDb2dVertex
62
5
10
237.525081
20
194.952215
0
VERTEX
5
e5
100
AcDbEntity
8
1
100
AcDbVertex
100
AcDb2dVertex
62
5
10
237.837581
20
194.014715
0
VERTEX
5
e6
100
AcDbEntity
8
1
100
AcDbVertex
100
AcDb2dVertex
62
5
10
237.837581
20
193.077215
0
VERTEX
5
e7
100
AcDbEntity
8
1
100
AcDbVertex
100
AcDb2dVertex
62
5
10
237.525081
20
192.139715
0
VERTEX
5
e8
100
AcDbEntity
8
1
100
AcDbVertex
100
AcDb2dVertex
62
5
10
234.712581
20
187.764715
0
VERTEX
5
e9
100
AcDbEntity
8
1
100
AcDbVertex
100
AcDb2dVertex
62
5
10
237.837581
20
187.764715
0
VERTEX
5
ea
100
AcDbEntity
8
1
100
AcDbVertex
100
AcDb2dVertex
62
5
10
237.837581
20
188.702215
0
SEQEND
5
eb
100
AcDbEntity
8
1
0
POLYLINE
5
ec
100
AcDbEntity
8
1
6
DOT2
62
5
100
AcDb2dPolyline
66
1
10
0.0
20
0.0
30
0.0
70
1
0
VERTEX
5
ed
100
AcDbEntity
8
1
100
AcDbVertex
100
AcDb2dVertex
62
5
10
240.962581
20
195.264715
0
VERTEX
5
ee
100
AcDbEntity
8
1
100
AcDbVertex
100
AcDb2dVertex
62
5
10
241.587581
20
195.264715
0
VERTEX
5
ef
100
AcDbEntity
8
1
100
AcDbVertex
100
AcDb2dVertex
62
5
10
241.900081
20
194.952215
0
VERTEX
5
f0
100
AcDbEntity
8
1
100
AcDbVertex
100
AcDb2dVertex
62
5
10
242.525081
20
193.702215
0
VERTEX
5
f1
100
AcDbEntity
8
1
100
AcDbVertex
100
AcDb2dVertex
62
5
10
242.837581
20
192.452215
0
VERTEX
5
f2
100
AcDbEntity
8
1
100
AcDbVertex
100
AcDb2dVertex
62
5
10
242.837581
20
190.577215
0
VERTEX
5
f3
100
AcDbEntity
8
1
100
AcDbVertex
100
AcDb2dVertex
62
5
10
242.525081
20
189.327215
0
VERTEX
5
f4
100
AcDbEntity
8
1
100
AcDbVertex
100
AcDb2dVertex
62
5
10
241.900081
20
188.077215
0
VERTEX
5
f5
100
AcDbEntity
8
1
100
AcDbVertex
100
AcDb2dVertex
62
5
10
241.587581
20
187.764715
0
VERTEX
5
f6
100
AcDbEntity
8
1
100
AcDbVertex
100
AcDb2dVertex
62
5
10
240.962581
20
187.764715
0
VERTEX
5
f7
100
AcDbEntity
8
1
100
AcDbVertex
100
AcDb2dVertex
62
5
10
240.650081
20
188.077215
0
VERTEX
5
f8
100
AcDbEntity
8
1
100
AcDbVertex
100
AcDb2dVertex
62
5
10
240.025081
20
189.327215
0
VERTEX
5
f9
100
AcDbEntity
8
1
100
AcDbVertex
100
AcDb2dVertex
62
5
10
239.712581
20
190.577215
0
VERTEX
5
fa
100
AcDbEntity
8
1
100
AcDbVertex
100
AcDb2dVertex
62
5
10
239.712581
20
192.452215
0
VERTEX
5
fb
100
AcDbEntity
8
1
100
AcDbVertex
100
AcDb2dVertex
62
5
10
240.025081
20
193.702215
0
VERTEX
5
fc
100
AcDbEntity
8
1
100
AcDbVertex
100
AcDb2dVertex
62
5
10
240.650081
20
194.952215
0
VERTEX
5
fd
100
AcDbEntity
8
1
100
AcDbVertex
100
AcDb2dVertex
62
5
10
240.962581
20
195.264715
0
SEQEND
5
fe
100
AcDbEntity
8
1
0
POLYLINE
5
ff
100
AcDbEntity
8
1
6
CONTINUOUS
62
5
100
AcDb2dPolyline
66
1
10
0.0
20
0.0
30
0.0
70
0
0
VERTEX
5
100
100
AcDbEntity
8
1
100
AcDbVertex
100
AcDb2dVertex
62
5
10
203.556993
20
161.473122
0
VERTEX
5
101
100
AcDbEntity
8
1
100
AcDbVertex
100
AcDb2dVertex
62
5
10
205.342412
20
161.512992
0
VERTEX
5
102
100
AcDbEntity
8
1
100
AcDbVertex
100
AcDb2dVertex
62
5
10
205.850219
20
161.512992
0
VERTEX
5
103
100
AcDbEntity
8
1
100
AcDbVertex
100
AcDb2dVertex
62
5
10
205.851597
20
160.287055
0
VERTEX
5
104
100
AcDbEntity
8
1
100
AcDbVertex
100
AcDb2dVertex
62
5
10
205.682443
20
160.287055
0
VERTEX
5
105
100
AcDbEntity
8
1
100
AcDbVertex
100
AcDb2dVertex
62
5
10
205.640068
20
160.244680
0
VERTEX
5
106
100
AcDbEntity
8
1
100
AcDbVertex
100
AcDb2dVertex
62
5
10
205.343790
20
160.244680
0
SEQEND
5
107
100
AcDbEntity
8
1
0
POLYLINE
5
108
100
AcDbEntity
8
1
6
DOT2
62
5
100
AcDb2dPolyline
66
1
10
0.0
20
0.0
30
0.0
70
1
0
VERTEX
5
109
100
AcDbEntity
8
1
100
AcDbVertex
100
AcDb2dVertex
62
5
10
183.361154
20
195.264715
0
VERTEX
5
10a
100
AcDbEntity
8
1
100
AcDbVertex
100
AcDb2dVertex
62
5
10
183.986154
20
195.264715
0
VERTEX
5
10b
100
AcDbEntity
8
1
100
AcDbVertex
100
AcDb2dVertex
62
5
10
184.611154
20
194.952215
0
VERTEX
5
10c
100
AcDbEntity
8
1
100
AcDbVertex
100
AcDb2dVertex
62
5
10
184.923654
20
194.327215
0
VERTEX
5
10d
100
AcDbEntity
8
1
100
AcDbVertex
100
AcDb2dVertex
62
5
10
184.923654
20
193.077215
0
VERTEX
5
10e
100
AcDbEntity
8
1
100
AcDbVertex
100
AcDb2dVertex
62
5
10
184.611154
20
192.452215
0
VERTEX
5
10f
100
AcDbEntity
8
1
100
AcDbVertex
100
AcDb2dVertex
62
5
10
182.736154
20
191.202215
0
VERTEX
5
110
100
AcDbEntity
8
1
100
AcDbVertex
100
AcDb2dVertex
62
5
10
182.111154
20
190.264715
0
VERTEX
5
111
100
AcDbEntity
8
1
100
AcDbVertex
100
AcDb2dVertex
62
5
10
182.111154
20
189.014715
0
VERTEX
5
112
100
AcDbEntity
8
1
100
AcDbVertex
100
AcDb2dVertex
62
5
10
182.423654
20
188.389715
0
VERTEX
5
113
100
AcDbEntity
8
1
100
AcDbVertex
100
AcDb2dVertex
62
5
10
182.736154
20
188.077215
0
VERTEX
5
114
100
AcDbEntity
8
1
100
AcDbVertex
100
AcDb2dVertex
62
5
10
183.361154
20
187.764715
0
VERTEX
5
115
100
AcDbEntity
8
1
100
AcDbVertex
100
AcDb2dVertex
62
5
10
183.986154
20
187.764715
0
VERTEX
5
116
100
AcDbEntity
8
1
100
AcDbVertex
100
AcDb2dVertex
62
5
10
184.611154
20
188.077215
0
VERTEX
5
117
100
AcDbEntity
8
1
100
AcDbVertex
100
AcDb2dVertex
62
5
10
184.923654
20
188.389715
0
VERTEX
5
118
100
AcDbEntity
8
1
100
AcDbVertex
100
AcDb2dVertex
62
5
10
185.236154
20
189.014715
0
VERTEX
5
119
100
AcDbEntity
8
1
100
AcDbVertex
100
AcDb2dVertex
62
5
10
185.236154
20
190.264715
0
VERTEX
5
11a
100
AcDbEntity
8
1
100
AcDbVertex
100
AcDb2dVertex
62
5
10
184.611154
20
191.202215
0
VERTEX
5
11b
100
AcDbEntity
8
1
100
AcDbVertex
100
AcDb2dVertex
62
5
10
182.736154
20
192.452215
0
VERTEX
5
11c
100
AcDbEntity
8
1
100
AcDbVertex
100
AcDb2dVertex
62
5
10
182.423654
20
193.077215
0
VERTEX
5
11d
100
AcDbEntity
8
1
100
AcDbVertex
100
AcDb2dVertex
62
5
10
182.423654
20
194.327215
0
VERTEX
5
11e
100
AcDbEntity
8
1
100
AcDbVertex
100
AcDb2dVertex
62
5
10
182.736154
20
194.952215
0
VERTEX
5
11f
100
AcDbEntity
8
1
100
AcDbVertex
100
AcDb2dVertex
62
5
10
183.361154
20
195.264715
0
SEQEND
5
120
100
AcDbEntity
8
1
0
LINE
5
121
100
AcDbEntity
8
1
100
AcDbLine
6
CONTINUOUS
62
5
10
195.861154
20
161.987726
11
195.861154
21
188.514715
0
LINE
5
122
100
AcDbEntity
8
1
100
AcDbLine
6
CONTINUOUS
62
5
10
203.861154
20
161.987726
11
203.861154
21
188.514715
0
POLYLINE
5
123
100
AcDbEntity
8
1
6
CONTINUOUS
62
5
100
AcDb2dPolyline
66
1
10
0.0
20
0.0
30
0.0
70
0
0
VERTEX
5
124
100
AcDbEntity
8
1
100
AcDbVertex
100
AcDb2dVertex
62
5
10
179.611154
20
186.514715
0
VERTEX
5
125
100
AcDbEntity
8
1
100
AcDbVertex
100
AcDb2dVertex
62
5
10
195.861154
20
186.514715
0
VERTEX
5
126
100
AcDbEntity
8
1
100
AcDbVertex
100
AcDb2dVertex
62
5
10
189.861154
20
185.514715
0
VERTEX
5
127
100
AcDbEntity
8
1
100
AcDbVertex
100
AcDb2dVertex
62
5
10
189.861154
20
187.514715
0
VERTEX
5
128
100
AcDbEntity
8
1
100
AcDbVertex
100
AcDb2dVertex
62
5
10
195.861154
20
186.514715
0
VERTEX
5
129
100
AcDbEntity
8
1
100
AcDbVertex
100
AcDb2dVertex
62
5
10
189.861154
20
186.014715
0
VERTEX
5
12a
100
AcDbEntity
8
1
100
AcDbVertex
100
AcDb2dVertex
62
5
10
189.861154
20
187.014715
0
VERTEX
5
12b
100
AcDbEntity
8
1
100
AcDbVertex
100
AcDb2dVertex
62
5
10
195.861154
20
186.514715
0
SEQEND
5
12c
100
AcDbEntity
8
1
0
LINE
5
12d
100
AcDbEntity
8
1
100
AcDbLine
6
CONTINUOUS
62
5
10
195.861154
20
186.514715
11
203.861154
21
186.514715
0
LINE
5
12e
100
AcDbEntity
8
1
100
AcDbLine
6
CONTINUOUS
62
5
10
206.861154
20
186.514715
11
203.861154
21
186.514715
0
LINE
5
12f
100
AcDbEntity
8
1
100
AcDbLine
6
CONTINUOUS
62
5
10
123.250000
20
328.062500
11
123.250000
21
326.500000
0
LINE
5
130
100
AcDbEntity
8
1
100
AcDbLine
6
CONTINUOUS
62
5
10
121.250000
20
326.500000
11
125.000000
21
326.500000
0
POLYLINE
5
131
100
AcDbEntity
8
1
6
CONTINUOUS
62
5
100
AcDb2dPolyline
66
1
10
0.0
20
0.0
30
0.0
70
0
0
VERTEX
5
132
100
AcDbEntity
8
1
100
AcDbVertex
100
AcDb2dVertex
62
5
10
124.250000
20
325.875000
0
VERTEX
5
133
100
AcDbEntity
8
1
100
AcDbVertex
100
AcDb2dVertex
62
5
10
124.000000
20
324.312500
0
VERTEX
5
134
100
AcDbEntity
8
1
100
AcDbVertex
100
AcDb2dVertex
62
5
10
123.250000
20
322.750000
0
VERTEX
5
135
100
AcDbEntity
8
1
100
AcDbVertex
100
AcDb2dVertex
62
5
10
122.250000
20
320.875000
0
VERTEX
5
136
100
AcDbEntity
8
1
100
AcDbVertex
100
AcDb2dVertex
62
5
10
121.500000
20
319.937500
0
SEQEND
5
137
100
AcDbEntity
8
1
0
POLYLINE
5
138
100
AcDbEntity
8
1
6
CONTINUOUS
62
5
100
AcDb2dPolyline
66
1
10
0.0
20
0.0
30
0.0
70
0
0
VERTEX
5
139
100
AcDbEntity
8
1
100
AcDbVertex
100
AcDb2dVertex
62
5
10
124.500000
20
321.187500
0
VERTEX
5
13a
100
AcDbEntity
8
1
100
AcDbVertex
100
AcDb2dVertex
62
5
10
123.250000
20
322.750000
0
VERTEX
5
13b
100
AcDbEntity
8
1
100
AcDbVertex
100
AcDb2dVertex
62
5
10
121.750000
20
324.937500
0
SEQEND
5
13c
100
AcDbEntity
8
1
0
LINE
5
13d
100
AcDbEntity
8
1
100
AcDbLine
6
CONTINUOUS
62
5
10
125.000000
20
325.562500
11
128.500000
21
325.562500
0
POLYLINE
5
13e
100
AcDbEntity
8
1
6
CONTINUOUS
62
5
100
AcDb2dPolyline
66
1
10
0.0
20
0.0
30
0.0
70
0
0
VERTEX
5
13f
100
AcDbEntity
8
1
100
AcDbVertex
100
AcDb2dVertex
62
5
10
127.500000
20
328.375000
0
VERTEX
5
140
100
AcDbEntity
8
1
100
AcDbVertex
100
AcDb2dVertex
62
5
10
127.500000
20
320.250000
0
VERTEX
5
141
100
AcDbEntity
8
1
100
AcDbVertex
100
AcDb2dVertex
62
5
10
127.000000
20
319.625000
0
VERTEX
5
142
100
AcDbEntity
8
1
100
AcDbVertex
100
AcDb2dVertex
62
5
10
126.500000
20
319.625000
0
SEQEND
5
143
100
AcDbEntity
8
1
0
LINE
5
144
100
AcDbEntity
8
1
100
AcDbLine
6
CONTINUOUS
62
5
10
126.000000
20
322.750000
11
125.000000
21
324.312500
0
LINE
5
145
100
AcDbEntity
8
1
100
AcDbLine
6
CONTINUOUS
62
5
10
116.500000
20
328.062500
11
117.250000
21
326.500000
0
LINE
5
146
100
AcDbEntity
8
1
100
AcDbLine
6
CONTINUOUS
62
5
10
119.250000
20
328.062500
11
118.250000
21
326.500000
0
LINE
5
147
100
AcDbEntity
8
1
100
AcDbLine
6
CONTINUOUS
62
5
10
115.750000
20
326.187500
11
120.000000
21
326.187500
0
LINE
5
148
100
AcDbEntity
8
1
100
AcDbLine
6
CONTINUOUS
62
5
10
115.500000
20
324.312500
11
120.250000
21
324.312500
0
POLYLINE
5
149
100
AcDbEntity
8
1
6
CONTINUOUS
62
5
100
AcDb2dPolyline
66
1
10
0.0
20
0.0
30
0.0
70
0
0
VERTEX
5
14a
100
AcDbEntity
8
1
100
AcDbVertex
100
AcDb2dVertex
62
5
10
117.750000
20
326.187500
0
VERTEX
5
14b
100
AcDbEntity
8
1
100
AcDbVertex
100
AcDb2dVertex
62
5
10
117.750000
20
324.000000
0
VERTEX
5
14c
100
AcDbEntity
8
1
100
AcDbVertex
100
AcDb2dVertex
62
5
10
117.250000
20
322.750000
0
VERTEX
5
14d
100
AcDbEntity
8
1
100
AcDbVertex
100
AcDb2dVertex
62
5
10
116.250000
20
321.812500
0
SEQEND
5
14e
100
AcDbEntity
8
1
0
POLYLINE
5
14f
100
AcDbEntity
8
1
6
CONTINUOUS
62
5
100
AcDb2dPolyline
66
1
10
0.0
20
0.0
30
0.0
70
0
0
VERTEX
5
150
100
AcDbEntity
8
1
100
AcDbVertex
100
AcDb2dVertex
62
5
10
117.750000
20
323.687500
0
VERTEX
5
151
100
AcDbEntity
8
1
100
AcDbVertex
100
AcDb2dVertex
62
5
10
119.000000
20
322.750000
0
VERTEX
5
152
100
AcDbEntity
8
1
100
AcDbVertex
100
AcDb2dVertex
62
5
10
120.000000
20
321.812500
0
SEQEND
5
153
100
AcDbEntity
8
1
0
LINE
5
154
100
AcDbEntity
8
1
100
AcDbLine
6
CONTINUOUS
62
5
10
114.000000
20
328.062500
11
115.000000
21
326.812500
0
POLYLINE
5
155
100
AcDbEntity
8
1
6
CONTINUOUS
62
5
100
AcDb2dPolyline
66
1
10
0.0
20
0.0
30
0.0
70
0
0
VERTEX
5
156
100
AcDbEntity
8
1
100
AcDbVertex
100
AcDb2dVertex
62
5
10
113.500000
20
324.625000
0
VERTEX
5
157
100
AcDbEntity
8
1
100
AcDbVertex
100
AcDb2dVertex
62
5
10
115.000000
20
324.625000
0
VERTEX
5
158
100
AcDbEntity
8
1
100
AcDbVertex
100
AcDb2dVertex
62
5
10
115.000000
20
321.500000
0
VERTEX
5
159
100
AcDbEntity
8
1
100
AcDbVertex
100
AcDb2dVertex
62
5
10
113.750000
20
320.250000
0
SEQEND
5
15a
100
AcDbEntity
8
1
0
POLYLINE
5
15b
100
AcDbEntity
8
1
6
CONTINUOUS
62
5
100
AcDb2dPolyline
66
1
10
0.0
20
0.0
30
0.0
70
0
0
VERTEX
5
15c
100
AcDbEntity
8
1
100
AcDbVertex
100
AcDb2dVertex
62
5
10
115.000000
20
321.500000
0
VERTEX
5
15d
100
AcDbEntity
8
1
100
AcDbVertex
100
AcDb2dVertex
62
5
10
115.750000
20
320.562500
0
VERTEX
5
15e
100
AcDbEntity
8
1
100
AcDbVertex
100
AcDb2dVertex
62
5
10
116.500000
20
320.250000
0
VERTEX
5
15f
100
AcDbEntity
8
1
100
AcDbVertex
100
AcDb2dVertex
62
5
10
120.250000
20
319.937500
0
SEQEND
5
160
100
AcDbEntity
8
1
0
POLYLINE
5
161
100
AcDbEntity
8
1
6
CONTINUOUS
62
5
100
AcDb2dPolyline
66
1
10
0.0
20
0.0
30
0.0
70
0
0
VERTEX
5
162
100
AcDbEntity
8
1
100
AcDbVertex
100
AcDb2dVertex
62
5
10
116.250000
20
318.375000
0
VERTEX
5
163
100
AcDbEntity
8
1
100
AcDbVertex
100
AcDb2dVertex
62
5
10
115.500000
20
317.125000
0
VERTEX
5
164
100
AcDbEntity
8
1
100
AcDbVertex
100
AcDb2dVertex
62
5
10
114.750000
20
316.187500
0
VERTEX
5
165
100
AcDbEntity
8
1
100
AcDbVertex
100
AcDb2dVertex
62
5
10
113.750000
20
315.250000
0
SEQEND
5
166
100
AcDbEntity
8
1
0
POLYLINE
5
167
100
AcDbEntity
8
1
6
CONTINUOUS
62
5
100
AcDb2dPolyline
66
1
10
0.0
20
0.0
30
0.0
70
0
0
VERTEX
5
168
100
AcDbEntity
8
1
100
AcDbVertex
100
AcDb2dVertex
62
5
10
116.000000
20
317.750000
0
VERTEX
5
169
100
AcDbEntity
8
1
100
AcDbVertex
100
AcDb2dVertex
62
5
10
118.250000
20
317.750000
0
VERTEX
5
16a
100
AcDbEntity
8
1
100
AcDbVertex
100
AcDb2dVertex
62
5
10
117.000000
20
315.875000
0
SEQEND
5
16b
100
AcDbEntity
8
1
0
POLYLINE
5
16c
100
AcDbEntity
8
1
6
CONTINUOUS
62
5
100
AcDb2dPolyline
66
1
10
0.0
20
0.0
30
0.0
70
0
0
VERTEX
5
16d
100
AcDbEntity
8
1
100
AcDbVertex
100
AcDb2dVertex
62
5
10
114.750000
20
315.875000
0
VERTEX
5
16e
100
AcDbEntity
8
1
100
AcDbVertex
100
AcDb2dVertex
62
5
10
119.250000
20
315.875000
0
VERTEX
5
16f
100
AcDbEntity
8
1
100
AcDbVertex
100
AcDb2dVertex
62
5
10
119.250000
20
313.062500
0
VERTEX
5
170
100
AcDbEntity
8
1
100
AcDbVertex
100
AcDb2dVertex
62
5
10
114.750000
20
313.062500
0
SEQEND
5
171
100
AcDbEntity
8
1
0
LINE
5
172
100
AcDbEntity
8
1
100
AcDbLine
6
CONTINUOUS
62
5
10
117.000000
20
315.875000
11
117.000000
21
313.062500
0
POLYLINE
5
173
100
AcDbEntity
8
1
6
CONTINUOUS
62
5
100
AcDb2dPolyline
66
1
10
0.0
20
0.0
30
0.0
70
0
0
VERTEX
5
174
100
AcDbEntity
8
1
100
AcDbVertex
100
AcDb2dVertex
62
5
10
114.750000
20
315.875000
0
VERTEX
5
175
100
AcDbEntity
8
1
100
AcDbVertex
100
AcDb2dVertex
62
5
10
114.750000
20
310.562500
0
VERTEX
5
176
100
AcDbEntity
8
1
100
AcDbVertex
100
AcDb2dVertex
62
5
10
115.250000
20
309.937500
0
VERTEX
5
177
100
AcDbEntity
8
1
100
AcDbVertex
100
AcDb2dVertex
62
5
10
120.250000
20
309.937500
0
VERTEX
5
178
100
AcDbEntity
8
1
100
AcDbVertex
100
AcDb2dVertex
62
5
10
120.250000
20
311.187500
0
SEQEND
5
179
100
AcDbEntity
8
1
0
POLYLINE
5
17a
100
AcDbEntity
8
1
6
CONTINUOUS
62
5
100
AcDb2dPolyline
66
1
10
0.0
20
0.0
30
0.0
70
0
0
VERTEX
5
17b
100
AcDbEntity
8
1
100
AcDbVertex
100
AcDb2dVertex
62
5
10
129.250000
20
319.625000
0
VERTEX
5
17c
100
AcDbEntity
8
1
100
AcDbVertex
100
AcDb2dVertex
62
5
10
130.000000
20
322.125000
0
VERTEX
5
17d
100
AcDbEntity
8
1
100
AcDbVertex
100
AcDb2dVertex
62
5
10
130.250000
20
324.000000
0
VERTEX
5
17e
100
AcDbEntity
8
1
100
AcDbVertex
100
AcDb2dVertex
62
5
10
130.250000
20
327.437500
0
VERTEX
5
17f
100
AcDbEntity
8
1
100
AcDbVertex
100
AcDb2dVertex
62
5
10
136.250000
20
327.437500
0
SEQEND
5
180
100
AcDbEntity
8
1
0
LINE
5
181
100
AcDbEntity
8
1
100
AcDbLine
6
CONTINUOUS
62
5
10
133.250000
20
328.375000
11
133.250000
21
327.437500
0
POLYLINE
5
182
100
AcDbEntity
8
1
6
CONTINUOUS
62
5
100
AcDb2dPolyline
66
1
10
0.0
20
0.0
30
0.0
70
0
0
VERTEX
5
183
100
AcDbEntity
8
1
100
AcDbVertex
100
AcDb2dVertex
62
5
10
131.250000
20
323.375000
0
VERTEX
5
184
100
AcDbEntity
8
1
100
AcDbVertex
100
AcDb2dVertex
62
5
10
131.000000
20
321.812500
0
VERTEX
5
185
100
AcDbEntity
8
1
100
AcDbVertex
100
AcDb2dVertex
62
5
10
130.500000
20
320.562500
0
SEQEND
5
186
100
AcDbEntity
8
1
0
POLYLINE
5
187
100
AcDbEntity
8
1
6
CONTINUOUS
62
5
100
AcDb2dPolyline
66
1
10
0.0
20
0.0
30
0.0
70
0
0
VERTEX
5
188
100
AcDbEntity
8
1
100
AcDbVertex
100
AcDb2dVertex
62
5
10
132.250000
20
325.250000
0
VERTEX
5
189
100
AcDbEntity
8
1
100
AcDbVertex
100
AcDb2dVertex
62
5
10
132.250000
20
320.250000
0
VERTEX
5
18a
100
AcDbEntity
8
1
100
AcDbVertex
100
AcDb2dVertex
62
5
10
132.750000
20
319.625000
0
VERTEX
5
18b
100
AcDbEntity
8
1
100
AcDbVertex
100
AcDb2dVertex
62
5
10
135.000000
20
319.625000
0
VERTEX
5
18c
100
AcDbEntity
8
1
100
AcDbVertex
100
AcDb2dVertex
62
5
10
135.250000
20
319.937500
0
VERTEX
5
18d
100
AcDbEntity
8
1
100
AcDbVertex
100
AcDb2dVertex
62
5
10
135.250000
20
320.562500
0
SEQEND
5
18e
100
AcDbEntity
8
1
0
LINE
5
18f
100
AcDbEntity
8
1
100
AcDbLine
6
CONTINUOUS
62
5
10
133.000000
20
325.875000
11
134.000000
21
324.625000
0
POLYLINE
5
190
100
AcDbEntity
8
1
6
CONTINUOUS
62
5
100
AcDb2dPolyline
66
1
10
0.0
20
0.0
30
0.0
70
0
0
VERTEX
5
191
100
AcDbEntity
8
1
100
AcDbVertex
100
AcDb2dVertex
62
5
10
135.250000
20
323.687500
0
VERTEX
5
192
100
AcDbEntity
8
1
100
AcDbVertex
100
AcDb2dVertex
62
5
10
136.000000
20
322.437500
0
VERTEX
5
193
100
AcDbEntity
8
1
100
AcDbVertex
100
AcDb2dVertex
62
5
10
136.500000
20
321.187500
0
SEQEND
5
194
100
AcDbEntity
8
1
0
POLYLINE
5
195
100
AcDbEntity
8
1
6
CONTINUOUS
62
5
100
AcDb2dPolyline
66
1
10
0.0
20
0.0
30
0.0
70
1
0
VERTEX
5
196
100
AcDbEntity
8
1
100
AcDbVertex
100
AcDb2dVertex
62
5
10
98.750000
20
327.750000
0
VERTEX
5
197
100
AcDbEntity
8
1
100
AcDbVertex
100
AcDb2dVertex
62
5
10
103.250000
20
327.750000
0
VERTEX
5
198
100
AcDbEntity
8
1
100
AcDbVertex
100
AcDb2dVertex
62
5
10
103.250000
20
324.937500
0
VERTEX
5
199
100
AcDbEntity
8
1
100
AcDbVertex
100
AcDb2dVertex
62
5
10
98.750000
20
324.937500
0
VERTEX
5
19a
100
AcDbEntity
8
1
100
AcDbVertex
100
AcDb2dVertex
62
5
10
98.750000
20
327.750000
0
SEQEND
5
19b
100
AcDbEntity
8
1
0
LINE
5
19c
100
AcDbEntity
8
1
100
AcDbLine
6
CONTINUOUS
62
5
10
98.750000
20
326.500000
11
103.250000
21
326.500000
0
POLYLINE
5
19d
100
AcDbEntity
8
1
6
CONTINUOUS
62
5
100
AcDb2dPolyline
66
1
10
0.0
20
0.0
30
0.0
70
0
0
VERTEX
5
19e
100
AcDbEntity
8
1
100
AcDbVertex
100
AcDb2dVertex
62
5
10
99.000000
20
324.000000
0
VERTEX
5
19f
100
AcDbEntity
8
1
100
AcDbVertex
100
AcDb2dVertex
62
5
10
98.500000
20
323.062500
0
VERTEX
5
1a0
100
AcDbEntity
8
1
100
AcDbVertex
100
AcDb2dVertex
62
5
10
97.750000
20
322.125000
0
SEQEND
5
1a1
100
AcDbEntity
8
1
0
LINE
5
1a2
100
AcDbEntity
8
1
100
AcDbLine
6
CONTINUOUS
62
5
10
98.500000
20
323.062500
11
103.750000
21
323.062500
0
LINE
5
1a3
100
AcDbEntity
8
1
100
AcDbLine
6
CONTINUOUS
62
5
10
99.000000
20
321.812500
11
103.000000
21
321.812500
0
LINE
5
1a4
100
AcDbEntity
8
1
100
AcDbLine
6
CONTINUOUS
62
5
10
97.750000
20
320.250000
11
104.250000
21
320.250000
0
LINE
5
1a5
100
AcDbEntity
8
1
100
AcDbLine
6
CONTINUOUS
62
5
10
101.000000
20
324.312500
11
101.000000
21
320.250000
0
POLYLINE
5
1a6
100
AcDbEntity
8
1
6
CONTINUOUS
62
5
100
AcDb2dPolyline
66
1
10
0.0
20
0.0
30
0.0
70
0
0
VERTEX
5
1a7
100
AcDbEntity
8
1
100
AcDbVertex
100
AcDb2dVertex
62
5
10
91.250000
20
317.125000
0
VERTEX
5
1a8
100
AcDbEntity
8
1
100
AcDbVertex
100
AcDb2dVertex
62
5
10
91.250000
20
310.875000
0
VERTEX
5
1a9
100
AcDbEntity
8
1
100
AcDbVertex
100
AcDb2dVertex
62
5
10
91.750000
20
310.562500
0
VERTEX
5
1aa
100
AcDbEntity
8
1
100
AcDbVertex
100
AcDb2dVertex
62
5
10
93.000000
20
311.187500
0
VERTEX
5
1ab
100
AcDbEntity
8
1
100
AcDbVertex
100
AcDb2dVertex
62
5
10
94.250000
20
312.125000
0
VERTEX
5
1ac
100
AcDbEntity
8
1
100
AcDbVertex
100
AcDb2dVertex
62
5
10
95.500000
20
313.375000
0
SEQEND
5
1ad
100
AcDbEntity
8
1
0
POLYLINE
5
1ae
100
AcDbEntity
8
1
6
CONTINUOUS
62
5
100
AcDb2dPolyline
66
1
10
0.0
20
0.0
30
0.0
70
0
0
VERTEX
5
1af
100
AcDbEntity
8
1
100
AcDbVertex
100
AcDb2dVertex
62
5
10
97.750000
20
314.312500
0
VERTEX
5
1b0
100
AcDbEntity
8
1
100
AcDbVertex
100
AcDb2dVertex
62
5
10
98.000000
20
314.000000
0
VERTEX
5
1b1
100
AcDbEntity
8
1
100
AcDbVertex
100
AcDb2dVertex
62
5
10
104.750000
20
314.000000
0
SEQEND
5
1b2
100
AcDbEntity
8
1
0
LINE
5
1b3
100
AcDbEntity
8
1
100
AcDbLine
6
CONTINUOUS
62
5
10
82.000000
20
327.750000
11
82.000000
21
320.250000
0
LINE
5
1b4
100
AcDbEntity
8
1
100
AcDbLine
6
CONTINUOUS
62
5
10
84.500000
20
327.750000
11
82.000000
21
323.375000
0
LINE
5
1b5
100
AcDbEntity
8
1
100
AcDbLine
6
CONTINUOUS
62
5
10
82.750000
20
324.625000
11
84.750000
21
320.250000
0
POLYLINE
5
1b6
100
AcDbEntity
8
1
6
CONTINUOUS
62
5
100
AcDb2dPolyline
66
1
10
0.0
20
0.0
30
0.0
70
0
0
VERTEX
5
1b7
100
AcDbEntity
8
1
100
AcDbVertex
100
AcDb2dVertex
62
5
10
82.750000
20
315.875000
0
VERTEX
5
1b8
100
AcDbEntity
8
1
100
AcDbVertex
100
AcDb2dVertex
62
5
10
86.750000
20
315.875000
0
VERTEX
5
1b9
100
AcDbEntity
8
1
100
AcDbVertex
100
AcDb2dVertex
62
5
10
86.750000
20
311.500000
0
VERTEX
5
1ba
100
AcDbEntity
8
1
100
AcDbVertex
100
AcDb2dVertex
62
5
10
82.750000
20
311.500000
0
SEQEND
5
1bb
100
AcDbEntity
8
1
0
POLYLINE
5
1bc
100
AcDbEntity
8
1
6
CONTINUOUS
62
5
100
AcDb2dPolyline
66
1
10
0.0
20
0.0
30
0.0
70
0
0
VERTEX
5
1bd
100
AcDbEntity
8
1
100
AcDbVertex
100
AcDb2dVertex
62
5
10
75.500000
20
314.625000
0
VERTEX
5
1be
100
AcDbEntity
8
1
100
AcDbVertex
100
AcDb2dVertex
62
5
10
78.250000
20
314.625000
0
VERTEX
5
1bf
100
AcDbEntity
8
1
100
AcDbVertex
100
AcDb2dVertex
62
5
10
78.250000
20
310.875000
0
VERTEX
5
1c0
100
AcDbEntity
8
1
100
AcDbVertex
100
AcDb2dVertex
62
5
10
75.500000
20
310.875000
0
SEQEND
5
1c1
100
AcDbEntity
8
1
0
LINE
5
1c2
100
AcDbEntity
8
1
100
AcDbLine
6
CONTINUOUS
62
5
10
75.500000
20
312.750000
11
78.250000
21
312.750000
0
POLYLINE
5
1c3
100
AcDbEntity
8
1
6
CONTINUOUS
62
5
100
AcDb2dPolyline
66
1
10
0.0
20
0.0
30
0.0
70
1
0
VERTEX
5
1c4
100
AcDbEntity
8
1
100
AcDbVertex
100
AcDb2dVertex
62
5
10
79.000000
20
327.750000
0
VERTEX
5
1c5
100
AcDbEntity
8
1
100
AcDbVertex
100
AcDb2dVertex
62
5
10
79.500000
20
327.750000
0
VERTEX
5
1c6
100
AcDbEntity
8
1
100
AcDbVertex
100
AcDb2dVertex
62
5
10
80.000000
20
327.437500
0
VERTEX
5
1c7
100
AcDbEntity
8
1
100
AcDbVertex
100
AcDb2dVertex
62
5
10
80.250000
20
326.812500
0
VERTEX
5
1c8
100
AcDbEntity
8
1
100
AcDbVertex
100
AcDb2dVertex
62
5
10
80.250000
20
325.562500
0
VERTEX
5
1c9
100
AcDbEntity
8
1
100
AcDbVertex
100
AcDb2dVertex
62
5
10
80.000000
20
324.937500
0
VERTEX
5
1ca
100
AcDbEntity
8
1
100
AcDbVertex
100
AcDb2dVertex
62
5
10
78.500000
20
323.687500
0
VERTEX
5
1cb
100
AcDbEntity
8
1
100
AcDbVertex
100
AcDb2dVertex
62
5
10
78.000000
20
322.750000
0
VERTEX
5
1cc
100
AcDbEntity
8
1
100
AcDbVertex
100
AcDb2dVertex
62
5
10
78.000000
20
321.500000
0
VERTEX
5
1cd
100
AcDbEntity
8
1
100
AcDbVertex
100
AcDb2dVertex
62
5
10
78.250000
20
320.875000
0
VERTEX
5
1ce
100
AcDbEntity
8
1
100
AcDbVertex
100
AcDb2dVertex
62
5
10
78.500000
20
320.562500
0
VERTEX
5
1cf
100
AcDbEntity
8
1
100
AcDbVertex
100
AcDb2dVertex
62
5
10
79.000000
20
320.250000
0
VERTEX
5
1d0
100
AcDbEntity
8
1
100
AcDbVertex
100
AcDb2dVertex
62
5
10
79.500000
20
320.250000
0
VERTEX
5
1d1
100
AcDbEntity
8
1
100
AcDbVertex
100
AcDb2dVertex
62
5
10
80.000000
20
320.562500
0
VERTEX
5
1d2
100
AcDbEntity
8
1
100
AcDbVertex
100
AcDb2dVertex
62
5
10
80.250000
20
320.875000
0
VERTEX
5
1d3
100
AcDbEntity
8
1
100
AcDbVertex
100
AcDb2dVertex
62
5
10
80.500000
20
321.500000
0
VERTEX
5
1d4
100
AcDbEntity
8
1
100
AcDbVertex
100
AcDb2dVertex
62
5
10
80.500000
20
322.750000
0
VERTEX
5
1d5
100
AcDbEntity
8
1
100
AcDbVertex
100
AcDb2dVertex
62
5
10
80.000000
20
323.687500
0
VERTEX
5
1d6
100
AcDbEntity
8
1
100
AcDbVertex
100
AcDb2dVertex
62
5
10
78.500000
20
324.937500
0
VERTEX
5
1d7
100
AcDbEntity
8
1
100
AcDbVertex
100
AcDb2dVertex
62
5
10
78.250000
20
325.562500
0
VERTEX
5
1d8
100
AcDbEntity
8
1
100
AcDbVertex
100
AcDb2dVertex
62
5
10
78.250000
20
326.812500
0
VERTEX
5
1d9
100
AcDbEntity
8
1
100
AcDbVertex
100
AcDb2dVertex
62
5
10
78.500000
20
327.437500
0
VERTEX
5
1da
100
AcDbEntity
8
1
100
AcDbVertex
100
AcDb2dVertex
62
5
10
79.000000
20
327.750000
0
SEQEND
5
1db
100
AcDbEntity
8
1
0
LINE
5
1dc
100
AcDbEntity
8
1
100
AcDbLine
6
CONTINUOUS
62
5
10
90.750000
20
328.062500
11
89.750000
21
326.187500
0
POLYLINE
5
1dd
100
AcDbEntity
8
1
6
CONTINUOUS
62
5
100
AcDb2dPolyline
66
1
10
0.0
20
0.0
30
0.0
70
0
0
VERTEX
5
1de
100
AcDbEntity
8
1
100
AcDbVertex
100
AcDb2dVertex
62
5
10
91.250000
20
326.500000
0
VERTEX
5
1df
100
AcDbEntity
8
1
100
AcDbVertex
100
AcDb2dVertex
62
5
10
90.500000
20
324.937500
0
VERTEX
5
1e0
100
AcDbEntity
8
1
100
AcDbVertex
100
AcDb2dVertex
62
5
10
89.500000
20
323.375000
0
SEQEND
5
1e1
100
AcDbEntity
8
1
0
LINE
5
1e2
100
AcDbEntity
8
1
100
AcDbLine
6
CONTINUOUS
62
5
10
90.500000
20
324.937500
11
90.500000
21
319.625000
0
LINE
5
1e3
100
AcDbEntity
8
1
100
AcDbLine
6
CONTINUOUS
62
5
10
92.500000
20
328.375000
11
92.000000
21
326.187500
0
POLYLINE
5
1e4
100
AcDbEntity
8
1
6
CONTINUOUS
62
5
100
AcDb2dPolyline
66
1
10
0.0
20
0.0
30
0.0
70
0
0
VERTEX
5
1e5
100
AcDbEntity
8
1
100
AcDbVertex
100
AcDb2dVertex
62
5
10
91.750000
20
327.437500
0
VERTEX
5
1e6
100
AcDbEntity
8
1
100
AcDbVertex
100
AcDb2dVertex
62
5
10
93.500000
20
327.437500
0
VERTEX
5
1e7
100
AcDbEntity
8
1
100
AcDbVertex
100
AcDb2dVertex
62
5
10
93.500000
20
326.187500
0
SEQEND
5
1e8
100
AcDbEntity
8
1
0
LINE
5
1e9
100
AcDbEntity
8
1
100
AcDbLine
6
CONTINUOUS
62
5
10
91.500000
20
326.187500
11
94.250000
21
326.187500
0
POLYLINE
5
1ea
100
AcDbEntity
8
1
6
CONTINUOUS
62
5
100
AcDb2dPolyline
66
1
10
0.0
20
0.0
30
0.0
70
1
0
VERTEX
5
1eb
100
AcDbEntity
8
1
100
AcDbVertex
100
AcDb2dVertex
62
5
10
91.750000
20
325.250000
0
VERTEX
5
1ec
100
AcDbEntity
8
1
100
AcDbVertex
100
AcDb2dVertex
62
5
10
91.750000
20
323.687500
0
VERTEX
5
1ed
100
AcDbEntity
8
1
100
AcDbVertex
100
AcDb2dVertex
62
5
10
93.500000
20
323.687500
0
VERTEX
5
1ee
100
AcDbEntity
8
1
100
AcDbVertex
100
AcDb2dVertex
62
5
10
93.500000
20
325.250000
0
VERTEX
5
1ef
100
AcDbEntity
8
1
100
AcDbVertex
100
AcDb2dVertex
62
5
10
91.750000
20
325.250000
0
SEQEND
5
1f0
100
AcDbEntity
8
1
0
POLYLINE
5
1f1
100
AcDbEntity
8
1
6
CONTINUOUS
62
5
100
AcDb2dPolyline
66
1
10
0.0
20
0.0
30
0.0
70
0
0
VERTEX
5
1f2
100
AcDbEntity
8
1
100
AcDbVertex
100
AcDb2dVertex
62
5
10
94.000000
20
322.750000
0
VERTEX
5
1f3
100
AcDbEntity
8
1
100
AcDbVertex
100
AcDb2dVertex
62
5
10
91.500000
20
322.750000
0
VERTEX
5
1f4
100
AcDbEntity
8
1
100
AcDbVertex
100
AcDb2dVertex
62
5
10
91.500000
20
321.500000
0
SEQEND
5
1f5
100
AcDbEntity
8
1
0
LINE
5
1f6
100
AcDbEntity
8
1
100
AcDbLine
6
CONTINUOUS
62
5
10
91.000000
20
321.500000
11
94.250000
21
321.500000
0
LINE
5
1f7
100
AcDbEntity
8
1
100
AcDbLine
6
CONTINUOUS
62
5
10
93.000000
20
323.375000
11
93.000000
21
319.625000
0
LINE
5
1f8
100
AcDbEntity
8
1
100
AcDbLine
6
CONTINUOUS
62
5
10
94.500000
20
327.750000
11
96.250000
21
327.750000
0
LINE
5
1f9
100
AcDbEntity
8
1
100
AcDbLine
6
CONTINUOUS
62
5
10
94.250000
20
325.562500
11
96.500000
21
325.562500
0
POLYLINE
5
1fa
100
AcDbEntity
8
1
6
CONTINUOUS
62
5
100
AcDb2dPolyline
66
1
10
0.0
20
0.0
30
0.0
70
0
0
VERTEX
5
1fb
100
AcDbEntity
8
1
100
AcDbVertex
100
AcDb2dVertex
62
5
10
95.500000
20
325.562500
0
VERTEX
5
1fc
100
AcDbEntity
8
1
100
AcDbVertex
100
AcDb2dVertex
62
5
10
95.500000
20
319.625000
0
VERTEX
5
1fd
100
AcDbEntity
8
1
100
AcDbVertex
100
AcDb2dVertex
62
5
10
95.000000
20
319.625000
0
SEQEND
5
1fe
100
AcDbEntity
8
1
0
POLYLINE
5
1ff
100
AcDbEntity
8
1
6
CONTINUOUS
62
5
100
AcDb2dPolyline
66
1
10
0.0
20
0.0
30
0.0
70
0
0
VERTEX
5
200
100
AcDbEntity
8
1
100
AcDbVertex
100
AcDb2dVertex
62
5
10
108.250000
20
314.937500
0
VERTEX
5
201
100
AcDbEntity
8
1
100
AcDbVertex
100
AcDb2dVertex
62
5
10
108.500000
20
314.937500
0
VERTEX
5
202
100
AcDbEntity
8
1
100
AcDbVertex
100
AcDb2dVertex
62
5
10
110.250000
20
313.687500
0
SEQEND
5
203
100
AcDbEntity
8
1
0
LINE
5
204
100
AcDbEntity
8
1
100
AcDbLine
6
CONTINUOUS
62
5
10
108.250000
20
317.750000
11
108.250000
21
310.250000
0
LINE
5
205
100
AcDbEntity
8
1
100
AcDbLine
6
CONTINUOUS
62
5
10
105.250000
20
326.187500
11
108.500000
21
326.187500
0
POLYLINE
5
206
100
AcDbEntity
8
1
6
CONTINUOUS
62
5
100
AcDb2dPolyline
66
1
10
0.0
20
0.0
30
0.0
70
0
0
VERTEX
5
207
100
AcDbEntity
8
1
100
AcDbVertex
100
AcDb2dVertex
62
5
10
106.750000
20
328.062500
0
VERTEX
5
208
100
AcDbEntity
8
1
100
AcDbVertex
100
AcDb2dVertex
62
5
10
106.750000
20
326.187500
0
VERTEX
5
209
100
AcDbEntity
8
1
100
AcDbVertex
100
AcDb2dVertex
62
5
10
106.250000
20
322.437500
0
VERTEX
5
20a
100
AcDbEntity
8
1
100
AcDbVertex
100
AcDb2dVertex
62
5
10
105.250000
20
319.937500
0
SEQEND
5
20b
100
AcDbEntity
8
1
0
POLYLINE
5
20c
100
AcDbEntity
8
1
6
CONTINUOUS
62
5
100
AcDb2dPolyline
66
1
10
0.0
20
0.0
30
0.0
70
0
0
VERTEX
5
20d
100
AcDbEntity
8
1
100
AcDbVertex
100
AcDb2dVertex
62
5
10
106.500000
20
324.000000
0
VERTEX
5
20e
100
AcDbEntity
8
1
100
AcDbVertex
100
AcDb2dVertex
62
5
10
108.000000
20
324.000000
0
VERTEX
5
20f
100
AcDbEntity
8
1
100
AcDbVertex
100
AcDb2dVertex
62
5
10
108.000000
20
322.750000
0
VERTEX
5
210
100
AcDbEntity
8
1
100
AcDbVertex
100
AcDb2dVertex
62
5
10
107.750000
20
320.875000
0
VERTEX
5
211
100
AcDbEntity
8
1
100
AcDbVertex
100
AcDb2dVertex
62
5
10
107.500000
20
319.937500
0
VERTEX
5
212
100
AcDbEntity
8
1
100
AcDbVertex
100
AcDb2dVertex
62
5
10
106.750000
20
319.937500
0
SEQEND
5
213
100
AcDbEntity
8
1
0
POLYLINE
5
214
100
AcDbEntity
8
1
6
CONTINUOUS
62
5
100
AcDb2dPolyline
66
1
10
0.0
20
0.0
30
0.0
70
0
0
VERTEX
5
215
100
AcDbEntity
8
1
100
AcDbVertex
100
AcDb2dVertex
62
5
10
110.250000
20
328.062500
0
VERTEX
5
216
100
AcDbEntity
8
1
100
AcDbVertex
100
AcDb2dVertex
62
5
10
109.500000
20
326.187500
0
VERTEX
5
217
100
AcDbEntity
8
1
100
AcDbVertex
100
AcDb2dVertex
62
5
10
108.500000
20
324.625000
0
SEQEND
5
218
100
AcDbEntity
8
1
0
LINE
5
219
100
AcDbEntity
8
1
100
AcDbLine
6
CONTINUOUS
62
5
10
109.500000
20
326.187500
11
112.500000
21
326.187500
0
POLYLINE
5
21a
100
AcDbEntity
8
1
6
CONTINUOUS
62
5
100
AcDb2dPolyline
66
1
10
0.0
20
0.0
30
0.0
70
0
0
VERTEX
5
21b
100
AcDbEntity
8
1
100
AcDbVertex
100
AcDb2dVertex
62
5
10
111.750000
20
326.187500
0
VERTEX
5
21c
100
AcDbEntity
8
1
100
AcDbVertex
100
AcDb2dVertex
62
5
10
111.250000
20
323.062500
0
VERTEX
5
21d
100
AcDbEntity
8
1
100
AcDbVertex
100
AcDb2dVertex
62
5
10
110.500000
20
321.500000
0
VERTEX
5
21e
100
AcDbEntity
8
1
100
AcDbVertex
100
AcDb2dVertex
62
5
10
108.500000
20
319.625000
0
SEQEND
5
21f
100
AcDbEntity
8
1
0
POLYLINE
5
220
100
AcDbEntity
8
1
6
CONTINUOUS
62
5
100
AcDb2dPolyline
66
1
10
0.0
20
0.0
30
0.0
70
0
0
VERTEX
5
221
100
AcDbEntity
8
1
100
AcDbVertex
100
AcDb2dVertex
62
5
10
109.750000
20
326.187500
0
VERTEX
5
222
100
AcDbEntity
8
1
100
AcDbVertex
100
AcDb2dVertex
62
5
10
109.750000
20
323.687500
0
VERTEX
5
223
100
AcDbEntity
8
1
100
AcDbVertex
100
AcDb2dVertex
62
5
10
110.250000
20
321.812500
0
VERTEX
5
224
100
AcDbEntity
8
1
100
AcDbVertex
100
AcDb2dVertex
62
5
10
111.250000
20
320.250000
0
VERTEX
5
225
100
AcDbEntity
8
1
100
AcDbVertex
100
AcDb2dVertex
62
5
10
112.250000
20
319.312500
0
SEQEND
5
226
100
AcDbEntity
8
1
0
POLYLINE
5
227
100
AcDbEntity
8
1
6
CONTINUOUS
62
5
100
AcDb2dPolyline
66
1
10
0.0
20
0.0
30
0.0
70
0
0
VERTEX
5
228
100
AcDbEntity
8
1
100
AcDbVertex
100
AcDb2dVertex
62
5
10
104.375000
20
287.375000
0
VERTEX
5
229
100
AcDbEntity
8
1
100
AcDbVertex
100
AcDb2dVertex
62
5
10
107.812500
20
287.375000
0
VERTEX
5
22a
100
AcDbEntity
8
1
100
AcDbVertex
100
AcDb2dVertex
62
5
10
107.812500
20
283.625000
0
VERTEX
5
22b
100
AcDbEntity
8
1
100
AcDbVertex
100
AcDb2dVertex
62
5
10
104.375000
20
283.625000
0
SEQEND
5
22c
100
AcDbEntity
8
1
0
LINE
5
22d
100
AcDbEntity
8
1
100
AcDbLine
6
CONTINUOUS
62
5
10
104.375000
20
285.500000
11
107.812500
21
285.500000
0
POLYLINE
5
22e
100
AcDbEntity
8
1
6
CONTINUOUS
62
5
100
AcDb2dPolyline
66
1
10
0.0
20
0.0
30
0.0
70
0
0
VERTEX
5
22f
100
AcDbEntity
8
1
100
AcDbVertex
100
AcDb2dVertex
62
5
10
113.437500
20
288.625000
0
VERTEX
5
230
100
AcDbEntity
8
1
100
AcDbVertex
100
AcDb2dVertex
62
5
10
118.437500
20
288.625000
0
VERTEX
5
231
100
AcDbEntity
8
1
100
AcDbVertex
100
AcDb2dVertex
62
5
10
118.437500
20
284.250000
0
VERTEX
5
232
100
AcDbEntity
8
1
100
AcDbVertex
100
AcDb2dVertex
62
5
10
113.437500
20
284.250000
0
SEQEND
5
233
100
AcDbEntity
8
1
0
POLYLINE
5
234
100
AcDbEntity
8
1
6
CONTINUOUS
62
5
100
AcDb2dPolyline
66
1
10
0.0
20
0.0
30
0.0
70
0
0
VERTEX
5
235
100
AcDbEntity
8
1
100
AcDbVertex
100
AcDb2dVertex
62
5
10
85.625000
20
288.937500
0
VERTEX
5
236
100
AcDbEntity
8
1
100
AcDbVertex
100
AcDb2dVertex
62
5
10
85.000000
20
290.187500
0
VERTEX
5
237
100
AcDbEntity
8
1
100
AcDbVertex
100
AcDb2dVertex
62
5
10
84.062500
20
290.500000
0
VERTEX
5
238
100
AcDbEntity
8
1
100
AcDbVertex
100
AcDb2dVertex
62
5
10
83.437500
20
290.500000
0
VERTEX
5
239
100
AcDbEntity
8
1
100
AcDbVertex
100
AcDb2dVertex
62
5
10
82.812500
20
290.187500
0
VERTEX
5
23a
100
AcDbEntity
8
1
100
AcDbVertex
100
AcDb2dVertex
62
5
10
82.187500
20
289.250000
0
VERTEX
5
23b
100
AcDbEntity
8
1
100
AcDbVertex
100
AcDb2dVertex
62
5
10
82.187500
20
288.312500
0
VERTEX
5
23c
100
AcDbEntity
8
1
100
AcDbVertex
100
AcDb2dVertex
62
5
10
82.812500
20
287.375000
0
VERTEX
5
23d
100
AcDbEntity
8
1
100
AcDbVertex
100
AcDb2dVertex
62
5
10
85.000000
20
286.125000
0
VERTEX
5
23e
100
AcDbEntity
8
1
100
AcDbVertex
100
AcDb2dVertex
62
5
10
85.625000
20
285.187500
0
VERTEX
5
23f
100
AcDbEntity
8
1
100
AcDbVertex
100
AcDb2dVertex
62
5
10
85.625000
20
284.250000
0
VERTEX
5
240
100
AcDbEntity
8
1
100
AcDbVertex
100
AcDb2dVertex
62
5
10
85.000000
20
283.312500
0
VERTEX
5
241
100
AcDbEntity
8
1
100
AcDbVertex
100
AcDb2dVertex
62
5
10
84.062500
20
283.000000
0
VERTEX
5
242
100
AcDbEntity
8
1
100
AcDbVertex
100
AcDb2dVertex
62
5
10
83.437500
20
283.000000
0
VERTEX
5
243
100
AcDbEntity
8
1
100
AcDbVertex
100
AcDb2dVertex
62
5
10
82.500000
20
283.625000
0
VERTEX
5
244
100
AcDbEntity
8
1
100
AcDbVertex
100
AcDb2dVertex
62
5
10
82.187500
20
284.875000
0
SEQEND
5
245
100
AcDbEntity
8
1
0
LINE
5
246
100
AcDbEntity
8
1
100
AcDbLine
6
CONTINUOUS
62
5
10
93.750000
20
288.937500
11
98.437500
21
289.562500
0
LINE
5
247
100
AcDbEntity
8
1
100
AcDbLine
6
CONTINUOUS
62
5
10
92.187500
20
287.062500
11
99.687500
21
287.062500
0
POLYLINE
5
248
100
AcDbEntity
8
1
6
CONTINUOUS
62
5
100
AcDb2dPolyline
66
1
10
0.0
20
0.0
30
0.0
70
0
0
VERTEX
5
249
100
AcDbEntity
8
1
100
AcDbVertex
100
AcDb2dVertex
62
5
10
96.250000
20
289.250000
0
VERTEX
5
24a
100
AcDbEntity
8
1
100
AcDbVertex
100
AcDb2dVertex
62
5
10
96.250000
20
287.062500
0
VERTEX
5
24b
100
AcDbEntity
8
1
100
AcDbVertex
100
AcDb2dVertex
62
5
10
95.937500
20
285.500000
0
VERTEX
5
24c
100
AcDbEntity
8
1
100
AcDbVertex
100
AcDb2dVertex
62
5
10
95.000000
20
284.250000
0
VERTEX
5
24d
100
AcDbEntity
8
1
100
AcDbVertex
100
AcDb2dVertex
62
5
10
94.062500
20
283.312500
0
SEQEND
5
24e
100
AcDbEntity
8
1
0
LINE
5
24f
100
AcDbEntity
8
1
100
AcDbLine
6
CONTINUOUS
62
5
10
72.500000
20
290.500000
11
72.500000
21
283.000000
0
LINE
5
250
100
AcDbEntity
8
1
100
AcDbLine
6
CONTINUOUS
62
5
10
75.625000
20
290.500000
11
72.500000
21
286.125000
0
LINE
5
251
100
AcDbEntity
8
1
100
AcDbLine
6
CONTINUOUS
62
5
10
73.437500
20
287.375000
11
75.937500
21
283.000000
0
POLYLINE
5
252
100
AcDbEntity
8
1
6
CONTINUOUS
62
5
100
AcDb2dPolyline
66
1
10
0.0
20
0.0
30
0.0
70
0
0
VERTEX
5
253
100
AcDbEntity
8
1
100
AcDbVertex
100
AcDb2dVertex
62
5
10
77.500000
20
289.562500
0
VERTEX
5
254
100
AcDbEntity
8
1
100
AcDbVertex
100
AcDb2dVertex
62
5
10
77.500000
20
290.500000
0
VERTEX
5
255
100
AcDbEntity
8
1
100
AcDbVertex
100
AcDb2dVertex
62
5
10
80.625000
20
290.500000
0
VERTEX
5
256
100
AcDbEntity
8
1
100
AcDbVertex
100
AcDb2dVertex
62
5
10
80.625000
20
289.875000
0
VERTEX
5
257
100
AcDbEntity
8
1
100
AcDbVertex
100
AcDb2dVertex
62
5
10
80.000000
20
288.312500
0
VERTEX
5
258
100
AcDbEntity
8
1
100
AcDbVertex
100
AcDb2dVertex
62
5
10
79.375000
20
286.125000
0
VERTEX
5
259
100
AcDbEntity
8
1
100
AcDbVertex
100
AcDb2dVertex
62
5
10
78.750000
20
283.000000
0
SEQEND
5
25a
100
AcDbEntity
8
1
0
POLYLINE
5
25b
100
AcDbEntity
8
1
6
CONTINUOUS
62
5
100
AcDb2dPolyline
66
1
10
0.0
20
0.0
30
0.0
70
0
0
VERTEX
5
25c
100
AcDbEntity
8
1
100
AcDbVertex
100
AcDb2dVertex
62
5
10
68.000000
20
327.750000
0
VERTEX
5
25d
100
AcDbEntity
8
1
100
AcDbVertex
100
AcDb2dVertex
62
5
10
65.750000
20
322.125000
0
VERTEX
5
25e
100
AcDbEntity
8
1
100
AcDbVertex
100
AcDb2dVertex
62
5
10
68.750000
20
322.125000
0
SEQEND
5
25f
100
AcDbEntity
8
1
0
LINE
5
260
100
AcDbEntity
8
1
100
AcDbLine
6
CONTINUOUS
62
5
10
68.000000
20
327.750000
11
68.000000
21
320.250000
0
LINE
5
261
100
AcDbEntity
8
1
100
AcDbLine
6
CONTINUOUS
62
5
10
67.500000
20
320.250000
11
68.500000
21
320.250000
0
POLYLINE
5
262
100
AcDbEntity
8
1
6
CONTINUOUS
62
5
100
AcDb2dPolyline
66
1
10
0.0
20
0.0
30
0.0
70
0
0
VERTEX
5
263
100
AcDbEntity
8
1
100
AcDbVertex
100
AcDb2dVertex
62
5
10
62.187500
20
290.500000
0
VERTEX
5
264
100
AcDbEntity
8
1
100
AcDbVertex
100
AcDb2dVertex
62
5
10
63.125000
20
283.000000
0
VERTEX
5
265
100
AcDbEntity
8
1
100
AcDbVertex
100
AcDb2dVertex
62
5
10
64.062500
20
290.500000
0
VERTEX
5
266
100
AcDbEntity
8
1
100
AcDbVertex
100
AcDb2dVertex
62
5
10
65.000000
20
283.000000
0
VERTEX
5
267
100
AcDbEntity
8
1
100
AcDbVertex
100
AcDb2dVertex
62
5
10
65.937500
20
290.500000
0
SEQEND
5
268
100
AcDbEntity
8
1
0
POLYLINE
5
269
100
AcDbEntity
8
1
6
CONTINUOUS
62
5
100
AcDb2dPolyline
66
1
10
0.0
20
0.0
30
0.0
70
0
0
VERTEX
5
26a
100
AcDbEntity
8
1
100
AcDbVertex
100
AcDb2dVertex
62
5
10
55.625000
20
288.937500
0
VERTEX
5
26b
100
AcDbEntity
8
1
100
AcDbVertex
100
AcDb2dVertex
62
5
10
55.312500
20
289.875000
0
VERTEX
5
26c
100
AcDbEntity
8
1
100
AcDbVertex
100
AcDb2dVertex
62
5
10
54.687500
20
290.500000
0
VERTEX
5
26d
100
AcDbEntity
8
1
100
AcDbVertex
100
AcDb2dVertex
62
5
10
53.750000
20
290.500000
0
VERTEX
5
26e
100
AcDbEntity
8
1
100
AcDbVertex
100
AcDb2dVertex
62
5
10
52.812500
20
289.562500
0
VERTEX
5
26f
100
AcDbEntity
8
1
100
AcDbVertex
100
AcDb2dVertex
62
5
10
52.500000
20
288.000000
0
VERTEX
5
270
100
AcDbEntity
8
1
100
AcDbVertex
100
AcDb2dVertex
62
5
10
52.500000
20
285.500000
0
VERTEX
5
271
100
AcDbEntity
8
1
100
AcDbVertex
100
AcDb2dVertex
62
5
10
52.812500
20
283.937500
0
VERTEX
5
272
100
AcDbEntity
8
1
100
AcDbVertex
100
AcDb2dVertex
62
5
10
53.750000
20
283.000000
0
VERTEX
5
273
100
AcDbEntity
8
1
100
AcDbVertex
100
AcDb2dVertex
62
5
10
54.687500
20
283.000000
0
VERTEX
5
274
100
AcDbEntity
8
1
100
AcDbVertex
100
AcDb2dVertex
62
5
10
55.312500
20
283.625000
0
VERTEX
5
275
100
AcDbEntity
8
1
100
AcDbVertex
100
AcDb2dVertex
62
5
10
55.937500
20
285.187500
0
SEQEND
5
276
100
AcDbEntity
8
1
0
POLYLINE
5
277
100
AcDbEntity
8
1
6
CONTINUOUS
62
5
100
AcDb2dPolyline
66
1
10
0.0
20
0.0
30
0.0
70
0
0
VERTEX
5
278
100
AcDbEntity
8
1
100
AcDbVertex
100
AcDb2dVertex
62
5
10
60.625000
20
288.937500
0
VERTEX
5
279
100
AcDbEntity
8
1
100
AcDbVertex
100
AcDb2dVertex
62
5
10
60.000000
20
290.187500
0
VERTEX
5
27a
100
AcDbEntity
8
1
100
AcDbVertex
100
AcDb2dVertex
62
5
10
59.062500
20
290.500000
0
VERTEX
5
27b
100
AcDbEntity
8
1
100
AcDbVertex
100
AcDb2dVertex
62
5
10
58.437500
20
290.500000
0
VERTEX
5
27c
100
AcDbEntity
8
1
100
AcDbVertex
100
AcDb2dVertex
62
5
10
57.812500
20
290.187500
0
VERTEX
5
27d
100
AcDbEntity
8
1
100
AcDbVertex
100
AcDb2dVertex
62
5
10
57.187500
20
289.250000
0
VERTEX
5
27e
100
AcDbEntity
8
1
100
AcDbVertex
100
AcDb2dVertex
62
5
10
57.187500
20
288.312500
0
VERTEX
5
27f
100
AcDbEntity
8
1
100
AcDbVertex
100
AcDb2dVertex
62
5
10
57.812500
20
287.375000
0
VERTEX
5
280
100
AcDbEntity
8
1
100
AcDbVertex
100
AcDb2dVertex
62
5
10
60.000000
20
286.125000
0
VERTEX
5
281
100
AcDbEntity
8
1
100
AcDbVertex
100
AcDb2dVertex
62
5
10
60.625000
20
285.187500
0
VERTEX
5
282
100
AcDbEntity
8
1
100
AcDbVertex
100
AcDb2dVertex
62
5
10
60.625000
20
284.250000
0
VERTEX
5
283
100
AcDbEntity
8
1
100
AcDbVertex
100
AcDb2dVertex
62
5
10
60.000000
20
283.312500
0
VERTEX
5
284
100
AcDbEntity
8
1
100
AcDbVertex
100
AcDb2dVertex
62
5
10
59.062500
20
283.000000
0
VERTEX
5
285
100
AcDbEntity
8
1
100
AcDbVertex
100
AcDb2dVertex
62
5
10
58.437500
20
283.000000
0
VERTEX
5
286
100
AcDbEntity
8
1
100
AcDbVertex
100
AcDb2dVertex
62
5
10
57.500000
20
283.625000
0
VERTEX
5
287
100
AcDbEntity
8
1
100
AcDbVertex
100
AcDb2dVertex
62
5
10
57.187500
20
284.875000
0
SEQEND
5
288
100
AcDbEntity
8
1
0
LINE
5
289
100
AcDbEntity
8
1
100
AcDbLine
6
CONTINUOUS
62
5
10
70.000000
20
327.750000
11
70.000000
21
320.250000
0
LINE
5
28a
100
AcDbEntity
8
1
100
AcDbLine
6
CONTINUOUS
62
5
10
72.500000
20
327.750000
11
70.000000
21
323.375000
0
LINE
5
28b
100
AcDbEntity
8
1
100
AcDbLine
6
CONTINUOUS
62
5
10
70.750000
20
324.625000
11
72.750000
21
320.250000
0
LINE
5
28c
100
AcDbEntity
8
1
100
AcDbLine
6
CONTINUOUS
62
5
10
67.000000
20
316.187500
11
70.750000
21
316.812500
0
LINE
5
28d
100
AcDbEntity
8
1
100
AcDbLine
6
CONTINUOUS
62
5
10
65.750000
20
314.312500
11
71.750000
21
314.312500
0
POLYLINE
5
28e
100
AcDbEntity
8
1
6
CONTINUOUS
62
5
100
AcDb2dPolyline
66
1
10
0.0
20
0.0
30
0.0
70
0
0
VERTEX
5
28f
100
AcDbEntity
8
1
100
AcDbVertex
100
AcDb2dVertex
62
5
10
69.000000
20
316.500000
0
VERTEX
5
290
100
AcDbEntity
8
1
100
AcDbVertex
100
AcDb2dVertex
62
5
10
69.000000
20
314.312500
0
VERTEX
5
291
100
AcDbEntity
8
1
100
AcDbVertex
100
AcDb2dVertex
62
5
10
68.750000
20
312.750000
0
VERTEX
5
292
100
AcDbEntity
8
1
100
AcDbVertex
100
AcDb2dVertex
62
5
10
68.000000
20
311.500000
0
VERTEX
5
293
100
AcDbEntity
8
1
100
AcDbVertex
100
AcDb2dVertex
62
5
10
67.250000
20
310.562500
0
SEQEND
5
294
100
AcDbEntity
8
1
0
LINE
5
295
100
AcDbEntity
8
1
100
AcDbLine
6
CONTINUOUS
62
5
10
67.500000
20
286.750000
11
70.625000
21
286.750000
0
POLYLINE
5
296
100
AcDbEntity
8
1
6
DOT2
62
5
100
AcDb2dPolyline
66
1
10
0.0
20
0.0
30
0.0
70
0
0
VERTEX
5
297
100
AcDbEntity
8
1
100
AcDbVertex
100
AcDb2dVertex
62
5
10
114.694868
20
193.077215
0
VERTEX
5
298
100
AcDbEntity
8
1
100
AcDbVertex
100
AcDb2dVertex
62
5
10
115.007368
20
194.639715
0
VERTEX
5
299
100
AcDbEntity
8
1
100
AcDbVertex
100
AcDb2dVertex
62
5
10
115.944868
20
195.264715
0
VERTEX
5
29a
100
AcDbEntity
8
1
100
AcDbVertex
100
AcDb2dVertex
62
5
10
116.882368
20
195.264715
0
VERTEX
5
29b
100
AcDbEntity
8
1
100
AcDbVertex
100
AcDb2dVertex
62
5
10
117.507368
20
194.952215
0
VERTEX
5
29c
100
AcDbEntity
8
1
100
AcDbVertex
100
AcDb2dVertex
62
5
10
117.819868
20
194.014715
0
VERTEX
5
29d
100
AcDbEntity
8
1
100
AcDbVertex
100
AcDb2dVertex
62
5
10
117.819868
20
193.077215
0
VERTEX
5
29e
100
AcDbEntity
8
1
100
AcDbVertex
100
AcDb2dVertex
62
5
10
117.507368
20
192.139715
0
VERTEX
5
29f
100
AcDbEntity
8
1
100
AcDbVertex
100
AcDb2dVertex
62
5
10
114.694868
20
187.764715
0
VERTEX
5
2a0
100
AcDbEntity
8
1
100
AcDbVertex
100
AcDb2dVertex
62
5
10
117.819868
20
187.764715
0
VERTEX
5
2a1
100
AcDbEntity
8
1
100
AcDbVertex
100
AcDb2dVertex
62
5
10
117.819868
20
188.702215
0
SEQEND
5
2a2
100
AcDbEntity
8
1
0
POLYLINE
5
2a3
100
AcDbEntity
8
1
6
DOT2
62
5
100
AcDb2dPolyline
66
1
10
0.0
20
0.0
30
0.0
70
1
0
VERTEX
5
2a4
100
AcDbEntity
8
1
100
AcDbVertex
100
AcDb2dVertex
62
5
10
120.944868
20
195.264715
0
VERTEX
5
2a5
100
AcDbEntity
8
1
100
AcDbVertex
100
AcDb2dVertex
62
5
10
121.569868
20
195.264715
0
VERTEX
5
2a6
100
AcDbEntity
8
1
100
AcDbVertex
100
AcDb2dVertex
62
5
10
122.194868
20
194.952215
0
VERTEX
5
2a7
100
AcDbEntity
8
1
100
AcDbVertex
100
AcDb2dVertex
62
5
10
122.507368
20
194.327215
0
VERTEX
5
2a8
100
AcDbEntity
8
1
100
AcDbVertex
100
AcDb2dVertex
62
5
10
122.507368
20
193.077215
0
VERTEX
5
2a9
100
AcDbEntity
8
1
100
AcDbVertex
100
AcDb2dVertex
62
5
10
122.194868
20
192.452215
0
VERTEX
5
2aa
100
AcDbEntity
8
1
100
AcDbVertex
100
AcDb2dVertex
62
5
10
120.319868
20
191.202215
0
VERTEX
5
2ab
100
AcDbEntity
8
1
100
AcDbVertex
100
AcDb2dVertex
62
5
10
119.694868
20
190.264715
0
VERTEX
5
2ac
100
AcDbEntity
8
1
100
AcDbVertex
100
AcDb2dVertex
62
5
10
119.694868
20
189.014715
0
VERTEX
5
2ad
100
AcDbEntity
8
1
100
AcDbVertex
100
AcDb2dVertex
62
5
10
120.007368
20
188.389715
0
VERTEX
5
2ae
100
AcDbEntity
8
1
100
AcDbVertex
100
AcDb2dVertex
62
5
10
120.319868
20
188.077215
0
VERTEX
5
2af
100
AcDbEntity
8
1
100
AcDbVertex
100
AcDb2dVertex
62
5
10
120.944868
20
187.764715
0
VERTEX
5
2b0
100
AcDbEntity
8
1
100
AcDbVertex
100
AcDb2dVertex
62
5
10
121.569868
20
187.764715
0
VERTEX
5
2b1
100
AcDbEntity
8
1
100
AcDbVertex
100
AcDb2dVertex
62
5
10
122.194868
20
188.077215
0
VERTEX
5
2b2
100
AcDbEntity
8
1
100
AcDbVertex
100
AcDb2dVertex
62
5
10
122.507368
20
188.389715
0
VERTEX
5
2b3
100
AcDbEntity
8
1
100
AcDbVertex
100
AcDb2dVertex
62
5
10
122.819868
20
189.014715
0
VERTEX
5
2b4
100
AcDbEntity
8
1
100
AcDbVertex
100
AcDb2dVertex
62
5
10
122.819868
20
190.264715
0
VERTEX
5
2b5
100
AcDbEntity
8
1
100
AcDbVertex
100
AcDb2dVertex
62
5
10
122.194868
20
191.202215
0
VERTEX
5
2b6
100
AcDbEntity
8
1
100
AcDbVertex
100
AcDb2dVertex
62
5
10
120.319868
20
192.452215
0
VERTEX
5
2b7
100
AcDbEntity
8
1
100
AcDbVertex
100
AcDb2dVertex
62
5
10
120.007368
20
193.077215
0
VERTEX
5
2b8
100
AcDbEntity
8
1
100
AcDbVertex
100
AcDb2dVertex
62
5
10
120.007368
20
194.327215
0
VERTEX
5
2b9
100
AcDbEntity
8
1
100
AcDbVertex
100
AcDb2dVertex
62
5
10
120.319868
20
194.952215
0
VERTEX
5
2ba
100
AcDbEntity
8
1
100
AcDbVertex
100
AcDb2dVertex
62
5
10
120.944868
20
195.264715
0
SEQEND
5
2bb
100
AcDbEntity
8
1
0
LINE
5
2bc
100
AcDbEntity
8
1
100
AcDbLine
6
CONTINUOUS
62
5
10
104.444868
20
162.472340
11
104.444868
21
188.514715
0
LINE
5
2bd
100
AcDbEntity
8
1
100
AcDbLine
6
CONTINUOUS
62
5
10
132.444868
20
162.472340
11
132.444868
21
188.514715
0
POLYLINE
5
2be
100
AcDbEntity
8
1
6
CONTINUOUS
62
5
100
AcDb2dPolyline
66
1
10
0.0
20
0.0
30
0.0
70
0
0
VERTEX
5
2bf
100
AcDbEntity
8
1
100
AcDbVertex
100
AcDb2dVertex
62
5
10
118.444868
20
186.514715
0
VERTEX
5
2c0
100
AcDbEntity
8
1
100
AcDbVertex
100
AcDb2dVertex
62
5
10
104.444868
20
186.514715
0
VERTEX
5
2c1
100
AcDbEntity
8
1
100
AcDbVertex
100
AcDb2dVertex
62
5
10
110.444868
20
187.514715
0
VERTEX
5
2c2
100
AcDbEntity
8
1
100
AcDbVertex
100
AcDb2dVertex
62
5
10
110.444868
20
185.514715
0
VERTEX
5
2c3
100
AcDbEntity
8
1
100
AcDbVertex
100
AcDb2dVertex
62
5
10
104.444868
20
186.514715
0
VERTEX
5
2c4
100
AcDbEntity
8
1
100
AcDbVertex
100
AcDb2dVertex
62
5
10
110.444868
20
187.014715
0
VERTEX
5
2c5
100
AcDbEntity
8
1
100
AcDbVertex
100
AcDb2dVertex
62
5
10
110.444868
20
186.014715
0
VERTEX
5
2c6
100
AcDbEntity
8
1
100
AcDbVertex
100
AcDb2dVertex
62
5
10
104.444868
20
186.514715
0
SEQEND
5
2c7
100
AcDbEntity
8
1
0
POLYLINE
5
2c8
100
AcDbEntity
8
1
6
CONTINUOUS
62
5
100
AcDb2dPolyline
66
1
10
0.0
20
0.0
30
0.0
70
0
0
VERTEX
5
2c9
100
AcDbEntity
8
1
100
AcDbVertex
100
AcDb2dVertex
62
5
10
118.444868
20
186.514715
0
VERTEX
5
2ca
100
AcDbEntity
8
1
100
AcDbVertex
100
AcDb2dVertex
62
5
10
132.444868
20
186.514715
0
VERTEX
5
2cb
100
AcDbEntity
8
1
100
AcDbVertex
100
AcDb2dVertex
62
5
10
126.444868
20
185.514715
0
VERTEX
5
2cc
100
AcDbEntity
8
1
100
AcDbVertex
100
AcDb2dVertex
62
5
10
126.444868
20
187.514715
0
VERTEX
5
2cd
100
AcDbEntity
8
1
100
AcDbVertex
100
AcDb2dVertex
62
5
10
132.444868
20
186.514715
0
VERTEX
5
2ce
100
AcDbEntity
8
1
100
AcDbVertex
100
AcDb2dVertex
62
5
10
126.444868
20
186.014715
0
VERTEX
5
2cf
100
AcDbEntity
8
1
100
AcDbVertex
100
AcDb2dVertex
62
5
10
126.444868
20
187.014715
0
VERTEX
5
2d0
100
AcDbEntity
8
1
100
AcDbVertex
100
AcDb2dVertex
62
5
10
132.444868
20
186.514715
0
SEQEND
5
2d1
100
AcDbEntity
8
1
0
POLYLINE
5
2d2
100
AcDbEntity
8
1
6
DOT2
62
5
100
AcDb2dPolyline
66
1
10
0.0
20
0.0
30
0.0
70
0
0
VERTEX
5
2d3
100
AcDbEntity
8
1
100
AcDbVertex
100
AcDb2dVertex
62
5
10
64.974919
20
172.764715
0
VERTEX
5
2d4
100
AcDbEntity
8
1
100
AcDbVertex
100
AcDb2dVertex
62
5
10
63.412419
20
173.077215
0
VERTEX
5
2d5
100
AcDbEntity
8
1
100
AcDbVertex
100
AcDb2dVertex
62
5
10
62.787419
20
174.014715
0
VERTEX
5
2d6
100
AcDbEntity
8
1
100
AcDbVertex
100
AcDb2dVertex
62
5
10
62.787419
20
174.952215
0
VERTEX
5
2d7
100
AcDbEntity
8
1
100
AcDbVertex
100
AcDb2dVertex
62
5
10
63.099919
20
175.577215
0
VERTEX
5
2d8
100
AcDbEntity
8
1
100
AcDbVertex
100
AcDb2dVertex
62
5
10
64.037419
20
175.889715
0
VERTEX
5
2d9
100
AcDbEntity
8
1
100
AcDbVertex
100
AcDb2dVertex
62
5
10
64.974919
20
175.889715
0
VERTEX
5
2da
100
AcDbEntity
8
1
100
AcDbVertex
100
AcDb2dVertex
62
5
10
65.912419
20
175.577215
0
VERTEX
5
2db
100
AcDbEntity
8
1
100
AcDbVertex
100
AcDb2dVertex
62
5
10
70.287419
20
172.764715
0
VERTEX
5
2dc
100
AcDbEntity
8
1
100
AcDbVertex
100
AcDb2dVertex
62
5
10
70.287419
20
175.889715
0
VERTEX
5
2dd
100
AcDbEntity
8
1
100
AcDbVertex
100
AcDb2dVertex
62
5
10
69.349919
20
175.889715
0
SEQEND
5
2de
100
AcDbEntity
8
1
0
POLYLINE
5
2df
100
AcDbEntity
8
1
6
DOT2
62
5
100
AcDb2dPolyline
66
1
10
0.0
20
0.0
30
0.0
70
0
0
VERTEX
5
2e0
100
AcDbEntity
8
1
100
AcDbVertex
100
AcDb2dVertex
62
5
10
64.662419
20
177.764715
0
VERTEX
5
2e1
100
AcDbEntity
8
1
100
AcDbVertex
100
AcDb2dVertex
62
5
10
63.412419
20
178.077215
0
VERTEX
5
2e2
100
AcDbEntity
8
1
100
AcDbVertex
100
AcDb2dVertex
62
5
10
62.787419
20
178.702215
0
VERTEX
5
2e3
100
AcDbEntity
8
1
100
AcDbVertex
100
AcDb2dVertex
62
5
10
62.787419
20
179.639715
0
VERTEX
5
2e4
100
AcDbEntity
8
1
100
AcDbVertex
100
AcDb2dVertex
62
5
10
63.099919
20
180.264715
0
VERTEX
5
2e5
100
AcDbEntity
8
1
100
AcDbVertex
100
AcDb2dVertex
62
5
10
64.037419
20
180.577215
0
VERTEX
5
2e6
100
AcDbEntity
8
1
100
AcDbVertex
100
AcDb2dVertex
62
5
10
65.287419
20
180.577215
0
VERTEX
5
2e7
100
AcDbEntity
8
1
100
AcDbVertex
100
AcDb2dVertex
62
5
10
65.912419
20
180.264715
0
VERTEX
5
2e8
100
AcDbEntity
8
1
100
AcDbVertex
100
AcDb2dVertex
62
5
10
66.537419
20
179.639715
0
VERTEX
5
2e9
100
AcDbEntity
8
1
100
AcDbVertex
100
AcDb2dVertex
62
5
10
66.537419
20
178.702215
0
SEQEND
5
2ea
100
AcDbEntity
8
1
0
POLYLINE
5
2eb
100
AcDbEntity
8
1
6
DOT2
62
5
100
AcDb2dPolyline
66
1
10
0.0
20
0.0
30
0.0
70
0
0
VERTEX
5
2ec
100
AcDbEntity
8
1
100
AcDbVertex
100
AcDb2dVertex
62
5
10
66.537419
20
179.639715
0
VERTEX
5
2ed
100
AcDbEntity
8
1
100
AcDbVertex
100
AcDb2dVertex
62
5
10
67.162419
20
180.577215
0
VERTEX
5
2ee
100
AcDbEntity
8
1
100
AcDbVertex
100
AcDb2dVertex
62
5
10
68.099919
20
180.889715
0
VERTEX
5
2ef
100
AcDbEntity
8
1
100
AcDbVertex
100
AcDb2dVertex
62
5
10
69.037419
20
180.889715
0
VERTEX
5
2f0
100
AcDbEntity
8
1
100
AcDbVertex
100
AcDb2dVertex
62
5
10
69.662419
20
180.577215
0
VERTEX
5
2f1
100
AcDbEntity
8
1
100
AcDbVertex
100
AcDb2dVertex
62
5
10
70.287419
20
179.639715
0
VERTEX
5
2f2
100
AcDbEntity
8
1
100
AcDbVertex
100
AcDb2dVertex
62
5
10
70.287419
20
178.702215
0
VERTEX
5
2f3
100
AcDbEntity
8
1
100
AcDbVertex
100
AcDb2dVertex
62
5
10
69.974919
20
178.077215
0
VERTEX
5
2f4
100
AcDbEntity
8
1
100
AcDbVertex
100
AcDb2dVertex
62
5
10
69.037419
20
177.452215
0
SEQEND
5
2f5
100
AcDbEntity
8
1
0
LINE
5
2f6
100
AcDbEntity
8
1
100
AcDbLine
6
CONTINUOUS
62
5
10
149.250000
20
323.687500
11
148.750000
21
322.125000
0
LINE
5
2f7
100
AcDbEntity
8
1
100
AcDbLine
6
CONTINUOUS
62
5
10
147.250000
20
326.812500
11
150.750000
21
326.812500
0
LINE
5
2f8
100
AcDbEntity
8
1
100
AcDbLine
6
CONTINUOUS
62
5
10
146.000000
20
324.625000
11
151.750000
21
324.625000
0
POLYLINE
5
2f9
100
AcDbEntity
8
1
6
CONTINUOUS
62
5
100
AcDb2dPolyline
66
1
10
0.0
20
0.0
30
0.0
70
0
0
VERTEX
5
2fa
100
AcDbEntity
8
1
100
AcDbVertex
100
AcDb2dVertex
62
5
10
148.750000
20
322.125000
0
VERTEX
5
2fb
100
AcDbEntity
8
1
100
AcDbVertex
100
AcDb2dVertex
62
5
10
148.000000
20
321.187500
0
VERTEX
5
2fc
100
AcDbEntity
8
1
100
AcDbVertex
100
AcDb2dVertex
62
5
10
147.000000
20
320.250000
0
SEQEND
5
2fd
100
AcDbEntity
8
1
0
LINE
5
2fe
100
AcDbEntity
8
1
100
AcDbLine
6
CONTINUOUS
62
5
10
149.250000
20
324.625000
11
149.250000
21
323.687500
0
POLYLINE
5
2ff
100
AcDbEntity
8
1
6
CONTINUOUS
62
5
100
AcDb2dPolyline
66
1
10
0.0
20
0.0
30
0.0
70
0
0
VERTEX
5
300
100
AcDbEntity
8
1
100
AcDbVertex
100
AcDb2dVertex
62
5
10
212.032443
20
146.782798
0
VERTEX
5
301
100
AcDbEntity
8
1
100
AcDbVertex
100
AcDb2dVertex
62
5
10
212.159567
20
146.274646
0
VERTEX
5
302
100
AcDbEntity
8
1
100
AcDbVertex
100
AcDb2dVertex
62
5
10
221.607662
20
148.447330
0
VERTEX
5
303
100
AcDbEntity
8
1
100
AcDbVertex
100
AcDb2dVertex
62
5
10
221.465451
20
148.968192
0
SEQEND
5
304
100
AcDbEntity
8
1
0
POLYLINE
5
305
100
AcDbEntity
8
1
6
CONTINUOUS
62
5
100
AcDb2dPolyline
66
1
10
0.0
20
0.0
30
0.0
70
0
0
VERTEX
5
306
100
AcDbEntity
8
1
100
AcDbVertex
100
AcDb2dVertex
62
5
10
206.444498
20
158.805320
0
VERTEX
5
307
100
AcDbEntity
8
1
100
AcDbVertex
100
AcDb2dVertex
62
5
10
206.274999
20
158.974646
0
VERTEX
5
308
100
AcDbEntity
8
1
100
AcDbVertex
100
AcDb2dVertex
62
5
10
206.232625
20
158.974646
0
SEQEND
5
309
100
AcDbEntity
8
1
0
ARC
5
30a
100
AcDbEntity
8
1
100
AcDbCircle
6
CONTINUOUS
62
5
10
207.556735
20
158.478368
40
0.200000
100
AcDbArc
50
0.000000
51
89.999999
0
LINE
5
30b
100
AcDbEntity
8
1
100
AcDbLine
6
CONTINUOUS
62
5
10
207.756735
20
158.478368
11
207.756735
21
158.478368
0
LINE
5
30c
100
AcDbEntity
8
1
100
AcDbLine
6
CONTINUOUS
62
5
10
206.444498
20
158.466667
11
206.444498
21
158.478368
0
ARC
5
30d
100
AcDbEntity
8
1
100
AcDbCircle
6
CONTINUOUS
62
5
10
206.644498
20
158.478368
40
0.200000
100
AcDbArc
50
89.999999
51
179.999998
0
LINE
5
30e
100
AcDbEntity
8
1
100
AcDbLine
6
CONTINUOUS
62
5
10
206.644498
20
158.678368
11
207.556735
21
158.678368
0
LINE
5
30f
100
AcDbEntity
8
1
100
AcDbLine
6
CONTINUOUS
62
5
10
204.624109
20
158.254966
11
204.624109
21
155.249464
0
ARC
5
310
100
AcDbEntity
8
1
100
AcDbCircle
6
CONTINUOUS
62
5
10
205.609567
20
158.054974
40
0.200000
100
AcDbArc
50
0.000000
51
89.999999
0
LINE
5
311
100
AcDbEntity
8
1
100
AcDbLine
6
CONTINUOUS
62
5
10
205.609567
20
158.254974
11
205.609567
21
158.254974
0
LINE
5
312
100
AcDbEntity
8
1
100
AcDbLine
6
CONTINUOUS
62
5
10
205.609567
20
155.249464
11
205.609567
21
155.249464
0
ARC
5
313
100
AcDbEntity
8
1
100
AcDbCircle
6
CONTINUOUS
62
5
10
205.609567
20
155.449464
40
0.200000
100
AcDbArc
50
-89.999999
51
0.000000
0
LINE
5
314
100
AcDbEntity
8
1
100
AcDbLine
6
CONTINUOUS
62
5
10
205.809567
20
155.449464
11
205.809567
21
158.054974
0
ARC
5
315
100
AcDbEntity
8
1
100
AcDbCircle
6
CONTINUOUS
62
5
10
204.932261
20
158.054974
40
0.200000
100
AcDbArc
50
0.000000
51
89.999999
0
LINE
5
316
100
AcDbEntity
8
1
100
AcDbLine
6
CONTINUOUS
62
5
10
204.932261
20
158.254974
11
204.932261
21
158.254974
0
LINE
5
317
100
AcDbEntity
8
1
100
AcDbLine
6
CONTINUOUS
62
5
10
204.932261
20
155.249464
11
204.932261
21
155.249464
0
ARC
5
318
100
AcDbEntity
8
1
100
AcDbCircle
6
CONTINUOUS
62
5
10
204.932261
20
155.449464
40
0.200000
100
AcDbArc
50
-89.999999
51
0.000000
0
LINE
5
319
100
AcDbEntity
8
1
100
AcDbLine
6
CONTINUOUS
62
5
10
205.132261
20
155.449464
11
205.132261
21
158.054974
0
POLYLINE
5
31a
100
AcDbEntity
8
1
6
CONTINUOUS
62
5
100
AcDb2dPolyline
66
1
10
0.0
20
0.0
30
0.0
70
0
0
VERTEX
5
31b
100
AcDbEntity
8
1
100
AcDbVertex
100
AcDb2dVertex
62
5
10
203.862049
20
158.169866
0
VERTEX
5
31c
100
AcDbEntity
8
1
100
AcDbVertex
100
AcDb2dVertex
62
5
10
203.947148
20
158.254966
0
VERTEX
5
31d
100
AcDbEntity
8
1
100
AcDbVertex
100
AcDb2dVertex
62
5
10
206.232625
20
158.254966
0
VERTEX
5
31e
100
AcDbEntity
8
1
100
AcDbVertex
100
AcDb2dVertex
62
5
10
206.232625
20
155.249464
0
VERTEX
5
31f
100
AcDbEntity
8
1
100
AcDbVertex
100
AcDb2dVertex
62
5
10
204.031553
20
155.249464
0
VERTEX
5
320
100
AcDbEntity
8
1
100
AcDbVertex
100
AcDb2dVertex
62
5
10
203.862054
20
155.376416
0
SEQEND
5
321
100
AcDbEntity
8
1
0
LINE
5
322
100
AcDbEntity
8
1
100
AcDbLine
6
CONTINUOUS
62
5
10
202.973220
20
153.429076
11
202.337944
21
153.429076
0
POLYLINE
5
323
100
AcDbEntity
8
1
6
CONTINUOUS
62
5
100
AcDb2dPolyline
66
1
10
0.0
20
0.0
30
0.0
70
0
0
VERTEX
5
324
100
AcDbEntity
8
1
100
AcDbVertex
100
AcDb2dVertex
62
5
10
206.232625
20
141.067729
0
VERTEX
5
325
100
AcDbEntity
8
1
100
AcDbVertex
100
AcDb2dVertex
62
5
10
206.274999
20
141.067729
0
VERTEX
5
326
100
AcDbEntity
8
1
100
AcDbVertex
100
AcDb2dVertex
62
5
10
206.444498
20
141.237055
0
SEQEND
5
327
100
AcDbEntity
8
1
0
ARC
5
328
100
AcDbEntity
8
1
100
AcDbCircle
6
CONTINUOUS
62
5
10
206.644498
20
140.971450
40
0.200000
100
AcDbArc
50
179.999998
51
-89.999999
0
LINE
5
329
100
AcDbEntity
8
1
100
AcDbLine
6
CONTINUOUS
62
5
10
206.644498
20
140.771450
11
207.556735
21
140.771450
0
ARC
5
32a
100
AcDbEntity
8
1
100
AcDbCircle
6
CONTINUOUS
62
5
10
207.556735
20
140.971450
40
0.200000
100
AcDbArc
50
-89.999999
51
0.000000
0
LINE
5
32b
100
AcDbEntity
8
1
100
AcDbLine
6
CONTINUOUS
62
5
10
207.756735
20
140.971450
11
207.756735
21
146.888562
0
LINE
5
32c
100
AcDbEntity
8
1
100
AcDbLine
6
CONTINUOUS
62
5
10
206.444498
20
146.740423
11
206.444498
21
140.971450
0
LINE
5
32d
100
AcDbEntity
8
1
100
AcDbLine
6
CONTINUOUS
62
5
10
204.624109
20
144.750708
11
204.624109
21
141.787409
0
ARC
5
32e
100
AcDbEntity
8
1
100
AcDbCircle
6
CONTINUOUS
62
5
10
205.043790
20
139.885993
40
0.300000
100
AcDbArc
50
-89.999999
51
-0.644985
0
LINE
5
32f
100
AcDbEntity
8
1
100
AcDbLine
6
CONTINUOUS
62
5
10
205.343790
20
139.882616
11
205.343790
21
141.587409
0
ARC
5
330
100
AcDbEntity
8
1
100
AcDbCircle
6
CONTINUOUS
62
5
10
205.543790
20
141.587409
40
0.200000
100
AcDbArc
50
89.999999
51
179.999998
0
LINE
5
331
100
AcDbEntity
8
1
100
AcDbLine
6
CONTINUOUS
62
5
10
205.543790
20
141.787409
11
205.543790
21
141.787409
0
POLYLINE
5
332
100
AcDbEntity
8
1
6
CONTINUOUS
62
5
100
AcDb2dPolyline
66
1
10
0.0
20
0.0
30
0.0
70
0
0
VERTEX
5
333
100
AcDbEntity
8
1
100
AcDbVertex
100
AcDb2dVertex
62
5
10
203.862054
20
139.666226
0
VERTEX
5
334
100
AcDbEntity
8
1
100
AcDbVertex
100
AcDb2dVertex
62
5
10
203.942287
20
139.585993
0
VERTEX
5
335
100
AcDbEntity
8
1
100
AcDbVertex
100
AcDb2dVertex
62
5
10
205.043790
20
139.585993
0
SEQEND
5
336
100
AcDbEntity
8
1
0
ARC
5
337
100
AcDbEntity
8
1
100
AcDbCircle
6
CONTINUOUS
62
5
10
205.609567
20
144.550708
40
0.200000
100
AcDbArc
50
0.000000
51
89.999999
0
LINE
5
338
100
AcDbEntity
8
1
100
AcDbLine
6
CONTINUOUS
62
5
10
205.609567
20
144.750708
11
205.609567
21
144.750708
0
LINE
5
339
100
AcDbEntity
8
1
100
AcDbLine
6
CONTINUOUS
62
5
10
205.609567
20
141.787409
11
205.609567
21
141.787409
0
ARC
5
33a
100
AcDbEntity
8
1
100
AcDbCircle
6
CONTINUOUS
62
5
10
205.609567
20
141.987409
40
0.200000
100
AcDbArc
50
-89.999999
51
0.000000
0
LINE
5
33b
100
AcDbEntity
8
1
100
AcDbLine
6
CONTINUOUS
62
5
10
205.809567
20
141.987409
11
205.809567
21
144.550708
0
ARC
5
33c
100
AcDbEntity
8
1
100
AcDbCircle
6
CONTINUOUS
62
5
10
204.932261
20
144.550708
40
0.200000
100
AcDbArc
50
0.000000
51
89.999999
0
LINE
5
33d
100
AcDbEntity
8
1
100
AcDbLine
6
CONTINUOUS
62
5
10
204.932261
20
144.750708
11
204.932261
21
144.750708
0
LINE
5
33e
100
AcDbEntity
8
1
100
AcDbLine
6
CONTINUOUS
62
5
10
204.932261
20
141.787409
11
204.932261
21
141.787409
0
ARC
5
33f
100
AcDbEntity
8
1
100
AcDbCircle
6
CONTINUOUS
62
5
10
204.932261
20
141.987409
40
0.200000
100
AcDbArc
50
-89.999999
51
0.000000
0
LINE
5
340
100
AcDbEntity
8
1
100
AcDbLine
6
CONTINUOUS
62
5
10
205.132261
20
141.987409
11
205.132261
21
144.550708
0
ARC
5
341
100
AcDbEntity
8
1
100
AcDbCircle
6
CONTINUOUS
62
5
10
206.032625
20
144.550708
40
0.200000
100
AcDbArc
50
0.000000
51
89.999999
0
LINE
5
342
100
AcDbEntity
8
1
100
AcDbLine
6
CONTINUOUS
62
5
10
206.232625
20
144.550708
11
206.232625
21
141.987409
0
ARC
5
343
100
AcDbEntity
8
1
100
AcDbCircle
6
CONTINUOUS
62
5
10
206.032625
20
141.987409
40
0.200000
100
AcDbArc
50
-89.999999
51
0.000000
0
POLYLINE
5
344
100
AcDbEntity
8
1
6
CONTINUOUS
62
5
100
AcDb2dPolyline
66
1
10
0.0
20
0.0
30
0.0
70
0
0
VERTEX
5
345
100
AcDbEntity
8
1
100
AcDbVertex
100
AcDb2dVertex
62
5
10
206.032625
20
141.787409
0
VERTEX
5
346
100
AcDbEntity
8
1
100
AcDbVertex
100
AcDb2dVertex
62
5
10
203.945426
20
141.787409
0
VERTEX
5
347
100
AcDbEntity
8
1
100
AcDbVertex
100
AcDb2dVertex
62
5
10
203.862053
20
141.868892
0
SEQEND
5
348
100
AcDbEntity
8
1
0
POLYLINE
5
349
100
AcDbEntity
8
1
6
CONTINUOUS
62
5
100
AcDb2dPolyline
66
1
10
0.0
20
0.0
30
0.0
70
0
0
VERTEX
5
34a
100
AcDbEntity
8
1
100
AcDbVertex
100
AcDb2dVertex
62
5
10
203.862053
20
144.665268
0
VERTEX
5
34b
100
AcDbEntity
8
1
100
AcDbVertex
100
AcDb2dVertex
62
5
10
203.946798
20
144.750708
0
VERTEX
5
34c
100
AcDbEntity
8
1
100
AcDbVertex
100
AcDb2dVertex
62
5
10
206.032625
20
144.750708
0
SEQEND
5
34d
100
AcDbEntity
8
1
0
LINE
5
34e
100
AcDbEntity
8
1
100
AcDbLine
6
CONTINUOUS
62
5
10
202.337944
20
146.613299
11
202.930845
21
146.613299
0
ARC
5
34f
100
AcDbEntity
8
1
100
AcDbCircle
6
CONTINUOUS
62
5
10
206.948928
20
156.854430
40
0.300000
100
AcDbArc
50
0.000000
51
89.999999
0
LINE
5
350
100
AcDbEntity
8
1
100
AcDbLine
6
CONTINUOUS
62
5
10
207.248928
20
156.854430
11
207.248928
21
147.040423
0
ARC
5
351
100
AcDbEntity
8
1
100
AcDbCircle
6
CONTINUOUS
62
5
10
206.948928
20
147.040423
40
0.300000
100
AcDbArc
50
-89.999999
51
0.000000
0
LINE
5
352
100
AcDbEntity
8
1
100
AcDbLine
6
CONTINUOUS
62
5
10
206.948928
20
146.740423
11
206.432625
21
146.740423
0
ARC
5
353
100
AcDbEntity
8
1
100
AcDbCircle
6
CONTINUOUS
62
5
10
206.432625
20
146.540423
40
0.200000
100
AcDbArc
50
89.999999
51
179.999998
0
LINE
5
354
100
AcDbEntity
8
1
100
AcDbLine
6
CONTINUOUS
62
5
10
206.232625
20
157.154430
11
206.948928
21
157.154430
0
ARC
5
355
100
AcDbEntity
8
1
100
AcDbCircle
6
CONTINUOUS
62
5
10
205.893790
20
154.699464
40
0.550000
100
AcDbArc
50
89.999999
51
179.999998
0
POLYLINE
5
356
100
AcDbEntity
8
1
6
CONTINUOUS
62
5
100
AcDb2dPolyline
66
1
10
0.0
20
0.0
30
0.0
70
0
0
VERTEX
5
357
100
AcDbEntity
8
1
100
AcDbVertex
100
AcDb2dVertex
62
5
10
205.893790
20
155.249464
0
VERTEX
5
358
100
AcDbEntity
8
1
100
AcDbVertex
100
AcDb2dVertex
62
5
10
205.936346
20
155.249464
0
VERTEX
5
359
100
AcDbEntity
8
1
100
AcDbVertex
100
AcDb2dVertex
62
5
10
205.936346
20
144.750708
0
VERTEX
5
35a
100
AcDbEntity
8
1
100
AcDbVertex
100
AcDb2dVertex
62
5
10
205.943790
20
144.750708
0
VERTEX
5
35b
100
AcDbEntity
8
1
100
AcDbVertex
100
AcDb2dVertex
62
5
10
205.893790
20
144.750708
0
SEQEND
5
35c
100
AcDbEntity
8
1
0
ARC
5
35d
100
AcDbEntity
8
1
100
AcDbCircle
6
CONTINUOUS
62
5
10
205.893790
20
145.300708
40
0.550000
100
AcDbArc
50
179.999998
51
-89.999999
0
LINE
5
35e
100
AcDbEntity
8
1
100
AcDbLine
6
CONTINUOUS
62
5
10
205.343790
20
145.300708
11
205.343790
21
154.699464
0
LINE
5
35f
100
AcDbEntity
8
1
100
AcDbLine
6
CONTINUOUS
62
5
10
205.343790
20
155.249464
11
205.343790
21
154.699464
0
LINE
5
360
100
AcDbEntity
8
1
100
AcDbLine
6
CONTINUOUS
62
5
10
205.343790
20
145.300708
11
205.343790
21
144.750708
0
ARC
5
361
100
AcDbEntity
8
1
100
AcDbCircle
6
CONTINUOUS
62
5
10
202.961346
20
153.229076
40
0.200000
100
AcDbArc
50
89.999999
51
179.999998
0
LINE
5
362
100
AcDbEntity
8
1
100
AcDbLine
6
CONTINUOUS
62
5
10
202.761346
20
153.229076
11
202.761346
21
146.813299
0
ARC
5
363
100
AcDbEntity
8
1
100
AcDbCircle
6
CONTINUOUS
62
5
10
202.961346
20
146.813299
40
0.200000
100
AcDbArc
50
179.999998
51
-89.999999
0
LINE
5
364
100
AcDbEntity
8
1
100
AcDbLine
6
CONTINUOUS
62
5
10
202.961346
20
146.613299
11
203.234930
21
146.613299
0
ARC
5
365
100
AcDbEntity
8
1
100
AcDbCircle
6
CONTINUOUS
62
5
10
203.234930
20
147.113299
40
0.500000
100
AcDbArc
50
-89.999999
51
0.000000
0
LINE
5
366
100
AcDbEntity
8
1
100
AcDbLine
6
CONTINUOUS
62
5
10
203.734930
20
147.113299
11
203.734930
21
152.929076
0
ARC
5
367
100
AcDbEntity
8
1
100
AcDbCircle
6
CONTINUOUS
62
5
10
203.234930
20
152.929076
40
0.500000
100
AcDbArc
50
0.000000
51
89.999999
0
LINE
5
368
100
AcDbEntity
8
1
100
AcDbLine
6
CONTINUOUS
62
5
10
203.234930
20
153.429076
11
202.961346
21
153.429076
0
POLYLINE
5
369
100
AcDbEntity
8
1
6
CONTINUOUS
62
5
100
AcDb2dPolyline
66
1
10
0.0
20
0.0
30
0.0
70
0
0
VERTEX
5
36a
100
AcDbEntity
8
1
100
AcDbVertex
100
AcDb2dVertex
62
5
10
203.862054
20
153.513653
0
VERTEX
5
36b
100
AcDbEntity
8
1
100
AcDbVertex
100
AcDb2dVertex
62
5
10
202.337944
20
153.513653
0
VERTEX
5
36c
100
AcDbEntity
8
1
100
AcDbVertex
100
AcDb2dVertex
62
5
10
202.337944
20
146.528722
0
VERTEX
5
36d
100
AcDbEntity
8
1
100
AcDbVertex
100
AcDb2dVertex
62
5
10
203.862054
20
146.528722
0
SEQEND
5
36e
100
AcDbEntity
8
1
0
ARC
5
36f
100
AcDbEntity
8
1
100
AcDbCircle
6
CONTINUOUS
62
5
10
201.856553
20
143.549464
40
1.000000
100
AcDbArc
50
179.999998
51
-89.999999
0
LINE
5
370
100
AcDbEntity
8
1
100
AcDbLine
6
CONTINUOUS
62
5
10
201.856553
20
142.549464
11
203.862054
21
142.549464
0
LINE
5
371
100
AcDbEntity
8
1
100
AcDbLine
6
CONTINUOUS
62
5
10
203.862054
20
157.450708
11
201.856553
21
157.450708
0
ARC
5
372
100
AcDbEntity
8
1
100
AcDbCircle
6
CONTINUOUS
62
5
10
201.856553
20
156.450708
40
1.000000
100
AcDbArc
50
89.999999
51
179.999998
0
LINE
5
373
100
AcDbEntity
8
1
100
AcDbLine
6
CONTINUOUS
62
5
10
200.856553
20
156.450708
11
200.856553
21
143.549464
0
ARC
5
374
100
AcDbEntity
8
1
100
AcDbCircle
6
CONTINUOUS
62
5
10
201.644680
20
156.700708
40
1.000000
100
AcDbArc
50
89.999999
51
179.999998
0
LINE
5
375
100
AcDbEntity
8
1
100
AcDbLine
6
CONTINUOUS
62
5
10
200.644680
20
156.700708
11
200.644680
21
154.487409
0
LINE
5
376
100
AcDbEntity
8
1
100
AcDbLine
6
CONTINUOUS
62
5
10
200.644680
20
145.554966
11
200.644680
21
143.337763
0
ARC
5
377
100
AcDbEntity
8
1
100
AcDbCircle
6
CONTINUOUS
62
5
10
201.644680
20
143.337763
40
1.000000
100
AcDbArc
50
179.999998
51
-89.999999
0
LINE
5
378
100
AcDbEntity
8
1
100
AcDbLine
6
CONTINUOUS
62
5
10
201.644680
20
142.337763
11
203.860676
21
142.337763
0
LINE
5
379
100
AcDbEntity
8
1
100
AcDbLine
6
CONTINUOUS
62
5
10
203.862054
20
157.700708
11
201.644680
21
157.700708
0
LINE
5
37a
100
AcDbEntity
8
1
100
AcDbLine
6
CONTINUOUS
62
5
10
195.522505
20
142.465497
11
195.861158
21
142.465497
0
LINE
5
37b
100
AcDbEntity
8
1
100
AcDbLine
6
CONTINUOUS
62
5
10
195.522512
20
140.390423
11
195.861165
21
140.390423
0
POLYLINE
5
37c
100
AcDbEntity
8
1
6
CONTINUOUS
62
5
100
AcDb2dPolyline
66
1
10
0.0
20
0.0
30
0.0
70
0
0
VERTEX
5
37d
100
AcDbEntity
8
1
100
AcDbVertex
100
AcDb2dVertex
62
5
10
195.861158
20
142.507871
0
VERTEX
5
37e
100
AcDbEntity
8
1
100
AcDbVertex
100
AcDb2dVertex
62
5
10
195.522505
20
142.507871
0
VERTEX
5
37f
100
AcDbEntity
8
1
100
AcDbVertex
100
AcDb2dVertex
62
5
10
195.522512
20
139.966559
0
VERTEX
5
380
100
AcDbEntity
8
1
100
AcDbVertex
100
AcDb2dVertex
62
5
10
195.861165
20
139.966559
0
SEQEND
5
381
100
AcDbEntity
8
1
0
ARC
5
382
100
AcDbEntity
8
1
100
AcDbCircle
6
CONTINUOUS
62
5
10
195.552308
20
154.075708
40
0.200000
100
AcDbArc
50
89.999999
51
179.995359
0
LINE
5
383
100
AcDbEntity
8
1
100
AcDbLine
6
CONTINUOUS
62
5
10
195.552308
20
154.275708
11
195.861148
21
154.275708
0
LINE
5
384
100
AcDbEntity
8
1
100
AcDbLine
6
CONTINUOUS
62
5
10
195.861148
20
145.766667
11
195.552324
21
145.766667
0
ARC
5
385
100
AcDbEntity
8
1
100
AcDbCircle
6
CONTINUOUS
62
5
10
195.552324
20
145.966667
40
0.200000
100
AcDbArc
50
179.995359
51
-89.999999
0
LINE
5
386
100
AcDbEntity
8
1
100
AcDbLine
6
CONTINUOUS
62
5
10
195.352324
20
145.966683
11
195.352308
21
154.075724
0
LINE
5
387
100
AcDbEntity
8
1
100
AcDbLine
6
CONTINUOUS
62
5
10
197.554429
20
146.071550
11
197.554429
21
153.970824
0
ARC
5
388
100
AcDbEntity
8
1
100
AcDbCircle
6
CONTINUOUS
62
5
10
198.054429
20
153.987409
40
0.500000
100
AcDbArc
50
89.999999
51
179.999998
0
LINE
5
389
100
AcDbEntity
8
1
100
AcDbLine
6
CONTINUOUS
62
5
10
197.554429
20
153.987409
11
197.554429
21
153.970824
0
ARC
5
38a
100
AcDbEntity
8
1
100
AcDbCircle
6
CONTINUOUS
62
5
10
198.054429
20
153.970824
40
0.500000
100
AcDbArc
50
179.999998
51
-90.852448
0
LINE
5
38b
100
AcDbEntity
8
1
100
AcDbLine
6
CONTINUOUS
62
5
10
198.046990
20
153.470880
11
200.856553
21
153.429076
0
LINE
5
38c
100
AcDbEntity
8
1
100
AcDbLine
6
CONTINUOUS
62
5
10
200.856553
20
154.487409
11
198.054429
21
154.487409
0
ARC
5
38d
100
AcDbEntity
8
1
100
AcDbCircle
6
CONTINUOUS
62
5
10
198.054429
20
146.054966
40
0.500000
100
AcDbArc
50
-179.999998
51
-89.999999
0
LINE
5
38e
100
AcDbEntity
8
1
100
AcDbLine
6
CONTINUOUS
62
5
10
197.554429
20
146.054966
11
197.554429
21
146.071550
0
ARC
5
38f
100
AcDbEntity
8
1
100
AcDbCircle
6
CONTINUOUS
62
5
10
198.054429
20
146.071550
40
0.500000
100
AcDbArc
50
90.852448
51
-179.999998
0
LINE
5
390
100
AcDbEntity
8
1
100
AcDbLine
6
CONTINUOUS
62
5
10
198.046990
20
146.571495
11
200.856553
21
146.613299
0
LINE
5
391
100
AcDbEntity
8
1
100
AcDbLine
6
CONTINUOUS
62
5
10
200.856553
20
145.554966
11
198.054429
21
145.554966
0
POLYLINE
5
392
100
AcDbEntity
8
1
6
CONTINUOUS
62
5
100
AcDb2dPolyline
66
1
10
0.0
20
0.0
30
0.0
70
0
0
VERTEX
5
393
100
AcDbEntity
8
1
100
AcDbVertex
100
AcDb2dVertex
62
5
10
219.489598
20
158.044926
0
VERTEX
5
394
100
AcDbEntity
8
1
100
AcDbVertex
100
AcDb2dVertex
62
5
10
208.857443
20
155.588117
0
VERTEX
5
395
100
AcDbEntity
8
1
100
AcDbVertex
100
AcDb2dVertex
62
5
10
210.550707
20
148.179784
0
VERTEX
5
396
100
AcDbEntity
8
1
100
AcDbVertex
100
AcDb2dVertex
62
5
10
221.212303
20
150.633610
0
SEQEND
5
397
100
AcDbEntity
8
1
0
ARC
5
398
100
AcDbEntity
8
1
100
AcDbCircle
6
CONTINUOUS
62
5
10
219.485361
20
150.319968
40
1.000000
100
AcDbArc
50
-77.148998
51
8.275671
0
LINE
5
399
100
AcDbEntity
8
1
100
AcDbLine
6
CONTINUOUS
62
5
10
219.707777
20
149.345016
11
208.471344
21
146.781641
0
ARC
5
39a
100
AcDbEntity
8
1
100
AcDbCircle
6
CONTINUOUS
62
5
10
208.248928
20
147.756592
40
1.000000
100
AcDbArc
50
179.999998
51
-77.148998
0
ARC
5
39b
100
AcDbEntity
8
1
100
AcDbCircle
6
CONTINUOUS
62
5
10
208.248928
20
155.336523
40
1.000000
100
AcDbArc
50
103.068858
51
-179.999998
0
LINE
5
39c
100
AcDbEntity
8
1
100
AcDbLine
6
CONTINUOUS
62
5
10
208.022806
20
156.310622
11
217.455834
21
158.500353
0
ARC
5
39d
100
AcDbEntity
8
1
100
AcDbCircle
6
CONTINUOUS
62
5
10
217.680023
20
157.517843
40
1.007763
100
AcDbArc
50
19.057024
51
102.853655
0
LINE
5
39e
100
AcDbEntity
8
1
100
AcDbLine
6
CONTINUOUS
62
5
10
218.632555
20
157.846886
11
218.632555
21
157.846886
0
LINE
5
39f
100
AcDbEntity
8
1
100
AcDbLine
6
CONTINUOUS
62
5
10
220.474948
20
150.463904
11
220.474948
21
150.463904
0
POLYLINE
5
3a0
100
AcDbEntity
8
1
6
CONTINUOUS
62
5
100
AcDb2dPolyline
66
1
10
0.0
20
0.0
30
0.0
70
0
0
VERTEX
5
3a1
100
AcDbEntity
8
1
100
AcDbVertex
100
AcDb2dVertex
62
5
10
203.556993
20
138.569253
0
VERTEX
5
3a2
100
AcDbEntity
8
1
100
AcDbVertex
100
AcDb2dVertex
62
5
10
205.343790
20
138.527660
0
VERTEX
5
3a3
100
AcDbEntity
8
1
100
AcDbVertex
100
AcDb2dVertex
62
5
10
205.851597
20
138.527660
0
VERTEX
5
3a4
100
AcDbEntity
8
1
100
AcDbVertex
100
AcDb2dVertex
62
5
10
205.850219
20
139.753769
0
VERTEX
5
3a5
100
AcDbEntity
8
1
100
AcDbVertex
100
AcDb2dVertex
62
5
10
205.343790
20
139.753769
0
SEQEND
5
3a6
100
AcDbEntity
8
1
0
LINE
5
3a7
100
AcDbEntity
8
1
100
AcDbLine
6
CONTINUOUS
62
5
10
223.081553
20
139.332090
11
214.826415
21
137.427296
0
LINE
5
3a8
100
AcDbEntity
8
1
100
AcDbLine
6
CONTINUOUS
62
5
10
214.191484
20
137.807979
11
223.462581
21
139.924646
0
ARC
5
3a9
100
AcDbEntity
8
1
100
AcDbCircle
6
CONTINUOUS
62
5
10
215.158554
20
137.296308
40
0.300000
100
AcDbArc
50
-168.690066
51
-77.049410
0
LINE
5
3aa
100
AcDbEntity
8
1
100
AcDbLine
6
CONTINUOUS
62
5
10
215.225787
20
137.003938
11
222.907006
21
138.770312
0
ARC
5
3ab
100
AcDbEntity
8
1
100
AcDbCircle
6
CONTINUOUS
62
5
10
222.839772
20
139.062681
40
0.300000
100
AcDbArc
50
-77.049410
51
14.063697
0
POLYLINE
5
3ac
100
AcDbEntity
8
1
6
CONTINUOUS
62
5
100
AcDb2dPolyline
66
1
10
0.0
20
0.0
30
0.0
70
0
0
VERTEX
5
3ad
100
AcDbEntity
8
1
100
AcDbVertex
100
AcDb2dVertex
62
5
10
223.130780
20
139.135581
0
VERTEX
5
3ae
100
AcDbEntity
8
1
100
AcDbVertex
100
AcDb2dVertex
62
5
10
223.081553
20
139.332090
0
VERTEX
5
3af
100
AcDbEntity
8
1
100
AcDbVertex
100
AcDb2dVertex
62
5
10
223.462581
20
139.924646
0
VERTEX
5
3b0
100
AcDbEntity
8
1
100
AcDbVertex
100
AcDb2dVertex
62
5
10
221.516731
20
148.426420
0
SEQEND
5
3b1
100
AcDbEntity
8
1
0
POLYLINE
5
3b2
100
AcDbEntity
8
1
6
CONTINUOUS
62
5
100
AcDb2dPolyline
66
1
10
0.0
20
0.0
30
0.0
70
0
0
VERTEX
5
3b3
100
AcDbEntity
8
1
100
AcDbVertex
100
AcDb2dVertex
62
5
10
212.248965
20
146.295204
0
VERTEX
5
3b4
100
AcDbEntity
8
1
100
AcDbVertex
100
AcDb2dVertex
62
5
10
214.191484
20
137.807979
0
VERTEX
5
3b5
100
AcDbEntity
8
1
100
AcDbVertex
100
AcDb2dVertex
62
5
10
214.826415
20
137.427296
0
VERTEX
5
3b6
100
AcDbEntity
8
1
100
AcDbVertex
100
AcDb2dVertex
62
5
10
214.864380
20
137.237473
0
SEQEND
5
3b7
100
AcDbEntity
8
1
0
POLYLINE
5
3b8
100
AcDbEntity
8
1
6
CONTINUOUS
62
5
100
AcDb2dPolyline
66
1
10
0.0
20
0.0
30
0.0
70
0
0
VERTEX
5
3b9
100
AcDbEntity
8
1
100
AcDbVertex
100
AcDb2dVertex
62
5
10
134.425718
20
153.513653
0
VERTEX
5
3ba
100
AcDbEntity
8
1
100
AcDbVertex
100
AcDb2dVertex
62
5
10
134.679622
20
153.513653
0
VERTEX
5
3bb
100
AcDbEntity
8
1
100
AcDbVertex
100
AcDb2dVertex
62
5
10
134.679622
20
146.528722
0
VERTEX
5
3bc
100
AcDbEntity
8
1
100
AcDbVertex
100
AcDb2dVertex
62
5
10
134.425718
20
146.528722
0
SEQEND
5
3bd
100
AcDbEntity
8
1
0
ARC
5
3be
100
AcDbEntity
8
1
100
AcDbCircle
6
CONTINUOUS
62
5
10
133.425718
20
143.549464
40
1.000000
100
AcDbArc
50
-89.999999
51
0.000000
0
LINE
5
3bf
100
AcDbEntity
8
1
100
AcDbLine
6
CONTINUOUS
62
5
10
134.425718
20
143.549464
11
134.425718
21
156.450708
0
ARC
5
3c0
100
AcDbEntity
8
1
100
AcDbCircle
6
CONTINUOUS
62
5
10
133.425718
20
156.450708
40
1.000000
100
AcDbArc
50
0.000000
51
89.999999
0
LINE
5
3c1
100
AcDbEntity
8
1
100
AcDbLine
6
CONTINUOUS
62
5
10
133.425718
20
157.450708
11
132.393801
21
157.450708
0
LINE
5
3c2
100
AcDbEntity
8
1
100
AcDbLine
6
CONTINUOUS
62
5
10
132.393801
20
142.549464
11
133.425718
21
142.549464
0
POLYLINE
5
3c3
100
AcDbEntity
8
1
6
CONTINUOUS
62
5
100
AcDb2dPolyline
66
1
10
0.0
20
0.0
30
0.0
70
1
0
VERTEX
5
3c4
100
AcDbEntity
8
1
100
AcDbVertex
100
AcDb2dVertex
62
5
10
127.652316
20
141.999110
0
VERTEX
5
3c5
100
AcDbEntity
8
1
100
AcDbVertex
100
AcDb2dVertex
62
5
10
128.414371
20
139.967021
0
VERTEX
5
3c6
100
AcDbEntity
8
1
100
AcDbVertex
100
AcDb2dVertex
62
5
10
128.880148
20
139.967021
0
VERTEX
5
3c7
100
AcDbEntity
8
1
100
AcDbVertex
100
AcDb2dVertex
62
5
10
127.863845
20
142.507090
0
VERTEX
5
3c8
100
AcDbEntity
8
1
100
AcDbVertex
100
AcDb2dVertex
62
5
10
127.440787
20
142.507090
0
VERTEX
5
3c9
100
AcDbEntity
8
1
100
AcDbVertex
100
AcDb2dVertex
62
5
10
126.424829
20
139.804296
0
VERTEX
5
3ca
100
AcDbEntity
8
1
100
AcDbVertex
100
AcDb2dVertex
62
5
10
126.890261
20
139.967021
0
SEQEND
5
3cb
100
AcDbEntity
8
1
0
POLYLINE
5
3cc
100
AcDbEntity
8
1
6
CONTINUOUS
62
5
100
AcDb2dPolyline
66
1
10
0.0
20
0.0
30
0.0
70
0
0
VERTEX
5
3cd
100
AcDbEntity
8
1
100
AcDbVertex
100
AcDb2dVertex
62
5
10
118.466099
20
149.281492
0
VERTEX
5
3ce
100
AcDbEntity
8
1
100
AcDbVertex
100
AcDb2dVertex
62
5
10
118.508344
20
149.661347
0
VERTEX
5
3cf
100
AcDbEntity
8
1
100
AcDbVertex
100
AcDb2dVertex
62
5
10
118.508344
20
150.211701
0
VERTEX
5
3d0
100
AcDbEntity
8
1
100
AcDbVertex
100
AcDb2dVertex
62
5
10
118.423594
20
150.635103
0
VERTEX
5
3d1
100
AcDbEntity
8
1
100
AcDbVertex
100
AcDb2dVertex
62
5
10
118.381392
20
150.211701
0
VERTEX
5
3d2
100
AcDbEntity
8
1
100
AcDbVertex
100
AcDb2dVertex
62
5
10
118.381392
20
149.661347
0
VERTEX
5
3d3
100
AcDbEntity
8
1
100
AcDbVertex
100
AcDb2dVertex
62
5
10
118.423464
20
149.281497
0
SEQEND
5
3d4
100
AcDbEntity
8
1
0
LINE
5
3d5
100
AcDbEntity
8
1
100
AcDbLine
6
CONTINUOUS
62
5
10
118.339096
20
150.753589
11
118.339017
21
150.719680
0
LINE
5
3d6
100
AcDbEntity
8
1
100
AcDbLine
6
CONTINUOUS
62
5
10
118.508344
20
150.719680
11
118.543278
21
150.754615
0
LINE
5
3d7
100
AcDbEntity
8
1
100
AcDbLine
6
CONTINUOUS
62
5
10
118.200517
20
150.719680
11
118.689219
21
150.719680
0
CIRCLE
5
3d8
100
AcDbEntity
8
1
100
AcDbCircle
6
CONTINUOUS
62
5
10
118.444868
20
150.021187
40
0.740000
0
ARC
5
3d9
100
AcDbEntity
8
1
100
AcDbCircle
6
CONTINUOUS
62
5
10
118.444868
20
150.000000
40
5.270000
100
AcDbArc
50
93.507631
51
-145.775708
0
LINE
5
3da
100
AcDbEntity
8
1
100
AcDbLine
6
CONTINUOUS
62
5
10
118.122441
20
155.260127
11
117.365332
21
156.916256
0
ARC
5
3db
100
AcDbEntity
8
1
100
AcDbCircle
6
CONTINUOUS
62
5
10
118.444868
20
150.000000
40
5.270000
100
AcDbArc
50
-86.729974
51
34.639116
0
LINE
5
3dc
100
AcDbEntity
8
1
100
AcDbLine
6
CONTINUOUS
62
5
10
119.548396
20
143.087531
11
118.745478
21
144.738581
0
CIRCLE
5
3dd
100
AcDbEntity
8
1
100
AcDbCircle
6
CONTINUOUS
62
5
10
118.444868
20
150.021340
40
1.249000
0
CIRCLE
5
3de
100
AcDbEntity
8
1
100
AcDbCircle
6
CONTINUOUS
62
5
10
118.444868
20
150.000000
40
3.556000
0
CIRCLE
5
3df
100
AcDbEntity
8
1
100
AcDbCircle
6
CONTINUOUS
62
5
10
118.444782
20
150.021333
40
4.276000
0
CIRCLE
5
3e0
100
AcDbEntity
8
1
100
AcDbCircle
6
CONTINUOUS
62
5
10
118.444868
20
150.000000
40
3.958000
0
ARC
5
3e1
100
AcDbEntity
8
1
100
AcDbCircle
6
CONTINUOUS
62
5
10
123.442514
20
153.445059
40
0.800000
100
AcDbArc
50
-145.420098
51
-61.697104
0
ARC
5
3e2
100
AcDbEntity
8
1
100
AcDbCircle
6
CONTINUOUS
62
5
10
118.444868
20
150.000000
40
5.270000
100
AcDbArc
50
34.579900
51
57.648791
0
ARC
5
3e3
100
AcDbEntity
8
1
100
AcDbCircle
6
CONTINUOUS
62
5
10
121.692971
20
155.127838
40
0.800000
100
AcDbArc
50
153.345661
51
-122.351207
0
LINE
5
3e4
100
AcDbEntity
8
1
100
AcDbLine
6
CONTINUOUS
62
5
10
120.977987
20
155.486724
11
121.218347
21
155.965577
0
ARC
5
3e5
100
AcDbEntity
8
1
100
AcDbCircle
6
CONTINUOUS
62
5
10
120.859560
20
156.142415
40
0.400000
100
AcDbArc
50
-26.237666
51
68.539328
0
ARC
5
3e6
100
AcDbEntity
8
1
100
AcDbCircle
6
CONTINUOUS
62
5
10
118.444868
20
150.000000
40
7.000000
100
AcDbArc
50
68.539328
51
111.441963
0
ARC
5
3e7
100
AcDbEntity
8
1
100
AcDbCircle
6
CONTINUOUS
62
5
10
116.032181
20
156.143203
40
0.400000
100
AcDbArc
50
111.441963
51
-153.434947
0
LINE
5
3e8
100
AcDbEntity
8
1
100
AcDbLine
6
CONTINUOUS
62
5
10
115.674410
20
155.964318
11
115.913414
21
155.486310
0
ARC
5
3e9
100
AcDbEntity
8
1
100
AcDbCircle
6
CONTINUOUS
62
5
10
115.197872
20
155.128540
40
0.800000
100
AcDbArc
50
-57.661162
51
26.565051
0
ARC
5
3ea
100
AcDbEntity
8
1
100
AcDbCircle
6
CONTINUOUS
62
5
10
118.444868
20
150.000000
40
5.270000
100
AcDbArc
50
122.338836
51
145.420069
0
ARC
5
3eb
100
AcDbEntity
8
1
100
AcDbCircle
6
CONTINUOUS
62
5
10
113.447223
20
153.445061
40
0.800000
100
AcDbArc
50
-118.295407
51
-34.579929
0
LINE
5
3ec
100
AcDbEntity
8
1
100
AcDbLine
6
CONTINUOUS
62
5
10
113.068009
20
152.740649
11
112.394047
21
153.103470
0
ARC
5
3ed
100
AcDbEntity
8
1
100
AcDbCircle
6
CONTINUOUS
62
5
10
112.204439
20
152.751264
40
0.400000
100
AcDbArc
50
61.704591
51
156.208396
0
ARC
5
3ee
100
AcDbEntity
8
1
100
AcDbCircle
6
CONTINUOUS
62
5
10
118.444868
20
150.000000
40
7.220000
100
AcDbArc
50
156.208396
51
-156.522623
0
ARC
5
3ef
100
AcDbEntity
8
1
100
AcDbCircle
6
CONTINUOUS
62
5
10
112.189445
20
147.283001
40
0.400000
100
AcDbArc
50
-156.522623
51
-61.690689
0
LINE
5
3f0
100
AcDbEntity
8
1
100
AcDbLine
6
CONTINUOUS
62
5
10
112.379137
20
146.930841
11
113.046551
21
147.290346
0
ARC
5
3f1
100
AcDbEntity
8
1
100
AcDbCircle
6
CONTINUOUS
62
5
10
113.425936
20
146.586026
40
0.800000
100
AcDbArc
50
34.224291
51
118.309309
0
ARC
5
3f2
100
AcDbEntity
8
1
100
AcDbCircle
6
CONTINUOUS
62
5
10
118.444868
20
150.000000
40
5.270000
100
AcDbArc
50
-145.775708
51
-122.503290
0
ARC
5
3f3
100
AcDbEntity
8
1
100
AcDbCircle
6
CONTINUOUS
62
5
10
115.183165
20
144.880801
40
0.800000
100
AcDbArc
50
-24.780826
51
57.496708
0
LINE
5
3f4
100
AcDbEntity
8
1
100
AcDbLine
6
CONTINUOUS
62
5
10
115.909499
20
144.545483
11
115.668971
21
144.024473
0
ARC
5
3f5
100
AcDbEntity
8
1
100
AcDbCircle
6
CONTINUOUS
62
5
10
116.032138
20
143.856814
40
0.400000
100
AcDbArc
50
155.219172
51
-111.442366
0
ARC
5
3f6
100
AcDbEntity
8
1
100
AcDbCircle
6
CONTINUOUS
62
5
10
118.444868
20
150.000000
40
7.000000
100
AcDbArc
50
-111.442366
51
-68.559009
0
ARC
5
3f7
100
AcDbEntity
8
1
100
AcDbCircle
6
CONTINUOUS
62
5
10
120.857450
20
143.856756
40
0.400000
100
AcDbArc
50
-68.559009
51
24.766042
0
LINE
5
3f8
100
AcDbEntity
8
1
100
AcDbLine
6
CONTINUOUS
62
5
10
121.220660
20
144.024322
11
120.980141
21
144.545665
0
ARC
5
3f9
100
AcDbEntity
8
1
100
AcDbCircle
6
CONTINUOUS
62
5
10
121.706562
20
144.880796
40
0.800000
100
AcDbArc
50
122.503193
51
-155.233956
0
ARC
5
3fa
100
AcDbEntity
8
1
100
AcDbCircle
6
CONTINUOUS
62
5
10
118.444868
20
150.000000
40
5.270000
100
AcDbArc
50
-57.496805
51
-34.224292
0
ARC
5
3fb
100
AcDbEntity
8
1
100
AcDbCircle
6
CONTINUOUS
62
5
10
123.463800
20
146.586026
40
0.800000
100
AcDbArc
50
61.683200
51
145.775706
0
LINE
5
3fc
100
AcDbEntity
8
1
100
AcDbLine
6
CONTINUOUS
62
5
10
123.843277
20
147.290296
11
124.510513
21
146.930775
0
ARC
5
3fd
100
AcDbEntity
8
1
100
AcDbCircle
6
CONTINUOUS
62
5
10
124.700251
20
147.282910
40
0.400000
100
AcDbArc
50
-118.316798
51
-23.478212
0
ARC
5
3fe
100
AcDbEntity
8
1
100
AcDbCircle
6
CONTINUOUS
62
5
10
118.444868
20
150.000000
40
7.220000
100
AcDbArc
50
-23.478212
51
23.792419
0
ARC
5
3ff
100
AcDbEntity
8
1
100
AcDbCircle
6
CONTINUOUS
62
5
10
124.685257
20
152.751353
40
0.400000
100
AcDbArc
50
23.792419
51
118.302894
0
LINE
5
400
100
AcDbEntity
8
1
100
AcDbLine
6
CONTINUOUS
62
5
10
124.495604
20
153.103535
11
123.821820
21
152.740696
0
CIRCLE
5
401
100
AcDbEntity
8
1
100
AcDbCircle
6
CONTINUOUS
62
5
10
118.444868
20
150.021187
40
7.950000
0
POLYLINE
5
402
100
AcDbEntity
8
1
6
CONTINUOUS
62
5
100
AcDb2dPolyline
66
1
10
0.0
20
0.0
30
0.0
70
1
0
VERTEX
5
403
100
AcDbEntity
8
1
100
AcDbVertex
100
AcDb2dVertex
62
5
10
129.176426
20
139.967021
0
VERTEX
5
404
100
AcDbEntity
8
1
100
AcDbVertex
100
AcDb2dVertex
62
5
10
131.250718
20
139.967021
0
VERTEX
5
405
100
AcDbEntity
8
1
100
AcDbVertex
100
AcDb2dVertex
62
5
10
131.250718
20
140.390423
0
VERTEX
5
406
100
AcDbEntity
8
1
100
AcDbVertex
100
AcDb2dVertex
62
5
10
130.403914
20
140.390423
0
VERTEX
5
407
100
AcDbEntity
8
1
100
AcDbVertex
100
AcDb2dVertex
62
5
10
130.403914
20
142.464715
0
VERTEX
5
408
100
AcDbEntity
8
1
100
AcDbVertex
100
AcDb2dVertex
62
5
10
130.022886
20
142.464715
0
VERTEX
5
409
100
AcDbEntity
8
1
100
AcDbVertex
100
AcDb2dVertex
62
5
10
130.022886
20
140.390423
0
VERTEX
5
40a
100
AcDbEntity
8
1
100
AcDbVertex
100
AcDb2dVertex
62
5
10
129.176426
20
140.390423
0
SEQEND
5
40b
100
AcDbEntity
8
1
0
POLYLINE
5
40c
100
AcDbEntity
8
1
6
CONTINUOUS
62
5
100
AcDb2dPolyline
66
1
10
0.0
20
0.0
30
0.0
70
0
0
VERTEX
5
40d
100
AcDbEntity
8
1
100
AcDbVertex
100
AcDb2dVertex
62
5
10
122.699302
20
138.104602
0
VERTEX
5
40e
100
AcDbEntity
8
1
100
AcDbVertex
100
AcDb2dVertex
62
5
10
122.699302
20
138.062227
0
VERTEX
5
40f
100
AcDbEntity
8
1
100
AcDbVertex
100
AcDb2dVertex
62
5
10
122.656928
20
137.977478
0
VERTEX
5
410
100
AcDbEntity
8
1
100
AcDbVertex
100
AcDb2dVertex
62
5
10
122.614553
20
137.892729
0
VERTEX
5
411
100
AcDbEntity
8
1
100
AcDbVertex
100
AcDb2dVertex
62
5
10
122.530148
20
137.765949
0
VERTEX
5
412
100
AcDbEntity
8
1
100
AcDbVertex
100
AcDb2dVertex
62
5
10
122.487773
20
137.723574
0
VERTEX
5
413
100
AcDbEntity
8
1
100
AcDbVertex
100
AcDb2dVertex
62
5
10
122.403024
20
137.681200
0
VERTEX
5
414
100
AcDbEntity
8
1
100
AcDbVertex
100
AcDb2dVertex
62
5
10
122.360649
20
137.638825
0
VERTEX
5
415
100
AcDbEntity
8
1
100
AcDbVertex
100
AcDb2dVertex
62
5
10
122.275900
20
137.596450
0
VERTEX
5
416
100
AcDbEntity
8
1
100
AcDbVertex
100
AcDb2dVertex
62
5
10
122.191495
20
137.554076
0
VERTEX
5
417
100
AcDbEntity
8
1
100
AcDbVertex
100
AcDb2dVertex
62
5
10
122.106746
20
137.511701
0
VERTEX
5
418
100
AcDbEntity
8
1
100
AcDbVertex
100
AcDb2dVertex
62
5
10
122.021996
20
137.469326
0
VERTEX
5
419
100
AcDbEntity
8
1
100
AcDbVertex
100
AcDb2dVertex
62
5
10
121.937247
20
137.427296
0
VERTEX
5
41a
100
AcDbEntity
8
1
100
AcDbVertex
100
AcDb2dVertex
62
5
10
121.810468
20
137.384577
0
VERTEX
5
41b
100
AcDbEntity
8
1
100
AcDbVertex
100
AcDb2dVertex
62
5
10
121.640969
20
137.342547
0
VERTEX
5
41c
100
AcDbEntity
8
1
100
AcDbVertex
100
AcDb2dVertex
62
5
10
121.513845
20
137.299828
0
VERTEX
5
41d
100
AcDbEntity
8
1
100
AcDbVertex
100
AcDb2dVertex
62
5
10
121.344691
20
137.257798
0
VERTEX
5
41e
100
AcDbEntity
8
1
100
AcDbVertex
100
AcDb2dVertex
62
5
10
121.133162
20
137.215423
0
VERTEX
5
41f
100
AcDbEntity
8
1
100
AcDbVertex
100
AcDb2dVertex
62
5
10
120.921288
20
137.173048
0
VERTEX
5
420
100
AcDbEntity
8
1
100
AcDbVertex
100
AcDb2dVertex
62
5
10
120.625010
20
137.130674
0
VERTEX
5
421
100
AcDbEntity
8
1
100
AcDbVertex
100
AcDb2dVertex
62
5
10
120.328732
20
137.088299
0
VERTEX
5
422
100
AcDbEntity
8
1
100
AcDbVertex
100
AcDb2dVertex
62
5
10
119.947704
20
137.046269
0
VERTEX
5
423
100
AcDbEntity
8
1
100
AcDbVertex
100
AcDb2dVertex
62
5
10
119.355148
20
137.003550
0
VERTEX
5
424
100
AcDbEntity
8
1
100
AcDbVertex
100
AcDb2dVertex
62
5
10
117.534760
20
137.003550
0
VERTEX
5
425
100
AcDbEntity
8
1
100
AcDbVertex
100
AcDb2dVertex
62
5
10
116.942031
20
137.046269
0
VERTEX
5
426
100
AcDbEntity
8
1
100
AcDbVertex
100
AcDb2dVertex
62
5
10
116.518629
20
137.088299
0
VERTEX
5
427
100
AcDbEntity
8
1
100
AcDbVertex
100
AcDb2dVertex
62
5
10
116.222350
20
137.130674
0
VERTEX
5
428
100
AcDbEntity
8
1
100
AcDbVertex
100
AcDb2dVertex
62
5
10
115.968275
20
137.173048
0
VERTEX
5
429
100
AcDbEntity
8
1
100
AcDbVertex
100
AcDb2dVertex
62
5
10
115.756746
20
137.215423
0
VERTEX
5
42a
100
AcDbEntity
8
1
100
AcDbVertex
100
AcDb2dVertex
62
5
10
115.545045
20
137.257798
0
VERTEX
5
42b
100
AcDbEntity
8
1
100
AcDbVertex
100
AcDb2dVertex
62
5
10
115.375718
20
137.299828
0
VERTEX
5
42c
100
AcDbEntity
8
1
100
AcDbVertex
100
AcDb2dVertex
62
5
10
115.206392
20
137.342547
0
VERTEX
5
42d
100
AcDbEntity
8
1
100
AcDbVertex
100
AcDb2dVertex
62
5
10
115.079268
20
137.384577
0
VERTEX
5
42e
100
AcDbEntity
8
1
100
AcDbVertex
100
AcDb2dVertex
62
5
10
114.952316
20
137.427296
0
VERTEX
5
42f
100
AcDbEntity
8
1
100
AcDbVertex
100
AcDb2dVertex
62
5
10
114.867739
20
137.469326
0
VERTEX
5
430
100
AcDbEntity
8
1
100
AcDbVertex
100
AcDb2dVertex
62
5
10
114.782990
20
137.511701
0
VERTEX
5
431
100
AcDbEntity
8
1
100
AcDbVertex
100
AcDb2dVertex
62
5
10
114.698412
20
137.554076
0
VERTEX
5
432
100
AcDbEntity
8
1
100
AcDbVertex
100
AcDb2dVertex
62
5
10
114.571288
20
137.596450
0
VERTEX
5
433
100
AcDbEntity
8
1
100
AcDbVertex
100
AcDb2dVertex
62
5
10
114.529086
20
137.638825
0
VERTEX
5
434
100
AcDbEntity
8
1
100
AcDbVertex
100
AcDb2dVertex
62
5
10
114.401962
20
137.723574
0
VERTEX
5
435
100
AcDbEntity
8
1
100
AcDbVertex
100
AcDb2dVertex
62
5
10
114.359760
20
137.765949
0
VERTEX
5
436
100
AcDbEntity
8
1
100
AcDbVertex
100
AcDb2dVertex
62
5
10
114.317385
20
137.807979
0
VERTEX
5
437
100
AcDbEntity
8
1
100
AcDbVertex
100
AcDb2dVertex
62
5
10
114.232636
20
137.935103
0
VERTEX
5
438
100
AcDbEntity
8
1
100
AcDbVertex
100
AcDb2dVertex
62
5
10
114.190261
20
138.062227
0
VERTEX
5
439
100
AcDbEntity
8
1
100
AcDbVertex
100
AcDb2dVertex
62
5
10
114.190261
20
138.104602
0
SEQEND
5
43a
100
AcDbEntity
8
1
0
POLYLINE
5
43b
100
AcDbEntity
8
1
6
CONTINUOUS
62
5
100
AcDb2dPolyline
66
1
10
0.0
20
0.0
30
0.0
70
0
0
VERTEX
5
43c
100
AcDbEntity
8
1
100
AcDbVertex
100
AcDb2dVertex
62
5
10
114.190261
20
138.273756
0
VERTEX
5
43d
100
AcDbEntity
8
1
100
AcDbVertex
100
AcDb2dVertex
62
5
10
114.190261
20
138.104602
0
VERTEX
5
43e
100
AcDbEntity
8
1
100
AcDbVertex
100
AcDb2dVertex
62
5
10
114.359760
20
137.935103
0
VERTEX
5
43f
100
AcDbEntity
8
1
100
AcDbVertex
100
AcDb2dVertex
62
5
10
114.486711
20
137.850354
0
VERTEX
5
440
100
AcDbEntity
8
1
100
AcDbVertex
100
AcDb2dVertex
62
5
10
114.698412
20
137.723574
0
VERTEX
5
441
100
AcDbEntity
8
1
100
AcDbVertex
100
AcDb2dVertex
62
5
10
114.909941
20
137.638825
0
VERTEX
5
442
100
AcDbEntity
8
1
100
AcDbVertex
100
AcDb2dVertex
62
5
10
115.164017
20
137.596450
0
VERTEX
5
443
100
AcDbEntity
8
1
100
AcDbVertex
100
AcDb2dVertex
62
5
10
115.460295
20
137.511701
0
VERTEX
5
444
100
AcDbEntity
8
1
100
AcDbVertex
100
AcDb2dVertex
62
5
10
115.798948
20
137.427296
0
VERTEX
5
445
100
AcDbEntity
8
1
100
AcDbVertex
100
AcDb2dVertex
62
5
10
116.137601
20
137.384577
0
VERTEX
5
446
100
AcDbEntity
8
1
100
AcDbVertex
100
AcDb2dVertex
62
5
10
116.518629
20
137.342547
0
VERTEX
5
447
100
AcDbEntity
8
1
100
AcDbVertex
100
AcDb2dVertex
62
5
10
116.942031
20
137.299828
0
VERTEX
5
448
100
AcDbEntity
8
1
100
AcDbVertex
100
AcDb2dVertex
62
5
10
117.365261
20
137.257798
0
VERTEX
5
449
100
AcDbEntity
8
1
100
AcDbVertex
100
AcDb2dVertex
62
5
10
117.788663
20
137.257798
0
VERTEX
5
44a
100
AcDbEntity
8
1
100
AcDbVertex
100
AcDb2dVertex
62
5
10
118.212065
20
137.215423
0
VERTEX
5
44b
100
AcDbEntity
8
1
100
AcDbVertex
100
AcDb2dVertex
62
5
10
118.677842
20
137.215423
0
VERTEX
5
44c
100
AcDbEntity
8
1
100
AcDbVertex
100
AcDb2dVertex
62
5
10
119.100900
20
137.257798
0
VERTEX
5
44d
100
AcDbEntity
8
1
100
AcDbVertex
100
AcDb2dVertex
62
5
10
119.524302
20
137.257798
0
VERTEX
5
44e
100
AcDbEntity
8
1
100
AcDbVertex
100
AcDb2dVertex
62
5
10
119.947704
20
137.299828
0
VERTEX
5
44f
100
AcDbEntity
8
1
100
AcDbVertex
100
AcDb2dVertex
62
5
10
120.328732
20
137.342547
0
VERTEX
5
450
100
AcDbEntity
8
1
100
AcDbVertex
100
AcDb2dVertex
62
5
10
120.709760
20
137.384577
0
VERTEX
5
451
100
AcDbEntity
8
1
100
AcDbVertex
100
AcDb2dVertex
62
5
10
121.090787
20
137.427296
0
VERTEX
5
452
100
AcDbEntity
8
1
100
AcDbVertex
100
AcDb2dVertex
62
5
10
121.429440
20
137.511701
0
VERTEX
5
453
100
AcDbEntity
8
1
100
AcDbVertex
100
AcDb2dVertex
62
5
10
121.725718
20
137.596450
0
VERTEX
5
454
100
AcDbEntity
8
1
100
AcDbVertex
100
AcDb2dVertex
62
5
10
121.979622
20
137.638825
0
VERTEX
5
455
100
AcDbEntity
8
1
100
AcDbVertex
100
AcDb2dVertex
62
5
10
122.191495
20
137.723574
0
VERTEX
5
456
100
AcDbEntity
8
1
100
AcDbVertex
100
AcDb2dVertex
62
5
10
122.360649
20
137.850354
0
VERTEX
5
457
100
AcDbEntity
8
1
100
AcDbVertex
100
AcDb2dVertex
62
5
10
122.530148
20
137.935103
0
VERTEX
5
458
100
AcDbEntity
8
1
100
AcDbVertex
100
AcDb2dVertex
62
5
10
122.614553
20
138.019853
0
VERTEX
5
459
100
AcDbEntity
8
1
100
AcDbVertex
100
AcDb2dVertex
62
5
10
122.699302
20
138.104602
0
VERTEX
5
45a
100
AcDbEntity
8
1
100
AcDbVertex
100
AcDb2dVertex
62
5
10
122.699302
20
138.273756
0
SEQEND
5
45b
100
AcDbEntity
8
1
0
ARC
5
45c
100
AcDbEntity
8
1
100
AcDbCircle
6
CONTINUOUS
62
5
10
117.479343
20
155.198145
40
17.561848
100
AcDbArc
50
-84.285432
51
-72.563669
0
LINE
5
45d
100
AcDbEntity
8
1
100
AcDbLine
6
CONTINUOUS
62
5
10
119.228024
20
137.723574
11
117.661711
21
137.723574
0
ARC
5
45e
100
AcDbEntity
8
1
100
AcDbCircle
6
CONTINUOUS
62
5
10
118.606878
20
151.134451
40
13.444142
100
AcDbArc
50
-110.328486
51
-94.031404
0
LINE
5
45f
100
AcDbEntity
8
1
100
AcDbLine
6
CONTINUOUS
62
5
10
122.953206
20
138.527660
11
122.741677
21
138.443255
0
POLYLINE
5
460
100
AcDbEntity
8
1
6
CONTINUOUS
62
5
100
AcDb2dPolyline
66
1
10
0.0
20
0.0
30
0.0
70
0
0
VERTEX
5
461
100
AcDbEntity
8
1
100
AcDbVertex
100
AcDb2dVertex
62
5
10
122.953206
20
138.527660
0
VERTEX
5
462
100
AcDbEntity
8
1
100
AcDbVertex
100
AcDb2dVertex
62
5
10
122.530148
20
138.104602
0
VERTEX
5
463
100
AcDbEntity
8
1
100
AcDbVertex
100
AcDb2dVertex
62
5
10
122.360649
20
138.019853
0
VERTEX
5
464
100
AcDbEntity
8
1
100
AcDbVertex
100
AcDb2dVertex
62
5
10
122.191495
20
137.935103
0
VERTEX
5
465
100
AcDbEntity
8
1
100
AcDbVertex
100
AcDb2dVertex
62
5
10
121.979622
20
137.850354
0
VERTEX
5
466
100
AcDbEntity
8
1
100
AcDbVertex
100
AcDb2dVertex
62
5
10
121.725718
20
137.765949
0
VERTEX
5
467
100
AcDbEntity
8
1
100
AcDbVertex
100
AcDb2dVertex
62
5
10
121.429440
20
137.681200
0
VERTEX
5
468
100
AcDbEntity
8
1
100
AcDbVertex
100
AcDb2dVertex
62
5
10
121.090787
20
137.638825
0
VERTEX
5
469
100
AcDbEntity
8
1
100
AcDbVertex
100
AcDb2dVertex
62
5
10
120.709760
20
137.596450
0
VERTEX
5
46a
100
AcDbEntity
8
1
100
AcDbVertex
100
AcDb2dVertex
62
5
10
120.328732
20
137.511701
0
VERTEX
5
46b
100
AcDbEntity
8
1
100
AcDbVertex
100
AcDb2dVertex
62
5
10
119.947704
20
137.469326
0
VERTEX
5
46c
100
AcDbEntity
8
1
100
AcDbVertex
100
AcDb2dVertex
62
5
10
119.524302
20
137.469326
0
VERTEX
5
46d
100
AcDbEntity
8
1
100
AcDbVertex
100
AcDb2dVertex
62
5
10
119.100900
20
137.427296
0
VERTEX
5
46e
100
AcDbEntity
8
1
100
AcDbVertex
100
AcDb2dVertex
62
5
10
117.788663
20
137.427296
0
VERTEX
5
46f
100
AcDbEntity
8
1
100
AcDbVertex
100
AcDb2dVertex
62
5
10
117.365261
20
137.469326
0
VERTEX
5
470
100
AcDbEntity
8
1
100
AcDbVertex
100
AcDb2dVertex
62
5
10
116.942031
20
137.469326
0
VERTEX
5
471
100
AcDbEntity
8
1
100
AcDbVertex
100
AcDb2dVertex
62
5
10
116.518629
20
137.511701
0
VERTEX
5
472
100
AcDbEntity
8
1
100
AcDbVertex
100
AcDb2dVertex
62
5
10
116.137601
20
137.596450
0
VERTEX
5
473
100
AcDbEntity
8
1
100
AcDbVertex
100
AcDb2dVertex
62
5
10
115.798948
20
137.638825
0
VERTEX
5
474
100
AcDbEntity
8
1
100
AcDbVertex
100
AcDb2dVertex
62
5
10
115.460295
20
137.681200
0
VERTEX
5
475
100
AcDbEntity
8
1
100
AcDbVertex
100
AcDb2dVertex
62
5
10
115.164017
20
137.765949
0
VERTEX
5
476
100
AcDbEntity
8
1
100
AcDbVertex
100
AcDb2dVertex
62
5
10
114.909941
20
137.850354
0
VERTEX
5
477
100
AcDbEntity
8
1
100
AcDbVertex
100
AcDb2dVertex
62
5
10
114.698413
20
137.935103
0
VERTEX
5
478
100
AcDbEntity
8
1
100
AcDbVertex
100
AcDb2dVertex
62
5
10
114.486711
20
138.019853
0
VERTEX
5
479
100
AcDbEntity
8
1
100
AcDbVertex
100
AcDb2dVertex
62
5
10
114.359760
20
138.104602
0
VERTEX
5
47a
100
AcDbEntity
8
1
100
AcDbVertex
100
AcDb2dVertex
62
5
10
114.317385
20
138.146632
0
VERTEX
5
47b
100
AcDbEntity
8
1
100
AcDbVertex
100
AcDb2dVertex
62
5
10
113.936357
20
138.527660
0
SEQEND
5
47c
100
AcDbEntity
8
1
0
POLYLINE
5
47d
100
AcDbEntity
8
1
6
CONTINUOUS
62
5
100
AcDb2dPolyline
66
1
10
0.0
20
0.0
30
0.0
70
0
0
VERTEX
5
47e
100
AcDbEntity
8
1
100
AcDbVertex
100
AcDb2dVertex
62
5
10
102.421642
20
153.513653
0
VERTEX
5
47f
100
AcDbEntity
8
1
100
AcDbVertex
100
AcDb2dVertex
62
5
10
102.167739
20
153.513653
0
VERTEX
5
480
100
AcDbEntity
8
1
100
AcDbVertex
100
AcDb2dVertex
62
5
10
102.167739
20
146.528722
0
VERTEX
5
481
100
AcDbEntity
8
1
100
AcDbVertex
100
AcDb2dVertex
62
5
10
102.421642
20
146.528722
0
SEQEND
5
482
100
AcDbEntity
8
1
0
ARC
5
483
100
AcDbEntity
8
1
100
AcDbCircle
6
CONTINUOUS
62
5
10
103.421642
20
143.549464
40
1.000000
100
AcDbArc
50
179.999998
51
-89.999999
0
LINE
5
484
100
AcDbEntity
8
1
100
AcDbLine
6
CONTINUOUS
62
5
10
102.421642
20
143.549464
11
102.421642
21
156.450708
0
ARC
5
485
100
AcDbEntity
8
1
100
AcDbCircle
6
CONTINUOUS
62
5
10
103.421642
20
156.450708
40
1.000000
100
AcDbArc
50
89.999999
51
179.999998
0
LINE
5
486
100
AcDbEntity
8
1
100
AcDbLine
6
CONTINUOUS
62
5
10
103.421642
20
157.450708
11
104.495934
21
157.450708
0
LINE
5
487
100
AcDbEntity
8
1
100
AcDbLine
6
CONTINUOUS
62
5
10
104.495934
20
142.549464
11
103.421642
21
142.549464
0
LINE
5
488
100
AcDbEntity
8
1
100
AcDbLine
6
CONTINUOUS
62
5
10
40.000000
20
340.000000
11
40.000000
21
308.000000
0
LINE
5
489
100
AcDbEntity
8
1
100
AcDbLine
6
CONTINUOUS
62
5
10
40.000000
20
340.000000
11
40.000000
21
308.000000
0
LINE
5
48a
100
AcDbEntity
8
1
100
AcDbLine
6
CONTINUOUS
62
5
10
0.000000
20
308.000000
11
320.000000
21
308.000000
0
LINE
5
48b
100
AcDbEntity
8
1
100
AcDbLine
6
CONTINUOUS
62
5
10
0.000000
20
308.000000
11
320.000000
21
308.000000
0
ARC
5
48c
100
AcDbEntity
8
1
100
AcDbCircle
6
CONTINUOUS
62
5
10
207.556735
20
159.960103
40
0.200000
100
AcDbArc
50
0.000000
51
89.999999
0
LINE
5
48d
100
AcDbEntity
8
1
100
AcDbLine
6
CONTINUOUS
62
5
10
207.756735
20
159.960103
11
207.756735
21
159.960103
0
LINE
5
48e
100
AcDbEntity
8
1
100
AcDbLine
6
CONTINUOUS
62
5
10
206.444498
20
159.948402
11
206.444498
21
159.960103
0
ARC
5
48f
100
AcDbEntity
8
1
100
AcDbCircle
6
CONTINUOUS
62
5
10
206.644498
20
159.960103
40
0.200000
100
AcDbArc
50
89.999999
51
179.999998
0
LINE
5
490
100
AcDbEntity
8
1
100
AcDbLine
6
CONTINUOUS
62
5
10
206.644498
20
160.160103
11
207.556735
21
160.160103
0
ARC
5
491
100
AcDbEntity
8
1
100
AcDbCircle
6
CONTINUOUS
62
5
10
205.043402
20
160.156382
40
0.300000
100
AcDbArc
50
-0.021765
51
89.999999
0
LINE
5
492
100
AcDbEntity
8
1
100
AcDbLine
6
CONTINUOUS
62
5
10
205.343402
20
160.156268
11
205.343404
21
160.159236
0
POLYLINE
5
493
100
AcDbEntity
8
1
6
CONTINUOUS
62
5
100
AcDb2dPolyline
66
1
10
0.0
20
0.0
30
0.0
70
0
0
VERTEX
5
494
100
AcDbEntity
8
1
100
AcDbVertex
100
AcDb2dVertex
62
5
10
203.862054
20
160.371125
0
VERTEX
5
495
100
AcDbEntity
8
1
100
AcDbVertex
100
AcDb2dVertex
62
5
10
203.945426
20
160.456382
0
VERTEX
5
496
100
AcDbEntity
8
1
100
AcDbVertex
100
AcDb2dVertex
62
5
10
205.043402
20
160.456382
0
SEQEND
5
497
100
AcDbEntity
8
1
0
ARC
5
498
100
AcDbEntity
8
1
100
AcDbCircle
6
CONTINUOUS
62
5
10
205.355319
20
159.875354
40
0.200000
100
AcDbArc
50
0.000000
51
89.999999
0
LINE
5
499
100
AcDbEntity
8
1
100
AcDbLine
6
CONTINUOUS
62
5
10
205.355319
20
160.075354
11
205.343372
21
160.075354
0
LINE
5
49a
100
AcDbEntity
8
1
100
AcDbLine
6
CONTINUOUS
62
5
10
205.555319
20
158.254966
11
205.555319
21
159.875354
0
ARC
5
49b
100
AcDbEntity
8
1
100
AcDbCircle
6
CONTINUOUS
62
5
10
205.043769
20
161.172300
40
0.300041
100
AcDbArc
50
0.652688
51
89.995920
0
LINE
5
49c
100
AcDbEntity
8
1
100
AcDbLine
6
CONTINUOUS
62
5
10
205.343790
20
161.175717
11
205.342756
21
158.454966
0
ARC
5
49d
100
AcDbEntity
8
1
100
AcDbCircle
6
CONTINUOUS
62
5
10
205.542889
20
158.454992
40
0.200132
100
AcDbArc
50
-179.992510
51
-91.867429
0
POLYLINE
5
49e
100
AcDbEntity
8
1
6
CONTINUOUS
62
5
100
AcDb2dPolyline
66
1
10
0.0
20
0.0
30
0.0
70
0
0
VERTEX
5
49f
100
AcDbEntity
8
1
100
AcDbVertex
100
AcDb2dVertex
62
5
10
203.862048
20
161.173165
0
VERTEX
5
4a0
100
AcDbEntity
8
1
100
AcDbVertex
100
AcDb2dVertex
62
5
10
203.862054
20
161.387763
0
VERTEX
5
4a1
100
AcDbEntity
8
1
100
AcDbVertex
100
AcDb2dVertex
62
5
10
203.946804
20
161.472340
0
VERTEX
5
4a2
100
AcDbEntity
8
1
100
AcDbVertex
100
AcDb2dVertex
62
5
10
205.043790
20
161.472340
0
SEQEND
5
4a3
100
AcDbEntity
8
1
0
ARC
5
4a4
100
AcDbEntity
8
1
100
AcDbCircle
6
CONTINUOUS
62
5
10
206.032625
20
140.082616
40
0.200000
100
AcDbArc
50
-89.999999
51
0.000000
0
POLYLINE
5
4a5
100
AcDbEntity
8
1
6
CONTINUOUS
62
5
100
AcDb2dPolyline
66
1
10
0.0
20
0.0
30
0.0
70
0
0
VERTEX
5
4a6
100
AcDbEntity
8
1
100
AcDbVertex
100
AcDb2dVertex
62
5
10
206.032625
20
139.882616
0
VERTEX
5
4a7
100
AcDbEntity
8
1
100
AcDbVertex
100
AcDb2dVertex
62
5
10
205.343790
20
139.882616
0
VERTEX
5
4a8
100
AcDbEntity
8
1
100
AcDbVertex
100
AcDb2dVertex
62
5
10
205.343790
20
138.527660
0
SEQEND
5
4a9
100
AcDbEntity
8
1
0
LINE
5
4aa
100
AcDbEntity
8
1
100
AcDbLine
6
CONTINUOUS
62
5
10
205.343404
20
160.160103
11
206.032625
21
160.160103
0
ARC
5
4ab
100
AcDbEntity
8
1
100
AcDbCircle
6
CONTINUOUS
62
5
10
206.032625
20
159.960103
40
0.200000
100
AcDbArc
50
0.000000
51
89.999999
0
LINE
5
4ac
100
AcDbEntity
8
1
100
AcDbLine
6
CONTINUOUS
62
5
10
206.232625
20
159.960103
11
206.232625
21
140.082616
0
ARC
5
4ad
100
AcDbEntity
8
1
100
AcDbCircle
6
CONTINUOUS
62
5
10
207.556735
20
160.298756
40
0.200000
100
AcDbArc
50
0.000000
51
89.999999
0
LINE
5
4ae
100
AcDbEntity
8
1
100
AcDbLine
6
CONTINUOUS
62
5
10
207.756735
20
160.298756
11
207.756735
21
157.453375
0
ARC
5
4af
100
AcDbEntity
8
1
100
AcDbCircle
6
CONTINUOUS
62
5
10
208.056735
20
157.453375
40
0.300000
100
AcDbArc
50
179.999998
51
-77.042983
0
LINE
5
4b0
100
AcDbEntity
8
1
100
AcDbLine
6
CONTINUOUS
62
5
10
208.124001
20
157.161013
11
217.649121
21
159.352535
0
ARC
5
4b1
100
AcDbEntity
8
1
100
AcDbCircle
6
CONTINUOUS
62
5
10
217.985452
20
157.890727
40
1.500000
100
AcDbArc
50
13.085609
51
102.957016
0
LINE
5
4b2
100
AcDbEntity
8
1
100
AcDbLine
6
CONTINUOUS
62
5
10
219.446501
20
158.230337
11
221.550092
21
149.180397
0
ARC
5
4b3
100
AcDbEntity
8
1
100
AcDbCircle
6
CONTINUOUS
62
5
10
221.355285
20
149.135116
40
0.200000
100
AcDbArc
50
-77.049410
51
13.085609
0
LINE
5
4b4
100
AcDbEntity
8
1
100
AcDbLine
6
CONTINUOUS
62
5
10
221.400107
20
148.940203
11
207.989502
21
145.856300
0
ARC
5
4b5
100
AcDbEntity
8
1
100
AcDbCircle
6
CONTINUOUS
62
5
10
208.056735
20
145.563931
40
0.300000
100
AcDbArc
50
102.950588
51
179.999998
0
LINE
5
4b6
100
AcDbEntity
8
1
100
AcDbLine
6
CONTINUOUS
62
5
10
207.756735
20
145.563931
11
207.756735
21
145.563931
0
LINE
5
4b7
100
AcDbEntity
8
1
100
AcDbLine
6
CONTINUOUS
62
5
10
206.444498
20
157.154430
11
206.444498
21
160.298756
0
ARC
5
4b8
100
AcDbEntity
8
1
100
AcDbCircle
6
CONTINUOUS
62
5
10
206.644498
20
160.298756
40
0.200000
100
AcDbArc
50
89.999999
51
179.999998
0
LINE
5
4b9
100
AcDbEntity
8
1
100
AcDbLine
6
CONTINUOUS
62
5
10
206.644498
20
160.498756
11
207.556735
21
160.498756
0
POLYLINE
5
4ba
100
AcDbEntity
8
1
6
CONTINUOUS
62
5
100
AcDb2dPolyline
66
1
10
0.0
20
0.0
30
0.0
70
0
0
VERTEX
5
4bb
100
AcDbEntity
8
1
100
AcDbVertex
100
AcDb2dVertex
62
5
10
195.861165
20
157.535285
0
VERTEX
5
4bc
100
AcDbEntity
8
1
100
AcDbVertex
100
AcDb2dVertex
62
5
10
195.522512
20
157.535285
0
VERTEX
5
4bd
100
AcDbEntity
8
1
100
AcDbVertex
100
AcDb2dVertex
62
5
10
195.522512
20
160.075354
0
VERTEX
5
4be
100
AcDbEntity
8
1
100
AcDbVertex
100
AcDb2dVertex
62
5
10
195.861165
20
160.075354
0
SEQEND
5
4bf
100
AcDbEntity
8
1
0
ARC
5
4c0
100
AcDbEntity
8
1
100
AcDbCircle
6
CONTINUOUS
62
5
10
196.361154
20
160.845920
40
0.500000
100
AcDbArc
50
90.965484
51
179.999998
0
LINE
5
4c1
100
AcDbEntity
8
1
100
AcDbLine
6
CONTINUOUS
62
5
10
195.861154
20
160.845920
11
195.861165
21
139.196626
0
ARC
5
4c2
100
AcDbEntity
8
1
100
AcDbCircle
6
CONTINUOUS
62
5
10
196.361165
20
139.196626
40
0.500000
100
AcDbArc
50
179.999998
51
-90.966717
0
LINE
5
4c3
100
AcDbEntity
8
1
100
AcDbLine
6
CONTINUOUS
62
5
10
196.352729
20
138.696697
11
203.556993
21
138.569253
0
ARC
5
4c4
100
AcDbEntity
8
1
100
AcDbCircle
6
CONTINUOUS
62
5
10
203.562054
20
138.869210
40
0.300000
100
AcDbArc
50
-90.966717
51
0.000000
0
LINE
5
4c5
100
AcDbEntity
8
1
100
AcDbLine
6
CONTINUOUS
62
5
10
203.862054
20
138.869210
11
203.862048
21
161.173165
0
ARC
5
4c6
100
AcDbEntity
8
1
100
AcDbCircle
6
CONTINUOUS
62
5
10
203.562048
20
161.173165
40
0.300000
100
AcDbArc
50
0.000000
51
90.965484
0
LINE
5
4c7
100
AcDbEntity
8
1
100
AcDbLine
6
CONTINUOUS
62
5
10
203.556993
20
161.473122
11
196.352729
21
161.345849
0
ARC
5
4c8
100
AcDbEntity
8
1
100
AcDbCircle
6
CONTINUOUS
62
5
10
138.854622
20
154.249464
40
1.000000
100
AcDbArc
50
89.999999
51
179.999998
0
LINE
5
4c9
100
AcDbEntity
8
1
100
AcDbLine
6
CONTINUOUS
62
5
10
138.854622
20
155.249464
11
139.852316
21
155.249464
0
ARC
5
4ca
100
AcDbEntity
8
1
100
AcDbCircle
6
CONTINUOUS
62
5
10
139.852316
20
155.749464
40
0.500000
100
AcDbArc
50
-89.999999
51
0.000000
0
LINE
5
4cb
100
AcDbEntity
8
1
100
AcDbLine
6
CONTINUOUS
62
5
10
140.352316
20
155.749464
11
140.352316
21
157.754966
0
ARC
5
4cc
100
AcDbEntity
8
1
100
AcDbCircle
6
CONTINUOUS
62
5
10
139.852316
20
157.754966
40
0.500000
100
AcDbArc
50
0.000000
51
89.999999
0
LINE
5
4cd
100
AcDbEntity
8
1
100
AcDbLine
6
CONTINUOUS
62
5
10
139.852316
20
158.254966
11
138.831928
21
158.254966
0
ARC
5
4ce
100
AcDbEntity
8
1
100
AcDbCircle
6
CONTINUOUS
62
5
10
138.831928
20
158.554966
40
0.300000
100
AcDbArc
50
179.999998
51
-89.999999
0
LINE
5
4cf
100
AcDbEntity
8
1
100
AcDbLine
6
CONTINUOUS
62
5
10
138.531928
20
158.554966
11
138.531928
21
159.956382
0
ARC
5
4d0
100
AcDbEntity
8
1
100
AcDbCircle
6
CONTINUOUS
62
5
10
138.031928
20
159.956382
40
0.500000
100
AcDbArc
50
0.000000
51
89.999999
0
POLYLINE
5
4d1
100
AcDbEntity
8
1
6
CONTINUOUS
62
5
100
AcDb2dPolyline
66
1
10
0.0
20
0.0
30
0.0
70
0
0
VERTEX
5
4d2
100
AcDbEntity
8
1
100
AcDbVertex
100
AcDb2dVertex
62
5
10
138.031928
20
160.456382
0
VERTEX
5
4d3
100
AcDbEntity
8
1
100
AcDbVertex
100
AcDb2dVertex
62
5
10
135.356928
20
160.456382
0
VERTEX
5
4d4
100
AcDbEntity
8
1
100
AcDbVertex
100
AcDb2dVertex
62
5
10
135.356928
20
160.972340
0
SEQEND
5
4d5
100
AcDbEntity
8
1
0
ARC
5
4d6
100
AcDbEntity
8
1
100
AcDbCircle
6
CONTINUOUS
62
5
10
134.856928
20
160.972340
40
0.500000
100
AcDbArc
50
0.000000
51
89.999999
0
LINE
5
4d7
100
AcDbEntity
8
1
100
AcDbLine
6
CONTINUOUS
62
5
10
134.856928
20
161.472340
11
131.936176
21
161.472340
0
LINE
5
4d8
100
AcDbEntity
8
1
100
AcDbLine
6
CONTINUOUS
62
5
10
131.936176
20
138.570034
11
134.856928
21
138.570034
0
ARC
5
4d9
100
AcDbEntity
8
1
100
AcDbCircle
6
CONTINUOUS
62
5
10
134.856928
20
139.070034
40
0.500000
100
AcDbArc
50
-89.999999
51
0.000000
0
POLYLINE
5
4da
100
AcDbEntity
8
1
6
CONTINUOUS
62
5
100
AcDb2dPolyline
66
1
10
0.0
20
0.0
30
0.0
70
0
0
VERTEX
5
4db
100
AcDbEntity
8
1
100
AcDbVertex
100
AcDb2dVertex
62
5
10
135.356928
20
139.070034
0
VERTEX
5
4dc
100
AcDbEntity
8
1
100
AcDbVertex
100
AcDb2dVertex
62
5
10
135.356928
20
139.585993
0
VERTEX
5
4dd
100
AcDbEntity
8
1
100
AcDbVertex
100
AcDb2dVertex
62
5
10
138.031928
20
139.585993
0
SEQEND
5
4de
100
AcDbEntity
8
1
0
ARC
5
4df
100
AcDbEntity
8
1
100
AcDbCircle
6
CONTINUOUS
62
5
10
138.031928
20
140.085993
40
0.500000
100
AcDbArc
50
-89.999999
51
0.000000
0
LINE
5
4e0
100
AcDbEntity
8
1
100
AcDbLine
6
CONTINUOUS
62
5
10
138.531928
20
140.085993
11
138.531928
21
141.487409
0
ARC
5
4e1
100
AcDbEntity
8
1
100
AcDbCircle
6
CONTINUOUS
62
5
10
138.831928
20
141.487409
40
0.300000
100
AcDbArc
50
89.999999
51
179.999998
0
LINE
5
4e2
100
AcDbEntity
8
1
100
AcDbLine
6
CONTINUOUS
62
5
10
138.831928
20
141.787409
11
139.852316
21
141.787409
0
ARC
5
4e3
100
AcDbEntity
8
1
100
AcDbCircle
6
CONTINUOUS
62
5
10
139.852316
20
142.287409
40
0.500000
100
AcDbArc
50
-89.999999
51
0.000000
0
LINE
5
4e4
100
AcDbEntity
8
1
100
AcDbLine
6
CONTINUOUS
62
5
10
140.352316
20
142.287409
11
140.352316
21
144.250708
0
ARC
5
4e5
100
AcDbEntity
8
1
100
AcDbCircle
6
CONTINUOUS
62
5
10
139.852316
20
144.250708
40
0.500000
100
AcDbArc
50
0.000000
51
89.999999
0
LINE
5
4e6
100
AcDbEntity
8
1
100
AcDbLine
6
CONTINUOUS
62
5
10
139.852316
20
144.750708
11
138.854622
21
144.750708
0
ARC
5
4e7
100
AcDbEntity
8
1
100
AcDbCircle
6
CONTINUOUS
62
5
10
138.854622
20
145.750708
40
1.000000
100
AcDbArc
50
179.999998
51
-89.999999
0
LINE
5
4e8
100
AcDbEntity
8
1
100
AcDbLine
6
CONTINUOUS
62
5
10
137.854622
20
145.750708
11
137.854622
21
154.249464
0
POLYLINE
5
4e9
100
AcDbEntity
8
1
6
CONTINUOUS
62
5
100
AcDb2dPolyline
66
1
10
0.0
20
0.0
30
0.0
70
1
0
VERTEX
5
4ea
100
AcDbEntity
8
1
100
AcDbVertex
100
AcDb2dVertex
62
5
10
109.025718
20
157.535285
0
VERTEX
5
4eb
100
AcDbEntity
8
1
100
AcDbVertex
100
AcDb2dVertex
62
5
10
108.009760
20
160.075354
0
VERTEX
5
4ec
100
AcDbEntity
8
1
100
AcDbVertex
100
AcDb2dVertex
62
5
10
108.432990
20
160.075354
0
VERTEX
5
4ed
100
AcDbEntity
8
1
100
AcDbVertex
100
AcDb2dVertex
62
5
10
109.237419
20
158.043437
0
VERTEX
5
4ee
100
AcDbEntity
8
1
100
AcDbVertex
100
AcDb2dVertex
62
5
10
109.999302
20
160.075354
0
VERTEX
5
4ef
100
AcDbEntity
8
1
100
AcDbVertex
100
AcDb2dVertex
62
5
10
110.422704
20
160.075354
0
VERTEX
5
4f0
100
AcDbEntity
8
1
100
AcDbVertex
100
AcDb2dVertex
62
5
10
109.406746
20
157.535285
0
SEQEND
5
4f1
100
AcDbEntity
8
1
0
POLYLINE
5
4f2
100
AcDbEntity
8
1
6
CONTINUOUS
62
5
100
AcDb2dPolyline
66
1
10
0.0
20
0.0
30
0.0
70
1
0
VERTEX
5
4f3
100
AcDbEntity
8
1
100
AcDbVertex
100
AcDb2dVertex
62
5
10
105.639017
20
159.651952
0
VERTEX
5
4f4
100
AcDbEntity
8
1
100
AcDbVertex
100
AcDb2dVertex
62
5
10
105.639017
20
160.075354
0
VERTEX
5
4f5
100
AcDbEntity
8
1
100
AcDbVertex
100
AcDb2dVertex
62
5
10
107.713309
20
160.075354
0
VERTEX
5
4f6
100
AcDbEntity
8
1
100
AcDbVertex
100
AcDb2dVertex
62
5
10
107.713309
20
159.651952
0
VERTEX
5
4f7
100
AcDbEntity
8
1
100
AcDbVertex
100
AcDb2dVertex
62
5
10
106.866677
20
159.651952
0
VERTEX
5
4f8
100
AcDbEntity
8
1
100
AcDbVertex
100
AcDb2dVertex
62
5
10
106.866677
20
157.577660
0
VERTEX
5
4f9
100
AcDbEntity
8
1
100
AcDbVertex
100
AcDb2dVertex
62
5
10
106.443275
20
157.577660
0
VERTEX
5
4fa
100
AcDbEntity
8
1
100
AcDbVertex
100
AcDb2dVertex
62
5
10
106.443275
20
159.651952
0
SEQEND
5
4fb
100
AcDbEntity
8
1
0
ARC
5
4fc
100
AcDbEntity
8
1
100
AcDbCircle
6
CONTINUOUS
62
5
10
98.035114
20
154.249464
40
1.000000
100
AcDbArc
50
0.000000
51
89.999999
0
LINE
5
4fd
100
AcDbEntity
8
1
100
AcDbLine
6
CONTINUOUS
62
5
10
98.035114
20
155.249464
11
97.037419
21
155.249464
0
ARC
5
4fe
100
AcDbEntity
8
1
100
AcDbCircle
6
CONTINUOUS
62
5
10
97.037419
20
155.749464
40
0.500000
100
AcDbArc
50
179.999998
51
-89.999999
0
LINE
5
4ff
100
AcDbEntity
8
1
100
AcDbLine
6
CONTINUOUS
62
5
10
96.537419
20
155.749464
11
96.537419
21
157.754966
0
ARC
5
500
100
AcDbEntity
8
1
100
AcDbCircle
6
CONTINUOUS
62
5
10
97.037419
20
157.754966
40
0.500000
100
AcDbArc
50
89.999999
51
179.999998
0
LINE
5
501
100
AcDbEntity
8
1
100
AcDbLine
6
CONTINUOUS
62
5
10
97.037419
20
158.254966
11
98.057808
21
158.254966
0
ARC
5
502
100
AcDbEntity
8
1
100
AcDbCircle
6
CONTINUOUS
62
5
10
98.057808
20
158.554966
40
0.300000
100
AcDbArc
50
-89.999999
51
0.000000
0
LINE
5
503
100
AcDbEntity
8
1
100
AcDbLine
6
CONTINUOUS
62
5
10
98.357808
20
158.554966
11
98.357808
21
159.956382
0
ARC
5
504
100
AcDbEntity
8
1
100
AcDbCircle
6
CONTINUOUS
62
5
10
98.857808
20
159.956382
40
0.500000
100
AcDbArc
50
89.999999
51
179.999998
0
POLYLINE
5
505
100
AcDbEntity
8
1
6
CONTINUOUS
62
5
100
AcDb2dPolyline
66
1
10
0.0
20
0.0
30
0.0
70
0
0
VERTEX
5
506
100
AcDbEntity
8
1
100
AcDbVertex
100
AcDb2dVertex
62
5
10
98.857808
20
160.456382
0
VERTEX
5
507
100
AcDbEntity
8
1
100
AcDbVertex
100
AcDb2dVertex
62
5
10
101.532808
20
160.456382
0
VERTEX
5
508
100
AcDbEntity
8
1
100
AcDbVertex
100
AcDb2dVertex
62
5
10
101.532808
20
160.972340
0
SEQEND
5
509
100
AcDbEntity
8
1
0
ARC
5
50a
100
AcDbEntity
8
1
100
AcDbCircle
6
CONTINUOUS
62
5
10
102.032808
20
160.972340
40
0.500000
100
AcDbArc
50
89.999999
51
179.999998
0
LINE
5
50b
100
AcDbEntity
8
1
100
AcDbLine
6
CONTINUOUS
62
5
10
102.032808
20
161.472340
11
104.953560
21
161.472340
0
LINE
5
50c
100
AcDbEntity
8
1
100
AcDbLine
6
CONTINUOUS
62
5
10
104.953560
20
138.570034
11
102.032808
21
138.570034
0
ARC
5
50d
100
AcDbEntity
8
1
100
AcDbCircle
6
CONTINUOUS
62
5
10
102.032808
20
139.070034
40
0.500000
100
AcDbArc
50
179.999998
51
-89.999999
0
POLYLINE
5
50e
100
AcDbEntity
8
1
6
CONTINUOUS
62
5
100
AcDb2dPolyline
66
1
10
0.0
20
0.0
30
0.0
70
0
0
VERTEX
5
50f
100
AcDbEntity
8
1
100
AcDbVertex
100
AcDb2dVertex
62
5
10
101.532808
20
139.070034
0
VERTEX
5
510
100
AcDbEntity
8
1
100
AcDbVertex
100
AcDb2dVertex
62
5
10
101.532808
20
139.585993
0
VERTEX
5
511
100
AcDbEntity
8
1
100
AcDbVertex
100
AcDb2dVertex
62
5
10
98.857808
20
139.585993
0
SEQEND
5
512
100
AcDbEntity
8
1
0
ARC
5
513
100
AcDbEntity
8
1
100
AcDbCircle
6
CONTINUOUS
62
5
10
98.857808
20
140.085993
40
0.500000
100
AcDbArc
50
179.999998
51
-89.999999
0
LINE
5
514
100
AcDbEntity
8
1
100
AcDbLine
6
CONTINUOUS
62
5
10
98.357808
20
140.085993
11
98.357808
21
141.487409
0
ARC
5
515
100
AcDbEntity
8
1
100
AcDbCircle
6
CONTINUOUS
62
5
10
98.057808
20
141.487409
40
0.300000
100
AcDbArc
50
0.000000
51
89.999999
0
LINE
5
516
100
AcDbEntity
8
1
100
AcDbLine
6
CONTINUOUS
62
5
10
98.057808
20
141.787409
11
97.037419
21
141.787409
0
ARC
5
517
100
AcDbEntity
8
1
100
AcDbCircle
6
CONTINUOUS
62
5
10
97.037419
20
142.287409
40
0.500000
100
AcDbArc
50
179.999998
51
-89.999999
0
LINE
5
518
100
AcDbEntity
8
1
100
AcDbLine
6
CONTINUOUS
62
5
10
96.537419
20
142.287409
11
96.537419
21
144.250708
0
ARC
5
519
100
AcDbEntity
8
1
100
AcDbCircle
6
CONTINUOUS
62
5
10
97.037419
20
144.250708
40
0.500000
100
AcDbArc
50
89.999999
51
179.999998
0
LINE
5
51a
100
AcDbEntity
8
1
100
AcDbLine
6
CONTINUOUS
62
5
10
97.037419
20
144.750708
11
98.035114
21
144.750708
0
ARC
5
51b
100
AcDbEntity
8
1
100
AcDbCircle
6
CONTINUOUS
62
5
10
98.035114
20
145.750708
40
1.000000
100
AcDbArc
50
-89.999999
51
0.000000
0
LINE
5
51c
100
AcDbEntity
8
1
100
AcDbLine
6
CONTINUOUS
62
5
10
99.035114
20
145.750708
11
99.035114
21
154.249464
0
ARC
5
51d
100
AcDbEntity
8
1
100
AcDbCircle
6
CONTINUOUS
62
5
10
131.936176
20
139.070034
40
0.500000
100
AcDbArc
50
-89.999999
51
0.000000
0
POLYLINE
5
51e
100
AcDbEntity
8
1
6
CONTINUOUS
62
5
100
AcDb2dPolyline
66
1
10
0.0
20
0.0
30
0.0
70
0
0
VERTEX
5
51f
100
AcDbEntity
8
1
100
AcDbVertex
100
AcDb2dVertex
62
5
10
132.436176
20
139.070034
0
VERTEX
5
520
100
AcDbEntity
8
1
100
AcDbVertex
100
AcDb2dVertex
62
5
10
132.436176
20
142.337763
0
VERTEX
5
521
100
AcDbEntity
8
1
100
AcDbVertex
100
AcDb2dVertex
62
5
10
132.393801
20
142.337763
0
VERTEX
5
522
100
AcDbEntity
8
1
100
AcDbVertex
100
AcDb2dVertex
62
5
10
132.393801
20
145.554966
0
VERTEX
5
523
100
AcDbEntity
8
1
100
AcDbVertex
100
AcDb2dVertex
62
5
10
132.351426
20
145.554966
0
VERTEX
5
524
100
AcDbEntity
8
1
100
AcDbVertex
100
AcDb2dVertex
62
5
10
132.351426
20
154.487409
0
VERTEX
5
525
100
AcDbEntity
8
1
100
AcDbVertex
100
AcDb2dVertex
62
5
10
132.393801
20
154.487409
0
VERTEX
5
526
100
AcDbEntity
8
1
100
AcDbVertex
100
AcDb2dVertex
62
5
10
132.393801
20
157.662409
0
VERTEX
5
527
100
AcDbEntity
8
1
100
AcDbVertex
100
AcDb2dVertex
62
5
10
132.436176
20
157.704784
0
VERTEX
5
528
100
AcDbEntity
8
1
100
AcDbVertex
100
AcDb2dVertex
62
5
10
132.436176
20
160.972340
0
SEQEND
5
529
100
AcDbEntity
8
1
0
ARC
5
52a
100
AcDbEntity
8
1
100
AcDbCircle
6
CONTINUOUS
62
5
10
131.936176
20
160.972340
40
0.500000
100
AcDbArc
50
0.000000
51
89.999999
0
POLYLINE
5
52b
100
AcDbEntity
8
1
6
CONTINUOUS
62
5
100
AcDb2dPolyline
66
1
10
0.0
20
0.0
30
0.0
70
0
0
VERTEX
5
52c
100
AcDbEntity
8
1
100
AcDbVertex
100
AcDb2dVertex
62
5
10
131.936176
20
161.472340
0
VERTEX
5
52d
100
AcDbEntity
8
1
100
AcDbVertex
100
AcDb2dVertex
62
5
10
130.192385
20
161.472340
0
VERTEX
5
52e
100
AcDbEntity
8
1
100
AcDbVertex
100
AcDb2dVertex
62
5
10
130.150010
20
161.514715
0
VERTEX
5
52f
100
AcDbEntity
8
1
100
AcDbVertex
100
AcDb2dVertex
62
5
10
106.697350
20
161.514715
0
VERTEX
5
530
100
AcDbEntity
8
1
100
AcDbVertex
100
AcDb2dVertex
62
5
10
106.697350
20
161.472340
0
VERTEX
5
531
100
AcDbEntity
8
1
100
AcDbVertex
100
AcDb2dVertex
62
5
10
104.953732
20
161.472340
0
SEQEND
5
532
100
AcDbEntity
8
1
0
ARC
5
533
100
AcDbEntity
8
1
100
AcDbCircle
6
CONTINUOUS
62
5
10
104.953732
20
160.972340
40
0.500000
100
AcDbArc
50
89.999999
51
179.999998
0
POLYLINE
5
534
100
AcDbEntity
8
1
6
CONTINUOUS
62
5
100
AcDb2dPolyline
66
1
10
0.0
20
0.0
30
0.0
70
0
0
VERTEX
5
535
100
AcDbEntity
8
1
100
AcDbVertex
100
AcDb2dVertex
62
5
10
104.453732
20
160.972340
0
VERTEX
5
536
100
AcDbEntity
8
1
100
AcDbVertex
100
AcDb2dVertex
62
5
10
104.453732
20
157.704784
0
VERTEX
5
537
100
AcDbEntity
8
1
100
AcDbVertex
100
AcDb2dVertex
62
5
10
104.495934
20
157.662409
0
VERTEX
5
538
100
AcDbEntity
8
1
100
AcDbVertex
100
AcDb2dVertex
62
5
10
104.495934
20
154.487409
0
VERTEX
5
539
100
AcDbEntity
8
1
100
AcDbVertex
100
AcDb2dVertex
62
5
10
104.538309
20
154.487409
0
VERTEX
5
53a
100
AcDbEntity
8
1
100
AcDbVertex
100
AcDb2dVertex
62
5
10
104.538309
20
145.554966
0
VERTEX
5
53b
100
AcDbEntity
8
1
100
AcDbVertex
100
AcDb2dVertex
62
5
10
104.495934
20
145.554966
0
VERTEX
5
53c
100
AcDbEntity
8
1
100
AcDbVertex
100
AcDb2dVertex
62
5
10
104.495934
20
142.337763
0
VERTEX
5
53d
100
AcDbEntity
8
1
100
AcDbVertex
100
AcDb2dVertex
62
5
10
104.453732
20
142.337763
0
VERTEX
5
53e
100
AcDbEntity
8
1
100
AcDbVertex
100
AcDb2dVertex
62
5
10
104.453732
20
139.070034
0
SEQEND
5
53f
100
AcDbEntity
8
1
0
ARC
5
540
100
AcDbEntity
8
1
100
AcDbCircle
6
CONTINUOUS
62
5
10
104.953732
20
139.070034
40
0.500000
100
AcDbArc
50
179.999998
51
-89.999999
0
POLYLINE
5
541
100
AcDbEntity
8
1
6
CONTINUOUS
62
5
100
AcDb2dPolyline
66
1
10
0.0
20
0.0
30
0.0
70
0
0
VERTEX
5
542
100
AcDbEntity
8
1
100
AcDbVertex
100
AcDb2dVertex
62
5
10
104.953732
20
138.570034
0
VERTEX
5
543
100
AcDbEntity
8
1
100
AcDbVertex
100
AcDb2dVertex
62
5
10
106.697350
20
138.570034
0
VERTEX
5
544
100
AcDbEntity
8
1
100
AcDbVertex
100
AcDb2dVertex
62
5
10
106.697350
20
138.527660
0
VERTEX
5
545
100
AcDbEntity
8
1
100
AcDbVertex
100
AcDb2dVertex
62
5
10
130.150010
20
138.527660
0
VERTEX
5
546
100
AcDbEntity
8
1
100
AcDbVertex
100
AcDb2dVertex
62
5
10
130.192385
20
138.570034
0
VERTEX
5
547
100
AcDbEntity
8
1
100
AcDbVertex
100
AcDb2dVertex
62
5
10
131.936176
20
138.570034
0
SEQEND
5
548
100
AcDbEntity
8
1
0
LINE
5
549
100
AcDbEntity
8
1
100
AcDbLine
6
CONTINUOUS
62
5
10
223.462581
20
141.424646
11
223.462581
21
188.514715
0
LINE
5
54a
100
AcDbEntity
8
1
100
AcDbLine
6
CONTINUOUS
62
5
10
203.862048
20
162.673165
11
203.862048
21
188.514715
0
POLYLINE
5
54b
100
AcDbEntity
8
1
6
CONTINUOUS
62
5
100
AcDb2dPolyline
66
1
10
0.0
20
0.0
30
0.0
70
0
0
VERTEX
5
54c
100
AcDbEntity
8
1
100
AcDbVertex
100
AcDb2dVertex
62
5
10
244.712581
20
186.514715
0
VERTEX
5
54d
100
AcDbEntity
8
1
100
AcDbVertex
100
AcDb2dVertex
62
5
10
223.462581
20
186.514715
0
VERTEX
5
54e
100
AcDbEntity
8
1
100
AcDbVertex
100
AcDb2dVertex
62
5
10
229.462581
20
187.514715
0
VERTEX
5
54f
100
AcDbEntity
8
1
100
AcDbVertex
100
AcDb2dVertex
62
5
10
229.462581
20
185.514715
0
VERTEX
5
550
100
AcDbEntity
8
1
100
AcDbVertex
100
AcDb2dVertex
62
5
10
223.462581
20
186.514715
0
VERTEX
5
551
100
AcDbEntity
8
1
100
AcDbVertex
100
AcDb2dVertex
62
5
10
229.462581
20
187.014715
0
VERTEX
5
552
100
AcDbEntity
8
1
100
AcDbVertex
100
AcDb2dVertex
62
5
10
229.462581
20
186.014715
0
VERTEX
5
553
100
AcDbEntity
8
1
100
AcDbVertex
100
AcDb2dVertex
62
5
10
223.462581
20
186.514715
0
SEQEND
5
554
100
AcDbEntity
8
1
0
LINE
5
555
100
AcDbEntity
8
1
100
AcDbLine
6
CONTINUOUS
62
5
10
223.462581
20
186.514715
11
203.862048
21
186.514715
0
LINE
5
556
100
AcDbEntity
8
1
100
AcDbLine
6
CONTINUOUS
62
5
10
198.862048
20
186.514715
11
203.862048
21
186.514715
0
POLYLINE
5
557
100
AcDbEntity
8
1
6
CONTINUOUS
62
5
100
AcDb2dPolyline
66
1
10
0.0
20
0.0
30
0.0
70
0
0
VERTEX
5
558
100
AcDbEntity
8
1
100
AcDbVertex
100
AcDb2dVertex
62
5
10
204.862048
20
187.014715
0
VERTEX
5
559
100
AcDbEntity
8
1
100
AcDbVertex
100
AcDb2dVertex
62
5
10
204.862048
20
186.014715
0
VERTEX
5
55a
100
AcDbEntity
8
1
100
AcDbVertex
100
AcDb2dVertex
62
5
10
204.362048
20
185.514715
0
VERTEX
5
55b
100
AcDbEntity
8
1
100
AcDbVertex
100
AcDb2dVertex
62
5
10
203.362048
20
185.514715
0
VERTEX
5
55c
100
AcDbEntity
8
1
100
AcDbVertex
100
AcDb2dVertex
62
5
10
202.862048
20
186.014715
0
VERTEX
5
55d
100
AcDbEntity
8
1
100
AcDbVertex
100
AcDb2dVertex
62
5
10
202.862048
20
187.014715
0
VERTEX
5
55e
100
AcDbEntity
8
1
100
AcDbVertex
100
AcDb2dVertex
62
5
10
203.362048
20
187.514715
0
VERTEX
5
55f
100
AcDbEntity
8
1
100
AcDbVertex
100
AcDb2dVertex
62
5
10
204.362048
20
187.514715
0
VERTEX
5
560
100
AcDbEntity
8
1
100
AcDbVertex
100
AcDb2dVertex
62
5
10
204.862048
20
187.014715
0
VERTEX
5
561
100
AcDbEntity
8
1
100
AcDbVertex
100
AcDb2dVertex
62
5
10
202.862048
20
186.014715
0
SEQEND
5
562
100
AcDbEntity
8
1
0
LINE
5
563
100
AcDbEntity
8
1
100
AcDbLine
6
CONTINUOUS
62
5
10
202.862048
20
187.014715
11
204.862048
21
186.014715
0
LINE
5
564
100
AcDbEntity
8
1
100
AcDbLine
6
CONTINUOUS
62
5
10
204.362048
20
185.514715
11
203.362048
21
187.514715
0
LINE
5
565
100
AcDbEntity
8
1
100
AcDbLine
6
CONTINUOUS
62
5
10
204.362048
20
187.514715
11
203.362048
21
185.514715
0
LINE
5
566
100
AcDbEntity
8
1
100
AcDbLine
6
CONTINUOUS
62
5
10
105.197350
20
161.514715
11
69.537419
21
161.514715
0
LINE
5
567
100
AcDbEntity
8
1
100
AcDbLine
6
CONTINUOUS
62
5
10
105.197350
20
138.527660
11
69.537419
21
138.527660
0
POLYLINE
5
568
100
AcDbEntity
8
1
6
CONTINUOUS
62
5
100
AcDb2dPolyline
66
1
10
0.0
20
0.0
30
0.0
70
0
0
VERTEX
5
569
100
AcDbEntity
8
1
100
AcDbVertex
100
AcDb2dVertex
62
5
10
71.537419
20
182.764715
0
VERTEX
5
56a
100
AcDbEntity
8
1
100
AcDbVertex
100
AcDb2dVertex
62
5
10
71.537419
20
161.514715
0
VERTEX
5
56b
100
AcDbEntity
8
1
100
AcDbVertex
100
AcDb2dVertex
62
5
10
70.537419
20
167.514715
0
VERTEX
5
56c
100
AcDbEntity
8
1
100
AcDbVertex
100
AcDb2dVertex
62
5
10
72.537419
20
167.514715
0
VERTEX
5
56d
100
AcDbEntity
8
1
100
AcDbVertex
100
AcDb2dVertex
62
5
10
71.537419
20
161.514715
0
VERTEX
5
56e
100
AcDbEntity
8
1
100
AcDbVertex
100
AcDb2dVertex
62
5
10
71.037419
20
167.514715
0
VERTEX
5
56f
100
AcDbEntity
8
1
100
AcDbVertex
100
AcDb2dVertex
62
5
10
72.037419
20
167.514715
0
VERTEX
5
570
100
AcDbEntity
8
1
100
AcDbVertex
100
AcDb2dVertex
62
5
10
71.537419
20
161.514715
0
SEQEND
5
571
100
AcDbEntity
8
1
0
LINE
5
572
100
AcDbEntity
8
1
100
AcDbLine
6
CONTINUOUS
62
5
10
71.537419
20
138.527660
11
71.537419
21
161.514715
0
POLYLINE
5
573
100
AcDbEntity
8
1
6
CONTINUOUS
62
5
100
AcDb2dPolyline
66
1
10
0.0
20
0.0
30
0.0
70
0
0
VERTEX
5
574
100
AcDbEntity
8
1
100
AcDbVertex
100
AcDb2dVertex
62
5
10
71.537419
20
129.527660
0
VERTEX
5
575
100
AcDbEntity
8
1
100
AcDbVertex
100
AcDb2dVertex
62
5
10
71.537419
20
138.527660
0
VERTEX
5
576
100
AcDbEntity
8
1
100
AcDbVertex
100
AcDb2dVertex
62
5
10
72.537419
20
132.527660
0
VERTEX
5
577
100
AcDbEntity
8
1
100
AcDbVertex
100
AcDb2dVertex
62
5
10
70.537419
20
132.527660
0
VERTEX
5
578
100
AcDbEntity
8
1
100
AcDbVertex
100
AcDb2dVertex
62
5
10
71.537419
20
138.527660
0
VERTEX
5
579
100
AcDbEntity
8
1
100
AcDbVertex
100
AcDb2dVertex
62
5
10
72.037419
20
132.527660
0
VERTEX
5
57a
100
AcDbEntity
8
1
100
AcDbVertex
100
AcDb2dVertex
62
5
10
71.037419
20
132.527660
0
VERTEX
5
57b
100
AcDbEntity
8
1
100
AcDbVertex
100
AcDb2dVertex
62
5
10
71.537419
20
138.527660
0
SEQEND
5
57c
100
AcDbEntity
8
1
0
POLYLINE
5
57d
100
AcDbEntity
8
1
6
CONTINUOUS
62
5
100
AcDb2dPolyline
66
1
10
0.0
20
0.0
30
0.0
70
1
0
VERTEX
5
57e
100
AcDbEntity
8
1
100
AcDbVertex
100
AcDb2dVertex
62
5
10
320.000000
20
340.000000
0
VERTEX
5
57f
100
AcDbEntity
8
1
100
AcDbVertex
100
AcDb2dVertex
62
5
10
0.000000
20
340.000000
0
VERTEX
5
580
100
AcDbEntity
8
1
100
AcDbVertex
100
AcDb2dVertex
62
5
10
0.000000
20
-0.000000
0
VERTEX
5
581
100
AcDbEntity
8
1
100
AcDbVertex
100
AcDb2dVertex
62
5
10
320.000000
20
-0.000000
0
SEQEND
5
582
100
AcDbEntity
8
1
0
ENDSEC
0
SECTION
2
OBJECTS
0
DICTIONARY
5
583
100
AcDbDictionary
3
ACAD_GROUP
350
584
3
ACAD_MLINESTYLE
350
585
0
DICTIONARY
5
584
102
{ACAD_REACTORS
330
583
102
}
100
AcDbDictionary
0
DICTIONARY
5
585
102
{ACAD_REACTORS
330
583
102
}
100
AcDbDictionary
3
STANDARD
350
586
0
MLINESTYLE
5
586
102
{ACAD_REACTORS
330
585
102
}
100
AcDbMlineStyle
2
STANDARD
70
0
3

62
0
51
90.0
52
90.0
71
2
49
0.5
62
256
6
BYLAYER
49
-0.5
62
256
6
BYLAYER
0
ENDSEC
0
EOF
