0
SECTION
2
HEADER
9
$ACADVER
1
AC1012
9
$EXTMIN
10
-0.010000
20
-0.010000
30
0.0
9
$EXTMAX
10
13.390000
20
14.180000
30
0.0
9
$LIMMIN
10
-0.254000
20
-0.254000
9
$LIMMAX
10
340.106000
20
360.172000
9
$DIMSCALE
40
1.000000
9
$PDMODE
70
2
9
$PDSIZE
40
0.0
  9
$HANDSEED
  5
a1d
0
ENDSEC
0
SECTION
2
CLASSES
0
ENDSEC
0
SECTION
2
TABLES
0
TABLE
2
LTYPE
5
1e
100
AcDbSymbolTable
70
12
0
LTYPE
5
1f
100
AcDbSymbolTableRecord
100
AcDbLinetypeTableRecord
2
BYBLOCK
70
0
3

72
65
73
0
40
0.0
0
LTYPE
5
20
100
AcDbSymbolTableRecord
100
AcDbLinetypeTableRecord
2
BYLAYER
70
0
3

72
65
73
0
40
0.0
0
LTYPE
5
21
100
AcDbSymbolTableRecord
100
AcDbLinetypeTableRecord
2
CONTINUOUS
70
64
3
Solid line
72
65
73
0
40
0.0
0
LTYPE
5
22
100
AcDbSymbolTableRecord
100
AcDbLinetypeTableRecord
2
DASHED
70
64
3
__ __ __ __ __ __ __ __ __ __ __ __ __ __ __
72
65
73
2
40
0.75
49
0.5
74
0
49
-0.25
74
0
0
LTYPE
5
23
100
AcDbSymbolTableRecord
100
AcDbLinetypeTableRecord
2
DOT
70
64
3
...............................................
72
65
73
2
40
0.25
49
0.0
74
0
49
-0.25
74
0
0
LTYPE
5
24
100
AcDbSymbolTableRecord
100
AcDbLinetypeTableRecord
2
DASHDOT
70
64
3
__ . __ . __ . __ . __ . __ . __ . __ . __ . --
72
65
73
4
40
1.0
49
0.5
74
0
49
-0.25
74
0
49
0.0
74
0
49
-0.25
74
0
0
LTYPE
5
25
100
AcDbSymbolTableRecord
100
AcDbLinetypeTableRecord
2
CENTER
70
64
3
____ _ ____ _ ____ _ ____ _ ____ _ ____ _ ____
72
65
73
4
40
2.0
49
1.25
74
0
49
-0.25
74
0
49
0.25
74
0
49
-0.25
74
0
0
LTYPE
5
26
100
AcDbSymbolTableRecord
100
AcDbLinetypeTableRecord
2
PHANTOM
70
64
3
_____ _ _ _____ _ _ _____ _ _ _____ _ _ ____
72
65
73
6
40
2.5
49
1.25
74
0
49
-0.25
74
0
49
0.25
74
0
49
-0.25
74
0
49
0.25
74
0
49
-0.25
74
0
0
LTYPE
5
27
100
AcDbSymbolTableRecord
100
AcDbLinetypeTableRecord
2
HIDDEN
70
64
3
_ _ _ _ _ _ _ _ _ _ _ _ _ _ _ _ _ _ _ _ _ _ _
72
65
73
2
40
0.375
49
0.25
74
0
49
-0.125
74
0
0
LTYPE
5
28
100
AcDbSymbolTableRecord
100
AcDbLinetypeTableRecord
2
BORDER
70
64
3
__ __ . __ __ . __ __ . __ __ . __ __ . __ __
72
65
73
6
40
1.75
49
0.5
74
0
49
-0.25
74
0
49
0.5
74
0
49
-0.25
74
0
49
0.0
74
0
49
-0.25
74
0
0
LTYPE
5
29
100
AcDbSymbolTableRecord
100
AcDbLinetypeTableRecord
2
DIVIDE
70
64
3
__ . . __ . . __ . . __ . . __ . . __ . . __
72
65
73
6
40
1.25
49
0.5
74
0
49
-0.25
74
0
49
0.0
74
0
49
-0.25
74
0
49
0.0
74
0
49
-0.25
74
0
0
LTYPE
5
2a
100
AcDbSymbolTableRecord
100
AcDbLinetypeTableRecord
2
DOT2
70
64
3
...............................................
72
65
73
2
40
0.125
49
0.0
74
0
49
-0.125
74
0
0
ENDTAB
0
TABLE
2
STYLE
5
2b
100
AcDbSymbolTable
70
1
0
STYLE
5
2c
100
AcDbSymbolTableRecord
100
AcDbTextStyleTableRecord
2
STANDARD
70
64
40
0.0
41
1.0
50
0.0
71
0
42
5.0
3
txt
4
bigfont
0
ENDTAB
0
TABLE
2
LAYER
5
2d
100
AcDbSymbolTable
70
2
0
LAYER
5
2e
100
AcDbSymbolTableRecord
100
AcDbLayerTableRecord
2
0
70
0
62
7
6
CONTINUOUS
0
LAYER
5
2f
100
AcDbSymbolTableRecord
100
AcDbLayerTableRecord
2
1
70
0
62
7
6
CONTINUOUS
0
ENDTAB
0
TABLE
2
APPID
5
30
100
AcDbSymbolTable
70
1
0
APPID
5
31
100
AcDbSymbolTableRecord
100
AcDbRegAppTableRecord
2
ACAD
70
64
0
ENDTAB
0
TABLE
2
DIMSTYLE
5
32
100
AcDbSymbolTable
70
0
0
ENDTAB
0
TABLE
2
UCS
5
33
100
AcDbSymbolTable
70
0
0
ENDTAB
0
TABLE
2
VIEW
5
34
100
AcDbSymbolTable
70
0
0
ENDTAB
0
TABLE
2
VPORT
5
35
100
AcDbSymbolTable
70
0
0
ENDTAB
0
TABLE
2
BLOCK_RECORD
5
36
100
AcDbSymbolTable
70
0
0
BLOCK_RECORD
5
37
100
AcDbSymbolTableRecord
100
AcDbBlockTableRecord
2
*MODEL_SPACE
0
BLOCK_RECORD
5
38
100
AcDbSymbolTableRecord
100
AcDbBlockTableRecord
2
*PAPER_SPACE
0
BLOCK_RECORD
5
39
100
AcDbSymbolTableRecord
100
AcDbBlockTableRecord
2
OPEN
0
BLOCK_RECORD
5
3a
100
AcDbSymbolTableRecord
100
AcDbBlockTableRecord
2
HALF
0
BLOCK_RECORD
5
3b
100
AcDbSymbolTableRecord
100
AcDbBlockTableRecord
2
CLOSEDBLANK
0
BLOCK_RECORD
5
3c
100
AcDbSymbolTableRecord
100
AcDbBlockTableRecord
2
HALFCLOSE_R
0
BLOCK_RECORD
5
3d
100
AcDbSymbolTableRecord
100
AcDbBlockTableRecord
2
DOT
0
BLOCK_RECORD
5
3e
100
AcDbSymbolTableRecord
100
AcDbBlockTableRecord
2
HALFOPEN_R
0
BLOCK_RECORD
5
3f
100
AcDbSymbolTableRecord
100
AcDbBlockTableRecord
2
CLOSEDF
0
BLOCK_RECORD
5
40
100
AcDbSymbolTableRecord
100
AcDbBlockTableRecord
2
HALF_R
0
ENDTAB
0
ENDSEC
0
SECTION
2
BLOCKS
0
BLOCK
5
41
100
AcDbEntity
8
0
100
AcDbBlockBegin
2
*MODEL_SPACE
70
0
10
0.0
20
0.0
30
0.0
3
*MODEL_SPACE
1

0
ENDBLK
5
42
100
AcDbEntity
8
0
100
AcDbBlockEnd
0
BLOCK
5
43
100
AcDbEntity
67
1
8
0
100
AcDbBlockBegin
2
*PAPER_SPACE
70
0
10
0.0
20
0.0
30
0.0
3
*PAPER_SPACE
1

0
ENDBLK
5
44
100
AcDbEntity
67
1
8
0
100
AcDbBlockEnd
0
BLOCK
5
45
100
AcDbEntity
8
0
100
AcDbBlockBegin
2
OPEN
70
0
10
0.0
20
0.0
30
0.0
3
OPEN
1

0
LINE
5
46
100
AcDbEntity
8
0
6
BYBLOCK
62
0
100
AcDbLine
10
0.000000
20
0.000000
11
-1.000000
21
0.000000
0
LINE
5
47
100
AcDbEntity
8
0
6
BYBLOCK
62
0
100
AcDbLine
10
-1.000000
20
-0.166667
11
0.000000
21
0.000000
0
LINE
5
48
100
AcDbEntity
8
0
6
BYBLOCK
62
0
100
AcDbLine
10
-1.000000
20
0.166667
11
0.000000
21
0.000000
0
ENDBLK
5
49
100
AcDbEntity
8
0
100
AcDbBlockEnd
0
BLOCK
5
4a
100
AcDbEntity
8
0
100
AcDbBlockBegin
2
HALF
70
0
10
0.0
20
0.0
30
0.0
3
HALF
1

0
SOLID
5
4b
100
AcDbEntity
8
0
6
BYBLOCK
62
0
100
AcDbTrace
10
-1.000000
20
0.166667
11
-1.000000
21
-0.166667
12
0.000000
22
0.000000
13
0.000000
23
0.000000
0
ENDBLK
5
4c
100
AcDbEntity
8
0
100
AcDbBlockEnd
0
BLOCK
5
4d
100
AcDbEntity
8
0
100
AcDbBlockBegin
2
CLOSEDBLANK
70
0
10
0.0
20
0.0
30
0.0
3
CLOSEDBLANK
1

0
LINE
5
4e
100
AcDbEntity
8
0
6
BYBLOCK
62
0
100
AcDbLine
10
-1.000000
20
0.166667
11
-1.000000
21
-0.166667
0
LINE
5
4f
100
AcDbEntity
8
0
6
BYBLOCK
62
0
100
AcDbLine
10
0.000000
20
0.000000
11
-1.000000
21
-0.166667
0
LINE
5
50
100
AcDbEntity
8
0
6
BYBLOCK
62
0
100
AcDbLine
10
-1.000000
20
0.166667
11
0.000000
21
0.000000
0
ENDBLK
5
51
100
AcDbEntity
8
0
100
AcDbBlockEnd
0
BLOCK
5
52
100
AcDbEntity
8
0
100
AcDbBlockBegin
2
HALFCLOSE_R
70
0
10
0.0
20
0.0
30
0.0
3
HALFCLOSE_R
1

0
LINE
5
53
100
AcDbEntity
8
0
6
BYBLOCK
62
0
100
AcDbLine
10
-1.000000
20
-0.166667
11
-1.000000
21
0.000000
0
LINE
5
54
100
AcDbEntity
8
0
6
BYBLOCK
62
0
100
AcDbLine
10
-1.000000
20
-0.166667
11
0.000000
21
0.000000
0
LINE
5
55
100
AcDbEntity
8
0
6
BYBLOCK
62
0
100
AcDbLine
10
0.000000
20
0.000000
11
-1.000000
21
0.000000
0
ENDBLK
5
56
100
AcDbEntity
8
0
100
AcDbBlockEnd
0
BLOCK
5
57
100
AcDbEntity
8
0
100
AcDbBlockBegin
2
DOT
70
0
10
0.0
20
0.0
30
0.0
3
DOT
1

0
LINE
5
58
100
AcDbEntity
8
0
6
BYBLOCK
62
0
100
AcDbLine
10
0.000000
20
0.000000
11
-1.000000
21
0.000000
0
POLYLINE
5
59
100
AcDbEntity
8
0
6
BYBLOCK
62
0
100
AcDb2dPolyline
66
1
10
0.0
20
0.0
30
0.0
70
1
40
0.166667
41
0.166667
0
VERTEX
5
5a
100
AcDbEntity
8
0
100
AcDbVertex
100
AcDb2dVertex
62
10
10
-0.083333
20
0.000000
42
1.000000
0
VERTEX
5
5b
100
AcDbEntity
8
0
100
AcDbVertex
100
AcDb2dVertex
62
10
10
0.083333
20
0.000000
42
1.000000
0
SEQEND
5
5c
100
AcDbEntity
8
0
0
ENDBLK
5
5d
100
AcDbEntity
8
0
100
AcDbBlockEnd
0
BLOCK
5
5e
100
AcDbEntity
8
0
100
AcDbBlockBegin
2
HALFOPEN_R
70
0
10
0.0
20
0.0
30
0.0
3
HALFOPEN_R
1

0
LINE
5
5f
100
AcDbEntity
8
0
6
BYBLOCK
62
0
100
AcDbLine
10
-1.000000
20
-0.166667
11
0.000000
21
0.000000
0
LINE
5
60
100
AcDbEntity
8
0
6
BYBLOCK
62
0
100
AcDbLine
10
0.000000
20
0.000000
11
-1.000000
21
0.000000
0
ENDBLK
5
61
100
AcDbEntity
8
0
100
AcDbBlockEnd
0
BLOCK
5
62
100
AcDbEntity
8
0
100
AcDbBlockBegin
2
CLOSEDF
70
0
10
0.0
20
0.0
30
0.0
3
CLOSEDF
1

0
SOLID
5
63
100
AcDbEntity
8
0
6
BYBLOCK
62
0
100
AcDbTrace
10
-1.000000
20
0.166667
11
-1.000000
21
-0.166667
12
0.000000
22
0.000000
13
0.000000
23
0.000000
0
ENDBLK
5
64
100
AcDbEntity
8
0
100
AcDbBlockEnd
0
BLOCK
5
65
100
AcDbEntity
8
0
100
AcDbBlockBegin
2
HALF_R
70
0
10
0.0
20
0.0
30
0.0
3
HALF_R
1

0
SOLID
5
66
100
AcDbEntity
8
0
6
BYBLOCK
62
0
100
AcDbTrace
10
-1.000000
20
-0.166667
11
-1.000000
21
0.000000
12
0.000000
22
0.000000
13
0.000000
23
0.000000
0
ENDBLK
5
67
100
AcDbEntity
8
0
100
AcDbBlockEnd
0
ENDSEC
0
SECTION
2
ENTITIES
0
POLYLINE
5
68
100
AcDbEntity
8
1
6
CONTINUOUS
62
5
100
AcDb2dPolyline
66
1
10
0.0
20
0.0
30
0.0
70
0
0
VERTEX
5
69
100
AcDbEntity
8
1
100
AcDbVertex
100
AcDb2dVertex
62
5
10
216.500000
20
337.750000
0
VERTEX
5
6a
100
AcDbEntity
8
1
100
AcDbVertex
100
AcDb2dVertex
62
5
10
221.250000
20
337.750000
0
VERTEX
5
6b
100
AcDbEntity
8
1
100
AcDbVertex
100
AcDb2dVertex
62
5
10
218.750000
20
335.875000
0
VERTEX
5
6c
100
AcDbEntity
8
1
100
AcDbVertex
100
AcDb2dVertex
62
5
10
218.750000
20
329.625000
0
VERTEX
5
6d
100
AcDbEntity
8
1
100
AcDbVertex
100
AcDb2dVertex
62
5
10
217.750000
20
329.937500
0
SEQEND
5
6e
100
AcDbEntity
8
1
0
LINE
5
6f
100
AcDbEntity
8
1
100
AcDbLine
6
CONTINUOUS
62
5
10
215.250000
20
334.000000
11
222.250000
21
334.000000
0
LINE
5
70
100
AcDbEntity
8
1
100
AcDbLine
6
CONTINUOUS
62
5
10
223.500000
20
337.750000
11
227.000000
21
337.750000
0
LINE
5
71
100
AcDbEntity
8
1
100
AcDbLine
6
CONTINUOUS
62
5
10
223.250000
20
334.625000
11
227.500000
21
334.625000
0
POLYLINE
5
72
100
AcDbEntity
8
1
6
CONTINUOUS
62
5
100
AcDb2dPolyline
66
1
10
0.0
20
0.0
30
0.0
70
0
0
VERTEX
5
73
100
AcDbEntity
8
1
100
AcDbVertex
100
AcDb2dVertex
62
5
10
224.500000
20
337.750000
0
VERTEX
5
74
100
AcDbEntity
8
1
100
AcDbVertex
100
AcDb2dVertex
62
5
10
224.500000
20
333.375000
0
VERTEX
5
75
100
AcDbEntity
8
1
100
AcDbVertex
100
AcDb2dVertex
62
5
10
224.250000
20
331.187500
0
VERTEX
5
76
100
AcDbEntity
8
1
100
AcDbVertex
100
AcDb2dVertex
62
5
10
223.500000
20
329.312500
0
SEQEND
5
77
100
AcDbEntity
8
1
0
LINE
5
78
100
AcDbEntity
8
1
100
AcDbLine
6
CONTINUOUS
62
5
10
226.000000
20
337.750000
11
226.000000
21
329.312500
0
POLYLINE
5
79
100
AcDbEntity
8
1
6
CONTINUOUS
62
5
100
AcDb2dPolyline
66
1
10
0.0
20
0.0
30
0.0
70
0
0
VERTEX
5
7a
100
AcDbEntity
8
1
100
AcDbVertex
100
AcDb2dVertex
62
5
10
229.750000
20
338.062500
0
VERTEX
5
7b
100
AcDbEntity
8
1
100
AcDbVertex
100
AcDb2dVertex
62
5
10
228.250000
20
336.500000
0
VERTEX
5
7c
100
AcDbEntity
8
1
100
AcDbVertex
100
AcDb2dVertex
62
5
10
227.000000
20
335.562500
0
SEQEND
5
7d
100
AcDbEntity
8
1
0
POLYLINE
5
7e
100
AcDbEntity
8
1
6
CONTINUOUS
62
5
100
AcDb2dPolyline
66
1
10
0.0
20
0.0
30
0.0
70
0
0
VERTEX
5
7f
100
AcDbEntity
8
1
100
AcDbVertex
100
AcDb2dVertex
62
5
10
230.000000
20
335.562500
0
VERTEX
5
80
100
AcDbEntity
8
1
100
AcDbVertex
100
AcDb2dVertex
62
5
10
229.000000
20
334.312500
0
VERTEX
5
81
100
AcDbEntity
8
1
100
AcDbVertex
100
AcDb2dVertex
62
5
10
228.250000
20
333.687500
0
VERTEX
5
82
100
AcDbEntity
8
1
100
AcDbVertex
100
AcDb2dVertex
62
5
10
227.500000
20
333.062500
0
SEQEND
5
83
100
AcDbEntity
8
1
0
POLYLINE
5
84
100
AcDbEntity
8
1
6
CONTINUOUS
62
5
100
AcDb2dPolyline
66
1
10
0.0
20
0.0
30
0.0
70
0
0
VERTEX
5
85
100
AcDbEntity
8
1
100
AcDbVertex
100
AcDb2dVertex
62
5
10
230.250000
20
332.750000
0
VERTEX
5
86
100
AcDbEntity
8
1
100
AcDbVertex
100
AcDb2dVertex
62
5
10
229.500000
20
331.812500
0
VERTEX
5
87
100
AcDbEntity
8
1
100
AcDbVertex
100
AcDb2dVertex
62
5
10
228.750000
20
330.875000
0
VERTEX
5
88
100
AcDbEntity
8
1
100
AcDbVertex
100
AcDb2dVertex
62
5
10
227.250000
20
329.625000
0
SEQEND
5
89
100
AcDbEntity
8
1
0
POLYLINE
5
8a
100
AcDbEntity
8
1
6
CONTINUOUS
62
5
100
AcDb2dPolyline
66
1
10
0.0
20
0.0
30
0.0
70
0
0
VERTEX
5
8b
100
AcDbEntity
8
1
100
AcDbVertex
100
AcDb2dVertex
62
5
10
172.750000
20
336.500000
0
VERTEX
5
8c
100
AcDbEntity
8
1
100
AcDbVertex
100
AcDb2dVertex
62
5
10
172.750000
20
331.187500
0
VERTEX
5
8d
100
AcDbEntity
8
1
100
AcDbVertex
100
AcDb2dVertex
62
5
10
173.250000
20
330.562500
0
VERTEX
5
8e
100
AcDbEntity
8
1
100
AcDbVertex
100
AcDb2dVertex
62
5
10
177.000000
20
330.562500
0
SEQEND
5
8f
100
AcDbEntity
8
1
0
LINE
5
90
100
AcDbEntity
8
1
100
AcDbLine
6
CONTINUOUS
62
5
10
176.000000
20
334.625000
11
172.750000
21
333.687500
0
LINE
5
91
100
AcDbEntity
8
1
100
AcDbLine
6
CONTINUOUS
62
5
10
176.250000
20
336.187500
11
177.000000
21
335.250000
0
LINE
5
92
100
AcDbEntity
8
1
100
AcDbLine
6
CONTINUOUS
62
5
10
177.000000
20
337.125000
11
177.750000
21
336.187500
0
LINE
5
93
100
AcDbEntity
8
1
100
AcDbLine
6
CONTINUOUS
62
5
10
181.000000
20
337.437500
11
181.000000
21
335.875000
0
LINE
5
94
100
AcDbEntity
8
1
100
AcDbLine
6
CONTINUOUS
62
5
10
179.750000
20
335.875000
11
182.000000
21
335.875000
0
POLYLINE
5
95
100
AcDbEntity
8
1
6
CONTINUOUS
62
5
100
AcDb2dPolyline
66
1
10
0.0
20
0.0
30
0.0
70
0
0
VERTEX
5
96
100
AcDbEntity
8
1
100
AcDbVertex
100
AcDb2dVertex
62
5
10
180.000000
20
334.625000
0
VERTEX
5
97
100
AcDbEntity
8
1
100
AcDbVertex
100
AcDb2dVertex
62
5
10
180.250000
20
333.687500
0
VERTEX
5
98
100
AcDbEntity
8
1
100
AcDbVertex
100
AcDb2dVertex
62
5
10
180.500000
20
332.125000
0
SEQEND
5
99
100
AcDbEntity
8
1
0
LINE
5
9a
100
AcDbEntity
8
1
100
AcDbLine
6
CONTINUOUS
62
5
10
181.500000
20
335.250000
11
181.000000
21
331.812500
0
LINE
5
9b
100
AcDbEntity
8
1
100
AcDbLine
6
CONTINUOUS
62
5
10
179.500000
20
331.187500
11
182.000000
21
332.125000
0
POLYLINE
5
9c
100
AcDbEntity
8
1
6
CONTINUOUS
62
5
100
AcDb2dPolyline
66
1
10
0.0
20
0.0
30
0.0
70
0
0
VERTEX
5
9d
100
AcDbEntity
8
1
100
AcDbVertex
100
AcDb2dVertex
62
5
10
182.500000
20
337.437500
0
VERTEX
5
9e
100
AcDbEntity
8
1
100
AcDbVertex
100
AcDb2dVertex
62
5
10
182.500000
20
335.562500
0
VERTEX
5
9f
100
AcDbEntity
8
1
100
AcDbVertex
100
AcDb2dVertex
62
5
10
186.000000
20
335.562500
0
VERTEX
5
a0
100
AcDbEntity
8
1
100
AcDbVertex
100
AcDb2dVertex
62
5
10
186.000000
20
337.437500
0
SEQEND
5
a1
100
AcDbEntity
8
1
0
LINE
5
a2
100
AcDbEntity
8
1
100
AcDbLine
6
CONTINUOUS
62
5
10
184.250000
20
338.062500
11
184.250000
21
335.562500
0
LINE
5
a3
100
AcDbEntity
8
1
100
AcDbLine
6
CONTINUOUS
62
5
10
182.250000
20
334.625000
11
186.500000
21
334.625000
0
LINE
5
a4
100
AcDbEntity
8
1
100
AcDbLine
6
CONTINUOUS
62
5
10
184.250000
20
334.625000
11
183.250000
21
333.375000
0
POLYLINE
5
a5
100
AcDbEntity
8
1
6
CONTINUOUS
62
5
100
AcDb2dPolyline
66
1
10
0.0
20
0.0
30
0.0
70
0
0
VERTEX
5
a6
100
AcDbEntity
8
1
100
AcDbVertex
100
AcDb2dVertex
62
5
10
182.500000
20
329.937500
0
VERTEX
5
a7
100
AcDbEntity
8
1
100
AcDbVertex
100
AcDb2dVertex
62
5
10
182.500000
20
333.375000
0
VERTEX
5
a8
100
AcDbEntity
8
1
100
AcDbVertex
100
AcDb2dVertex
62
5
10
186.250000
20
333.375000
0
VERTEX
5
a9
100
AcDbEntity
8
1
100
AcDbVertex
100
AcDb2dVertex
62
5
10
186.250000
20
329.937500
0
VERTEX
5
aa
100
AcDbEntity
8
1
100
AcDbVertex
100
AcDb2dVertex
62
5
10
186.000000
20
329.937500
0
SEQEND
5
ab
100
AcDbEntity
8
1
0
LINE
5
ac
100
AcDbEntity
8
1
100
AcDbLine
6
CONTINUOUS
62
5
10
183.750000
20
333.375000
11
183.750000
21
329.937500
0
LINE
5
ad
100
AcDbEntity
8
1
100
AcDbLine
6
CONTINUOUS
62
5
10
185.000000
20
333.375000
11
185.000000
21
329.937500
0
POLYLINE
5
ae
100
AcDbEntity
8
1
6
CONTINUOUS
62
5
100
AcDb2dPolyline
66
1
10
0.0
20
0.0
30
0.0
70
0
0
VERTEX
5
af
100
AcDbEntity
8
1
100
AcDbVertex
100
AcDb2dVertex
62
5
10
188.500000
20
337.750000
0
VERTEX
5
b0
100
AcDbEntity
8
1
100
AcDbVertex
100
AcDb2dVertex
62
5
10
193.250000
20
337.750000
0
VERTEX
5
b1
100
AcDbEntity
8
1
100
AcDbVertex
100
AcDb2dVertex
62
5
10
190.750000
20
335.875000
0
VERTEX
5
b2
100
AcDbEntity
8
1
100
AcDbVertex
100
AcDb2dVertex
62
5
10
190.750000
20
329.625000
0
VERTEX
5
b3
100
AcDbEntity
8
1
100
AcDbVertex
100
AcDb2dVertex
62
5
10
189.750000
20
329.937500
0
SEQEND
5
b4
100
AcDbEntity
8
1
0
LINE
5
b5
100
AcDbEntity
8
1
100
AcDbLine
6
CONTINUOUS
62
5
10
187.250000
20
334.000000
11
194.250000
21
334.000000
0
POLYLINE
5
b6
100
AcDbEntity
8
1
6
CONTINUOUS
62
5
100
AcDb2dPolyline
66
1
10
0.0
20
0.0
30
0.0
70
0
0
VERTEX
5
b7
100
AcDbEntity
8
1
100
AcDbVertex
100
AcDb2dVertex
62
5
10
204.000000
20
335.562500
0
VERTEX
5
b8
100
AcDbEntity
8
1
100
AcDbVertex
100
AcDb2dVertex
62
5
10
204.250000
20
337.125000
0
VERTEX
5
b9
100
AcDbEntity
8
1
100
AcDbVertex
100
AcDb2dVertex
62
5
10
205.000000
20
337.750000
0
VERTEX
5
ba
100
AcDbEntity
8
1
100
AcDbVertex
100
AcDb2dVertex
62
5
10
205.750000
20
337.750000
0
VERTEX
5
bb
100
AcDbEntity
8
1
100
AcDbVertex
100
AcDb2dVertex
62
5
10
206.250000
20
337.437500
0
VERTEX
5
bc
100
AcDbEntity
8
1
100
AcDbVertex
100
AcDb2dVertex
62
5
10
206.500000
20
336.500000
0
VERTEX
5
bd
100
AcDbEntity
8
1
100
AcDbVertex
100
AcDb2dVertex
62
5
10
206.500000
20
335.562500
0
VERTEX
5
be
100
AcDbEntity
8
1
100
AcDbVertex
100
AcDb2dVertex
62
5
10
206.250000
20
334.625000
0
VERTEX
5
bf
100
AcDbEntity
8
1
100
AcDbVertex
100
AcDb2dVertex
62
5
10
204.000000
20
330.250000
0
VERTEX
5
c0
100
AcDbEntity
8
1
100
AcDbVertex
100
AcDb2dVertex
62
5
10
206.500000
20
330.250000
0
VERTEX
5
c1
100
AcDbEntity
8
1
100
AcDbVertex
100
AcDb2dVertex
62
5
10
206.500000
20
331.187500
0
SEQEND
5
c2
100
AcDbEntity
8
1
0
LINE
5
c3
100
AcDbEntity
8
1
100
AcDbLine
6
CONTINUOUS
62
5
10
209.000000
20
337.437500
11
209.000000
21
335.875000
0
LINE
5
c4
100
AcDbEntity
8
1
100
AcDbLine
6
CONTINUOUS
62
5
10
207.750000
20
335.875000
11
210.000000
21
335.875000
0
POLYLINE
5
c5
100
AcDbEntity
8
1
6
CONTINUOUS
62
5
100
AcDb2dPolyline
66
1
10
0.0
20
0.0
30
0.0
70
0
0
VERTEX
5
c6
100
AcDbEntity
8
1
100
AcDbVertex
100
AcDb2dVertex
62
5
10
208.000000
20
334.625000
0
VERTEX
5
c7
100
AcDbEntity
8
1
100
AcDbVertex
100
AcDb2dVertex
62
5
10
208.250000
20
333.687500
0
VERTEX
5
c8
100
AcDbEntity
8
1
100
AcDbVertex
100
AcDb2dVertex
62
5
10
208.500000
20
332.125000
0
SEQEND
5
c9
100
AcDbEntity
8
1
0
LINE
5
ca
100
AcDbEntity
8
1
100
AcDbLine
6
CONTINUOUS
62
5
10
209.500000
20
335.250000
11
209.000000
21
331.812500
0
LINE
5
cb
100
AcDbEntity
8
1
100
AcDbLine
6
CONTINUOUS
62
5
10
207.500000
20
331.187500
11
210.000000
21
332.125000
0
POLYLINE
5
cc
100
AcDbEntity
8
1
6
CONTINUOUS
62
5
100
AcDb2dPolyline
66
1
10
0.0
20
0.0
30
0.0
70
0
0
VERTEX
5
cd
100
AcDbEntity
8
1
100
AcDbVertex
100
AcDb2dVertex
62
5
10
210.500000
20
337.437500
0
VERTEX
5
ce
100
AcDbEntity
8
1
100
AcDbVertex
100
AcDb2dVertex
62
5
10
210.500000
20
335.562500
0
VERTEX
5
cf
100
AcDbEntity
8
1
100
AcDbVertex
100
AcDb2dVertex
62
5
10
214.000000
20
335.562500
0
VERTEX
5
d0
100
AcDbEntity
8
1
100
AcDbVertex
100
AcDb2dVertex
62
5
10
214.000000
20
337.437500
0
SEQEND
5
d1
100
AcDbEntity
8
1
0
LINE
5
d2
100
AcDbEntity
8
1
100
AcDbLine
6
CONTINUOUS
62
5
10
212.250000
20
338.062500
11
212.250000
21
335.562500
0
LINE
5
d3
100
AcDbEntity
8
1
100
AcDbLine
6
CONTINUOUS
62
5
10
210.250000
20
334.625000
11
214.500000
21
334.625000
0
LINE
5
d4
100
AcDbEntity
8
1
100
AcDbLine
6
CONTINUOUS
62
5
10
212.250000
20
334.625000
11
211.250000
21
333.375000
0
POLYLINE
5
d5
100
AcDbEntity
8
1
6
CONTINUOUS
62
5
100
AcDb2dPolyline
66
1
10
0.0
20
0.0
30
0.0
70
0
0
VERTEX
5
d6
100
AcDbEntity
8
1
100
AcDbVertex
100
AcDb2dVertex
62
5
10
210.500000
20
329.937500
0
VERTEX
5
d7
100
AcDbEntity
8
1
100
AcDbVertex
100
AcDb2dVertex
62
5
10
210.500000
20
333.375000
0
VERTEX
5
d8
100
AcDbEntity
8
1
100
AcDbVertex
100
AcDb2dVertex
62
5
10
214.250000
20
333.375000
0
VERTEX
5
d9
100
AcDbEntity
8
1
100
AcDbVertex
100
AcDb2dVertex
62
5
10
214.250000
20
329.937500
0
VERTEX
5
da
100
AcDbEntity
8
1
100
AcDbVertex
100
AcDb2dVertex
62
5
10
214.000000
20
329.937500
0
SEQEND
5
db
100
AcDbEntity
8
1
0
LINE
5
dc
100
AcDbEntity
8
1
100
AcDbLine
6
CONTINUOUS
62
5
10
211.750000
20
333.375000
11
211.750000
21
329.937500
0
LINE
5
dd
100
AcDbEntity
8
1
100
AcDbLine
6
CONTINUOUS
62
5
10
213.000000
20
333.375000
11
213.000000
21
329.937500
0
LINE
5
de
100
AcDbEntity
8
1
100
AcDbLine
6
CONTINUOUS
62
5
10
234.455879
20
190.002957
11
234.455884
21
190.002957
0
ARC
5
df
100
AcDbEntity
8
1
100
AcDbCircle
6
CONTINUOUS
62
5
10
233.598481
20
189.241187
40
0.423048
100
AcDbArc
50
55.738283
51
55.738290
0
LINE
5
e0
100
AcDbEntity
8
1
100
AcDbLine
6
CONTINUOUS
62
5
10
210.349999
20
188.500017
11
209.550000
21
188.500017
0
LINE
5
e1
100
AcDbEntity
8
1
100
AcDbLine
6
CONTINUOUS
62
5
10
210.349999
20
188.500017
11
209.550000
21
188.500017
0
LINE
5
e2
100
AcDbEntity
8
1
100
AcDbLine
6
CONTINUOUS
62
5
10
210.349999
20
187.650019
11
210.349999
21
188.500019
0
LINE
5
e3
100
AcDbEntity
8
1
100
AcDbLine
6
CONTINUOUS
62
5
10
210.349999
20
187.650019
11
210.349999
21
188.500019
0
LINE
5
e4
100
AcDbEntity
8
1
100
AcDbLine
6
CONTINUOUS
62
5
10
211.549999
20
187.650017
11
210.349999
21
187.650017
0
LINE
5
e5
100
AcDbEntity
8
1
100
AcDbLine
6
CONTINUOUS
62
5
10
209.550000
20
186.650018
11
209.549999
21
186.650018
0
LINE
5
e6
100
AcDbEntity
8
1
100
AcDbLine
6
CONTINUOUS
62
5
10
210.350000
20
191.300017
11
210.349999
21
191.300017
0
LINE
5
e7
100
AcDbEntity
8
1
100
AcDbLine
6
CONTINUOUS
62
5
10
210.349999
20
191.300021
11
210.349999
21
191.300021
0
LINE
5
e8
100
AcDbEntity
8
1
100
AcDbLine
6
CONTINUOUS
62
5
10
210.349999
20
191.300021
11
210.349999
21
191.300021
0
LINE
5
e9
100
AcDbEntity
8
1
100
AcDbLine
6
CONTINUOUS
62
5
10
209.550000
20
191.300017
11
210.349999
21
191.300021
0
LINE
5
ea
100
AcDbEntity
8
1
100
AcDbLine
6
CONTINUOUS
62
5
10
209.550000
20
191.300017
11
210.349999
21
191.300017
0
POLYLINE
5
eb
100
AcDbEntity
8
1
6
CONTINUOUS
62
5
100
AcDb2dPolyline
66
1
10
0.0
20
0.0
30
0.0
70
0
0
VERTEX
5
ec
100
AcDbEntity
8
1
100
AcDbVertex
100
AcDb2dVertex
62
5
10
210.349999
20
193.650017
0
VERTEX
5
ed
100
AcDbEntity
8
1
100
AcDbVertex
100
AcDb2dVertex
62
5
10
210.349999
20
187.650019
0
VERTEX
5
ee
100
AcDbEntity
8
1
100
AcDbVertex
100
AcDb2dVertex
62
5
10
211.549999
20
187.650017
0
SEQEND
5
ef
100
AcDbEntity
8
1
0
LINE
5
f0
100
AcDbEntity
8
1
100
AcDbLine
6
CONTINUOUS
62
5
10
210.349999
20
191.300021
11
210.349999
21
193.650016
0
LINE
5
f1
100
AcDbEntity
8
1
100
AcDbLine
6
CONTINUOUS
62
5
10
210.349999
20
191.300021
11
210.349999
21
193.650016
0
LINE
5
f2
100
AcDbEntity
8
1
100
AcDbLine
6
CONTINUOUS
62
5
10
208.049999
20
186.650017
11
208.050000
21
186.650017
0
LINE
5
f3
100
AcDbEntity
8
1
100
AcDbLine
6
CONTINUOUS
62
5
10
208.049999
20
186.600001
11
208.050000
21
186.600001
0
POLYLINE
5
f4
100
AcDbEntity
8
1
6
CONTINUOUS
62
5
100
AcDb2dPolyline
66
1
10
0.0
20
0.0
30
0.0
70
0
0
VERTEX
5
f5
100
AcDbEntity
8
1
100
AcDbVertex
100
AcDb2dVertex
62
5
10
201.550000
20
193.186147
0
VERTEX
5
f6
100
AcDbEntity
8
1
100
AcDbVertex
100
AcDb2dVertex
62
5
10
201.250000
20
193.186130
0
VERTEX
5
f7
100
AcDbEntity
8
1
100
AcDbVertex
100
AcDb2dVertex
62
5
10
201.250000
20
190.609323
0
VERTEX
5
f8
100
AcDbEntity
8
1
100
AcDbVertex
100
AcDb2dVertex
62
5
10
201.550000
20
190.609323
0
SEQEND
5
f9
100
AcDbEntity
8
1
0
ARC
5
fa
100
AcDbEntity
8
1
100
AcDbCircle
6
CONTINUOUS
62
5
10
203.500000
20
187.111219
40
0.250000
100
AcDbArc
50
93.000006
51
-179.999998
0
LINE
5
fb
100
AcDbEntity
8
1
100
AcDbLine
6
CONTINUOUS
62
5
10
203.250000
20
187.111219
11
203.250000
21
187.088816
0
ARC
5
fc
100
AcDbEntity
8
1
100
AcDbCircle
6
CONTINUOUS
62
5
10
203.500000
20
187.088816
40
0.250000
100
AcDbArc
50
179.999998
51
-92.999992
0
LINE
5
fd
100
AcDbEntity
8
1
100
AcDbLine
6
CONTINUOUS
62
5
10
203.486916
20
186.839159
11
206.550000
21
186.678630
0
LINE
5
fe
100
AcDbEntity
8
1
100
AcDbLine
6
CONTINUOUS
62
5
10
206.549999
20
187.521406
11
203.486916
21
187.360876
0
LINE
5
ff
100
AcDbEntity
8
1
100
AcDbLine
6
CONTINUOUS
62
5
10
201.550000
20
195.369026
11
201.550000
21
221.500000
0
POLYLINE
5
100
100
AcDbEntity
8
1
6
CONTINUOUS
62
5
100
AcDb2dPolyline
66
1
10
0.0
20
0.0
30
0.0
70
0
0
VERTEX
5
101
100
AcDbEntity
8
1
100
AcDbVertex
100
AcDb2dVertex
62
5
10
185.300000
20
219.500000
0
VERTEX
5
102
100
AcDbEntity
8
1
100
AcDbVertex
100
AcDb2dVertex
62
5
10
201.550000
20
219.500000
0
VERTEX
5
103
100
AcDbEntity
8
1
100
AcDbVertex
100
AcDb2dVertex
62
5
10
195.550000
20
218.500000
0
VERTEX
5
104
100
AcDbEntity
8
1
100
AcDbVertex
100
AcDb2dVertex
62
5
10
195.550000
20
220.500000
0
VERTEX
5
105
100
AcDbEntity
8
1
100
AcDbVertex
100
AcDb2dVertex
62
5
10
201.550000
20
219.500000
0
VERTEX
5
106
100
AcDbEntity
8
1
100
AcDbVertex
100
AcDb2dVertex
62
5
10
195.550000
20
219.000000
0
VERTEX
5
107
100
AcDbEntity
8
1
100
AcDbVertex
100
AcDb2dVertex
62
5
10
195.550000
20
220.000000
0
VERTEX
5
108
100
AcDbEntity
8
1
100
AcDbVertex
100
AcDb2dVertex
62
5
10
201.550000
20
219.500000
0
SEQEND
5
109
100
AcDbEntity
8
1
0
LINE
5
10a
100
AcDbEntity
8
1
100
AcDbLine
6
CONTINUOUS
62
5
10
201.550000
20
219.500000
11
209.550000
21
219.500000
0
LINE
5
10b
100
AcDbEntity
8
1
100
AcDbLine
6
CONTINUOUS
62
5
10
212.550000
20
219.500000
11
209.550000
21
219.500000
0
POLYLINE
5
10c
100
AcDbEntity
8
1
6
DOT2
62
5
100
AcDb2dPolyline
66
1
10
0.0
20
0.0
30
0.0
70
0
0
VERTEX
5
10d
100
AcDbEntity
8
1
100
AcDbVertex
100
AcDb2dVertex
62
5
10
248.799998
20
226.062500
0
VERTEX
5
10e
100
AcDbEntity
8
1
100
AcDbVertex
100
AcDb2dVertex
62
5
10
249.112498
20
227.625000
0
VERTEX
5
10f
100
AcDbEntity
8
1
100
AcDbVertex
100
AcDb2dVertex
62
5
10
250.049998
20
228.250000
0
VERTEX
5
110
100
AcDbEntity
8
1
100
AcDbVertex
100
AcDb2dVertex
62
5
10
250.987498
20
228.250000
0
VERTEX
5
111
100
AcDbEntity
8
1
100
AcDbVertex
100
AcDb2dVertex
62
5
10
251.612498
20
227.937500
0
VERTEX
5
112
100
AcDbEntity
8
1
100
AcDbVertex
100
AcDb2dVertex
62
5
10
251.924998
20
227.000000
0
VERTEX
5
113
100
AcDbEntity
8
1
100
AcDbVertex
100
AcDb2dVertex
62
5
10
251.924998
20
226.062500
0
VERTEX
5
114
100
AcDbEntity
8
1
100
AcDbVertex
100
AcDb2dVertex
62
5
10
251.612498
20
225.125000
0
VERTEX
5
115
100
AcDbEntity
8
1
100
AcDbVertex
100
AcDb2dVertex
62
5
10
248.799998
20
220.750000
0
VERTEX
5
116
100
AcDbEntity
8
1
100
AcDbVertex
100
AcDb2dVertex
62
5
10
251.924998
20
220.750000
0
VERTEX
5
117
100
AcDbEntity
8
1
100
AcDbVertex
100
AcDb2dVertex
62
5
10
251.924998
20
221.687500
0
SEQEND
5
118
100
AcDbEntity
8
1
0
POLYLINE
5
119
100
AcDbEntity
8
1
6
DOT2
62
5
100
AcDb2dPolyline
66
1
10
0.0
20
0.0
30
0.0
70
1
0
VERTEX
5
11a
100
AcDbEntity
8
1
100
AcDbVertex
100
AcDb2dVertex
62
5
10
189.050000
20
228.250000
0
VERTEX
5
11b
100
AcDbEntity
8
1
100
AcDbVertex
100
AcDb2dVertex
62
5
10
189.675000
20
228.250000
0
VERTEX
5
11c
100
AcDbEntity
8
1
100
AcDbVertex
100
AcDb2dVertex
62
5
10
190.300000
20
227.937500
0
VERTEX
5
11d
100
AcDbEntity
8
1
100
AcDbVertex
100
AcDb2dVertex
62
5
10
190.612500
20
227.312500
0
VERTEX
5
11e
100
AcDbEntity
8
1
100
AcDbVertex
100
AcDb2dVertex
62
5
10
190.612500
20
226.062500
0
VERTEX
5
11f
100
AcDbEntity
8
1
100
AcDbVertex
100
AcDb2dVertex
62
5
10
190.300000
20
225.437500
0
VERTEX
5
120
100
AcDbEntity
8
1
100
AcDbVertex
100
AcDb2dVertex
62
5
10
188.425000
20
224.187500
0
VERTEX
5
121
100
AcDbEntity
8
1
100
AcDbVertex
100
AcDb2dVertex
62
5
10
187.800000
20
223.250000
0
VERTEX
5
122
100
AcDbEntity
8
1
100
AcDbVertex
100
AcDb2dVertex
62
5
10
187.800000
20
222.000000
0
VERTEX
5
123
100
AcDbEntity
8
1
100
AcDbVertex
100
AcDb2dVertex
62
5
10
188.112500
20
221.375000
0
VERTEX
5
124
100
AcDbEntity
8
1
100
AcDbVertex
100
AcDb2dVertex
62
5
10
188.425000
20
221.062500
0
VERTEX
5
125
100
AcDbEntity
8
1
100
AcDbVertex
100
AcDb2dVertex
62
5
10
189.050000
20
220.750000
0
VERTEX
5
126
100
AcDbEntity
8
1
100
AcDbVertex
100
AcDb2dVertex
62
5
10
189.675000
20
220.750000
0
VERTEX
5
127
100
AcDbEntity
8
1
100
AcDbVertex
100
AcDb2dVertex
62
5
10
190.300000
20
221.062500
0
VERTEX
5
128
100
AcDbEntity
8
1
100
AcDbVertex
100
AcDb2dVertex
62
5
10
190.612500
20
221.375000
0
VERTEX
5
129
100
AcDbEntity
8
1
100
AcDbVertex
100
AcDb2dVertex
62
5
10
190.925000
20
222.000000
0
VERTEX
5
12a
100
AcDbEntity
8
1
100
AcDbVertex
100
AcDb2dVertex
62
5
10
190.925000
20
223.250000
0
VERTEX
5
12b
100
AcDbEntity
8
1
100
AcDbVertex
100
AcDb2dVertex
62
5
10
190.300000
20
224.187500
0
VERTEX
5
12c
100
AcDbEntity
8
1
100
AcDbVertex
100
AcDb2dVertex
62
5
10
188.425000
20
225.437500
0
VERTEX
5
12d
100
AcDbEntity
8
1
100
AcDbVertex
100
AcDb2dVertex
62
5
10
188.112500
20
226.062500
0
VERTEX
5
12e
100
AcDbEntity
8
1
100
AcDbVertex
100
AcDb2dVertex
62
5
10
188.112500
20
227.312500
0
VERTEX
5
12f
100
AcDbEntity
8
1
100
AcDbVertex
100
AcDb2dVertex
62
5
10
188.425000
20
227.937500
0
VERTEX
5
130
100
AcDbEntity
8
1
100
AcDbVertex
100
AcDb2dVertex
62
5
10
189.050000
20
228.250000
0
SEQEND
5
131
100
AcDbEntity
8
1
0
POLYLINE
5
132
100
AcDbEntity
8
1
6
DOT2
62
5
100
AcDb2dPolyline
66
1
10
0.0
20
0.0
30
0.0
70
1
0
VERTEX
5
133
100
AcDbEntity
8
1
100
AcDbVertex
100
AcDb2dVertex
62
5
10
255.049998
20
228.250000
0
VERTEX
5
134
100
AcDbEntity
8
1
100
AcDbVertex
100
AcDb2dVertex
62
5
10
255.674998
20
228.250000
0
VERTEX
5
135
100
AcDbEntity
8
1
100
AcDbVertex
100
AcDb2dVertex
62
5
10
256.299998
20
227.937500
0
VERTEX
5
136
100
AcDbEntity
8
1
100
AcDbVertex
100
AcDb2dVertex
62
5
10
256.612498
20
227.312500
0
VERTEX
5
137
100
AcDbEntity
8
1
100
AcDbVertex
100
AcDb2dVertex
62
5
10
256.612498
20
226.062500
0
VERTEX
5
138
100
AcDbEntity
8
1
100
AcDbVertex
100
AcDb2dVertex
62
5
10
256.299998
20
225.437500
0
VERTEX
5
139
100
AcDbEntity
8
1
100
AcDbVertex
100
AcDb2dVertex
62
5
10
254.424998
20
224.187500
0
VERTEX
5
13a
100
AcDbEntity
8
1
100
AcDbVertex
100
AcDb2dVertex
62
5
10
253.799998
20
223.250000
0
VERTEX
5
13b
100
AcDbEntity
8
1
100
AcDbVertex
100
AcDb2dVertex
62
5
10
253.799998
20
222.000000
0
VERTEX
5
13c
100
AcDbEntity
8
1
100
AcDbVertex
100
AcDb2dVertex
62
5
10
254.112498
20
221.375000
0
VERTEX
5
13d
100
AcDbEntity
8
1
100
AcDbVertex
100
AcDb2dVertex
62
5
10
254.424998
20
221.062500
0
VERTEX
5
13e
100
AcDbEntity
8
1
100
AcDbVertex
100
AcDb2dVertex
62
5
10
255.049998
20
220.750000
0
VERTEX
5
13f
100
AcDbEntity
8
1
100
AcDbVertex
100
AcDb2dVertex
62
5
10
255.674998
20
220.750000
0
VERTEX
5
140
100
AcDbEntity
8
1
100
AcDbVertex
100
AcDb2dVertex
62
5
10
256.299998
20
221.062500
0
VERTEX
5
141
100
AcDbEntity
8
1
100
AcDbVertex
100
AcDb2dVertex
62
5
10
256.612498
20
221.375000
0
VERTEX
5
142
100
AcDbEntity
8
1
100
AcDbVertex
100
AcDb2dVertex
62
5
10
256.924998
20
222.000000
0
VERTEX
5
143
100
AcDbEntity
8
1
100
AcDbVertex
100
AcDb2dVertex
62
5
10
256.924998
20
223.250000
0
VERTEX
5
144
100
AcDbEntity
8
1
100
AcDbVertex
100
AcDb2dVertex
62
5
10
256.299998
20
224.187500
0
VERTEX
5
145
100
AcDbEntity
8
1
100
AcDbVertex
100
AcDb2dVertex
62
5
10
254.424998
20
225.437500
0
VERTEX
5
146
100
AcDbEntity
8
1
100
AcDbVertex
100
AcDb2dVertex
62
5
10
254.112498
20
226.062500
0
VERTEX
5
147
100
AcDbEntity
8
1
100
AcDbVertex
100
AcDb2dVertex
62
5
10
254.112498
20
227.312500
0
VERTEX
5
148
100
AcDbEntity
8
1
100
AcDbVertex
100
AcDb2dVertex
62
5
10
254.424998
20
227.937500
0
VERTEX
5
149
100
AcDbEntity
8
1
100
AcDbVertex
100
AcDb2dVertex
62
5
10
255.049998
20
228.250000
0
SEQEND
5
14a
100
AcDbEntity
8
1
0
LINE
5
14b
100
AcDbEntity
8
1
100
AcDbLine
6
CONTINUOUS
62
5
10
209.550000
20
196.000000
11
209.550000
21
221.500000
0
LINE
5
14c
100
AcDbEntity
8
1
100
AcDbLine
6
CONTINUOUS
62
5
10
237.549998
20
190.900017
11
237.549998
21
221.500000
0
POLYLINE
5
14d
100
AcDbEntity
8
1
6
CONTINUOUS
62
5
100
AcDb2dPolyline
66
1
10
0.0
20
0.0
30
0.0
70
0
0
VERTEX
5
14e
100
AcDbEntity
8
1
100
AcDbVertex
100
AcDb2dVertex
62
5
10
258.799998
20
219.500000
0
VERTEX
5
14f
100
AcDbEntity
8
1
100
AcDbVertex
100
AcDb2dVertex
62
5
10
237.549998
20
219.500000
0
VERTEX
5
150
100
AcDbEntity
8
1
100
AcDbVertex
100
AcDb2dVertex
62
5
10
243.549998
20
220.500000
0
VERTEX
5
151
100
AcDbEntity
8
1
100
AcDbVertex
100
AcDb2dVertex
62
5
10
243.549998
20
218.500000
0
VERTEX
5
152
100
AcDbEntity
8
1
100
AcDbVertex
100
AcDb2dVertex
62
5
10
237.549998
20
219.500000
0
VERTEX
5
153
100
AcDbEntity
8
1
100
AcDbVertex
100
AcDb2dVertex
62
5
10
243.549998
20
220.000000
0
VERTEX
5
154
100
AcDbEntity
8
1
100
AcDbVertex
100
AcDb2dVertex
62
5
10
243.549998
20
219.000000
0
VERTEX
5
155
100
AcDbEntity
8
1
100
AcDbVertex
100
AcDb2dVertex
62
5
10
237.549998
20
219.500000
0
SEQEND
5
156
100
AcDbEntity
8
1
0
LINE
5
157
100
AcDbEntity
8
1
100
AcDbLine
6
CONTINUOUS
62
5
10
237.549998
20
219.500000
11
209.550000
21
219.500000
0
LINE
5
158
100
AcDbEntity
8
1
100
AcDbLine
6
CONTINUOUS
62
5
10
204.550000
20
219.500000
11
209.550000
21
219.500000
0
POLYLINE
5
159
100
AcDbEntity
8
1
6
CONTINUOUS
62
5
100
AcDb2dPolyline
66
1
10
0.0
20
0.0
30
0.0
70
0
0
VERTEX
5
15a
100
AcDbEntity
8
1
100
AcDbVertex
100
AcDb2dVertex
62
5
10
210.550000
20
220.000000
0
VERTEX
5
15b
100
AcDbEntity
8
1
100
AcDbVertex
100
AcDb2dVertex
62
5
10
210.550000
20
219.000000
0
VERTEX
5
15c
100
AcDbEntity
8
1
100
AcDbVertex
100
AcDb2dVertex
62
5
10
210.050000
20
218.500000
0
VERTEX
5
15d
100
AcDbEntity
8
1
100
AcDbVertex
100
AcDb2dVertex
62
5
10
209.050000
20
218.500000
0
VERTEX
5
15e
100
AcDbEntity
8
1
100
AcDbVertex
100
AcDb2dVertex
62
5
10
208.550000
20
219.000000
0
VERTEX
5
15f
100
AcDbEntity
8
1
100
AcDbVertex
100
AcDb2dVertex
62
5
10
208.550000
20
220.000000
0
VERTEX
5
160
100
AcDbEntity
8
1
100
AcDbVertex
100
AcDb2dVertex
62
5
10
209.050000
20
220.500000
0
VERTEX
5
161
100
AcDbEntity
8
1
100
AcDbVertex
100
AcDb2dVertex
62
5
10
210.050000
20
220.500000
0
VERTEX
5
162
100
AcDbEntity
8
1
100
AcDbVertex
100
AcDb2dVertex
62
5
10
210.550000
20
220.000000
0
VERTEX
5
163
100
AcDbEntity
8
1
100
AcDbVertex
100
AcDb2dVertex
62
5
10
208.550000
20
219.000000
0
SEQEND
5
164
100
AcDbEntity
8
1
0
LINE
5
165
100
AcDbEntity
8
1
100
AcDbLine
6
CONTINUOUS
62
5
10
208.550000
20
220.000000
11
210.550000
21
219.000000
0
LINE
5
166
100
AcDbEntity
8
1
100
AcDbLine
6
CONTINUOUS
62
5
10
210.050000
20
218.500000
11
209.050000
21
220.500000
0
LINE
5
167
100
AcDbEntity
8
1
100
AcDbLine
6
CONTINUOUS
62
5
10
210.050000
20
220.500000
11
209.050000
21
218.500000
0
LINE
5
168
100
AcDbEntity
8
1
100
AcDbLine
6
CONTINUOUS
62
5
10
159.250000
20
333.687500
11
158.750000
21
332.125000
0
LINE
5
169
100
AcDbEntity
8
1
100
AcDbLine
6
CONTINUOUS
62
5
10
157.250000
20
336.812500
11
160.750000
21
336.812500
0
LINE
5
16a
100
AcDbEntity
8
1
100
AcDbLine
6
CONTINUOUS
62
5
10
156.000000
20
334.625000
11
161.750000
21
334.625000
0
POLYLINE
5
16b
100
AcDbEntity
8
1
6
CONTINUOUS
62
5
100
AcDb2dPolyline
66
1
10
0.0
20
0.0
30
0.0
70
0
0
VERTEX
5
16c
100
AcDbEntity
8
1
100
AcDbVertex
100
AcDb2dVertex
62
5
10
158.750000
20
332.125000
0
VERTEX
5
16d
100
AcDbEntity
8
1
100
AcDbVertex
100
AcDb2dVertex
62
5
10
158.000000
20
331.187500
0
VERTEX
5
16e
100
AcDbEntity
8
1
100
AcDbVertex
100
AcDb2dVertex
62
5
10
157.000000
20
330.250000
0
SEQEND
5
16f
100
AcDbEntity
8
1
0
LINE
5
170
100
AcDbEntity
8
1
100
AcDbLine
6
CONTINUOUS
62
5
10
159.250000
20
334.625000
11
159.250000
21
333.687500
0
POLYLINE
5
171
100
AcDbEntity
8
1
6
CONTINUOUS
62
5
100
AcDb2dPolyline
66
1
10
0.0
20
0.0
30
0.0
70
0
0
VERTEX
5
172
100
AcDbEntity
8
1
100
AcDbVertex
100
AcDb2dVertex
62
5
10
165.250000
20
337.125000
0
VERTEX
5
173
100
AcDbEntity
8
1
100
AcDbVertex
100
AcDb2dVertex
62
5
10
165.250000
20
330.875000
0
VERTEX
5
174
100
AcDbEntity
8
1
100
AcDbVertex
100
AcDb2dVertex
62
5
10
165.750000
20
330.562500
0
VERTEX
5
175
100
AcDbEntity
8
1
100
AcDbVertex
100
AcDb2dVertex
62
5
10
167.000000
20
331.187500
0
VERTEX
5
176
100
AcDbEntity
8
1
100
AcDbVertex
100
AcDb2dVertex
62
5
10
168.250000
20
332.125000
0
VERTEX
5
177
100
AcDbEntity
8
1
100
AcDbVertex
100
AcDb2dVertex
62
5
10
169.500000
20
333.375000
0
SEQEND
5
178
100
AcDbEntity
8
1
0
POLYLINE
5
179
100
AcDbEntity
8
1
6
CONTINUOUS
62
5
100
AcDb2dPolyline
66
1
10
0.0
20
0.0
30
0.0
70
0
0
VERTEX
5
17a
100
AcDbEntity
8
1
100
AcDbVertex
100
AcDb2dVertex
62
5
10
134.250000
20
328.375000
0
VERTEX
5
17b
100
AcDbEntity
8
1
100
AcDbVertex
100
AcDb2dVertex
62
5
10
133.500000
20
327.125000
0
VERTEX
5
17c
100
AcDbEntity
8
1
100
AcDbVertex
100
AcDb2dVertex
62
5
10
132.750000
20
326.187500
0
VERTEX
5
17d
100
AcDbEntity
8
1
100
AcDbVertex
100
AcDb2dVertex
62
5
10
131.750000
20
325.250000
0
SEQEND
5
17e
100
AcDbEntity
8
1
0
POLYLINE
5
17f
100
AcDbEntity
8
1
6
CONTINUOUS
62
5
100
AcDb2dPolyline
66
1
10
0.0
20
0.0
30
0.0
70
0
0
VERTEX
5
180
100
AcDbEntity
8
1
100
AcDbVertex
100
AcDb2dVertex
62
5
10
134.000000
20
327.750000
0
VERTEX
5
181
100
AcDbEntity
8
1
100
AcDbVertex
100
AcDb2dVertex
62
5
10
136.250000
20
327.750000
0
VERTEX
5
182
100
AcDbEntity
8
1
100
AcDbVertex
100
AcDb2dVertex
62
5
10
135.000000
20
325.875000
0
SEQEND
5
183
100
AcDbEntity
8
1
0
POLYLINE
5
184
100
AcDbEntity
8
1
6
CONTINUOUS
62
5
100
AcDb2dPolyline
66
1
10
0.0
20
0.0
30
0.0
70
0
0
VERTEX
5
185
100
AcDbEntity
8
1
100
AcDbVertex
100
AcDb2dVertex
62
5
10
132.750000
20
325.875000
0
VERTEX
5
186
100
AcDbEntity
8
1
100
AcDbVertex
100
AcDb2dVertex
62
5
10
137.250000
20
325.875000
0
VERTEX
5
187
100
AcDbEntity
8
1
100
AcDbVertex
100
AcDb2dVertex
62
5
10
137.250000
20
323.062500
0
VERTEX
5
188
100
AcDbEntity
8
1
100
AcDbVertex
100
AcDb2dVertex
62
5
10
132.750000
20
323.062500
0
SEQEND
5
189
100
AcDbEntity
8
1
0
LINE
5
18a
100
AcDbEntity
8
1
100
AcDbLine
6
CONTINUOUS
62
5
10
135.000000
20
325.875000
11
135.000000
21
323.062500
0
POLYLINE
5
18b
100
AcDbEntity
8
1
6
CONTINUOUS
62
5
100
AcDb2dPolyline
66
1
10
0.0
20
0.0
30
0.0
70
0
0
VERTEX
5
18c
100
AcDbEntity
8
1
100
AcDbVertex
100
AcDb2dVertex
62
5
10
132.750000
20
325.875000
0
VERTEX
5
18d
100
AcDbEntity
8
1
100
AcDbVertex
100
AcDb2dVertex
62
5
10
132.750000
20
320.562500
0
VERTEX
5
18e
100
AcDbEntity
8
1
100
AcDbVertex
100
AcDb2dVertex
62
5
10
133.250000
20
319.937500
0
VERTEX
5
18f
100
AcDbEntity
8
1
100
AcDbVertex
100
AcDb2dVertex
62
5
10
138.250000
20
319.937500
0
VERTEX
5
190
100
AcDbEntity
8
1
100
AcDbVertex
100
AcDb2dVertex
62
5
10
138.250000
20
321.187500
0
SEQEND
5
191
100
AcDbEntity
8
1
0
LINE
5
192
100
AcDbEntity
8
1
100
AcDbLine
6
CONTINUOUS
62
5
10
133.250000
20
338.062500
11
133.250000
21
336.500000
0
LINE
5
193
100
AcDbEntity
8
1
100
AcDbLine
6
CONTINUOUS
62
5
10
131.250000
20
336.500000
11
135.000000
21
336.500000
0
POLYLINE
5
194
100
AcDbEntity
8
1
6
CONTINUOUS
62
5
100
AcDb2dPolyline
66
1
10
0.0
20
0.0
30
0.0
70
0
0
VERTEX
5
195
100
AcDbEntity
8
1
100
AcDbVertex
100
AcDb2dVertex
62
5
10
134.250000
20
335.875000
0
VERTEX
5
196
100
AcDbEntity
8
1
100
AcDbVertex
100
AcDb2dVertex
62
5
10
134.000000
20
334.312500
0
VERTEX
5
197
100
AcDbEntity
8
1
100
AcDbVertex
100
AcDb2dVertex
62
5
10
133.250000
20
332.750000
0
VERTEX
5
198
100
AcDbEntity
8
1
100
AcDbVertex
100
AcDb2dVertex
62
5
10
132.250000
20
330.875000
0
VERTEX
5
199
100
AcDbEntity
8
1
100
AcDbVertex
100
AcDb2dVertex
62
5
10
131.500000
20
329.937500
0
SEQEND
5
19a
100
AcDbEntity
8
1
0
POLYLINE
5
19b
100
AcDbEntity
8
1
6
CONTINUOUS
62
5
100
AcDb2dPolyline
66
1
10
0.0
20
0.0
30
0.0
70
0
0
VERTEX
5
19c
100
AcDbEntity
8
1
100
AcDbVertex
100
AcDb2dVertex
62
5
10
134.500000
20
331.187500
0
VERTEX
5
19d
100
AcDbEntity
8
1
100
AcDbVertex
100
AcDb2dVertex
62
5
10
133.250000
20
332.750000
0
VERTEX
5
19e
100
AcDbEntity
8
1
100
AcDbVertex
100
AcDb2dVertex
62
5
10
131.750000
20
334.937500
0
SEQEND
5
19f
100
AcDbEntity
8
1
0
LINE
5
1a0
100
AcDbEntity
8
1
100
AcDbLine
6
CONTINUOUS
62
5
10
135.000000
20
335.562500
11
138.500000
21
335.562500
0
POLYLINE
5
1a1
100
AcDbEntity
8
1
6
CONTINUOUS
62
5
100
AcDb2dPolyline
66
1
10
0.0
20
0.0
30
0.0
70
0
0
VERTEX
5
1a2
100
AcDbEntity
8
1
100
AcDbVertex
100
AcDb2dVertex
62
5
10
137.500000
20
338.375000
0
VERTEX
5
1a3
100
AcDbEntity
8
1
100
AcDbVertex
100
AcDb2dVertex
62
5
10
137.500000
20
330.250000
0
VERTEX
5
1a4
100
AcDbEntity
8
1
100
AcDbVertex
100
AcDb2dVertex
62
5
10
137.000000
20
329.625000
0
VERTEX
5
1a5
100
AcDbEntity
8
1
100
AcDbVertex
100
AcDb2dVertex
62
5
10
136.500000
20
329.625000
0
SEQEND
5
1a6
100
AcDbEntity
8
1
0
LINE
5
1a7
100
AcDbEntity
8
1
100
AcDbLine
6
CONTINUOUS
62
5
10
136.000000
20
332.750000
11
135.000000
21
334.312500
0
POLYLINE
5
1a8
100
AcDbEntity
8
1
6
CONTINUOUS
62
5
100
AcDb2dPolyline
66
1
10
0.0
20
0.0
30
0.0
70
0
0
VERTEX
5
1a9
100
AcDbEntity
8
1
100
AcDbVertex
100
AcDb2dVertex
62
5
10
139.250000
20
329.625000
0
VERTEX
5
1aa
100
AcDbEntity
8
1
100
AcDbVertex
100
AcDb2dVertex
62
5
10
140.000000
20
332.125000
0
VERTEX
5
1ab
100
AcDbEntity
8
1
100
AcDbVertex
100
AcDb2dVertex
62
5
10
140.250000
20
334.000000
0
VERTEX
5
1ac
100
AcDbEntity
8
1
100
AcDbVertex
100
AcDb2dVertex
62
5
10
140.250000
20
337.437500
0
VERTEX
5
1ad
100
AcDbEntity
8
1
100
AcDbVertex
100
AcDb2dVertex
62
5
10
146.250000
20
337.437500
0
SEQEND
5
1ae
100
AcDbEntity
8
1
0
LINE
5
1af
100
AcDbEntity
8
1
100
AcDbLine
6
CONTINUOUS
62
5
10
143.250000
20
338.375000
11
143.250000
21
337.437500
0
POLYLINE
5
1b0
100
AcDbEntity
8
1
6
CONTINUOUS
62
5
100
AcDb2dPolyline
66
1
10
0.0
20
0.0
30
0.0
70
0
0
VERTEX
5
1b1
100
AcDbEntity
8
1
100
AcDbVertex
100
AcDb2dVertex
62
5
10
141.250000
20
333.375000
0
VERTEX
5
1b2
100
AcDbEntity
8
1
100
AcDbVertex
100
AcDb2dVertex
62
5
10
141.000000
20
331.812500
0
VERTEX
5
1b3
100
AcDbEntity
8
1
100
AcDbVertex
100
AcDb2dVertex
62
5
10
140.500000
20
330.562500
0
SEQEND
5
1b4
100
AcDbEntity
8
1
0
POLYLINE
5
1b5
100
AcDbEntity
8
1
6
CONTINUOUS
62
5
100
AcDb2dPolyline
66
1
10
0.0
20
0.0
30
0.0
70
0
0
VERTEX
5
1b6
100
AcDbEntity
8
1
100
AcDbVertex
100
AcDb2dVertex
62
5
10
142.250000
20
335.250000
0
VERTEX
5
1b7
100
AcDbEntity
8
1
100
AcDbVertex
100
AcDb2dVertex
62
5
10
142.250000
20
330.250000
0
VERTEX
5
1b8
100
AcDbEntity
8
1
100
AcDbVertex
100
AcDb2dVertex
62
5
10
142.750000
20
329.625000
0
VERTEX
5
1b9
100
AcDbEntity
8
1
100
AcDbVertex
100
AcDb2dVertex
62
5
10
145.000000
20
329.625000
0
VERTEX
5
1ba
100
AcDbEntity
8
1
100
AcDbVertex
100
AcDb2dVertex
62
5
10
145.250000
20
329.937500
0
VERTEX
5
1bb
100
AcDbEntity
8
1
100
AcDbVertex
100
AcDb2dVertex
62
5
10
145.250000
20
330.562500
0
SEQEND
5
1bc
100
AcDbEntity
8
1
0
LINE
5
1bd
100
AcDbEntity
8
1
100
AcDbLine
6
CONTINUOUS
62
5
10
143.000000
20
335.875000
11
144.000000
21
334.625000
0
POLYLINE
5
1be
100
AcDbEntity
8
1
6
CONTINUOUS
62
5
100
AcDb2dPolyline
66
1
10
0.0
20
0.0
30
0.0
70
0
0
VERTEX
5
1bf
100
AcDbEntity
8
1
100
AcDbVertex
100
AcDb2dVertex
62
5
10
145.250000
20
333.687500
0
VERTEX
5
1c0
100
AcDbEntity
8
1
100
AcDbVertex
100
AcDb2dVertex
62
5
10
146.000000
20
332.437500
0
VERTEX
5
1c1
100
AcDbEntity
8
1
100
AcDbVertex
100
AcDb2dVertex
62
5
10
146.500000
20
331.187500
0
SEQEND
5
1c2
100
AcDbEntity
8
1
0
POLYLINE
5
1c3
100
AcDbEntity
8
1
6
CONTINUOUS
62
5
100
AcDb2dPolyline
66
1
10
0.0
20
0.0
30
0.0
70
0
0
VERTEX
5
1c4
100
AcDbEntity
8
1
100
AcDbVertex
100
AcDb2dVertex
62
5
10
108.750000
20
324.312500
0
VERTEX
5
1c5
100
AcDbEntity
8
1
100
AcDbVertex
100
AcDb2dVertex
62
5
10
108.750000
20
326.500000
0
VERTEX
5
1c6
100
AcDbEntity
8
1
100
AcDbVertex
100
AcDb2dVertex
62
5
10
112.750000
20
326.500000
0
VERTEX
5
1c7
100
AcDbEntity
8
1
100
AcDbVertex
100
AcDb2dVertex
62
5
10
112.750000
20
325.562500
0
VERTEX
5
1c8
100
AcDbEntity
8
1
100
AcDbVertex
100
AcDb2dVertex
62
5
10
112.500000
20
324.000000
0
VERTEX
5
1c9
100
AcDbEntity
8
1
100
AcDbVertex
100
AcDb2dVertex
62
5
10
112.000000
20
322.750000
0
VERTEX
5
1ca
100
AcDbEntity
8
1
100
AcDbVertex
100
AcDb2dVertex
62
5
10
111.500000
20
321.812500
0
VERTEX
5
1cb
100
AcDbEntity
8
1
100
AcDbVertex
100
AcDb2dVertex
62
5
10
110.500000
20
320.562500
0
SEQEND
5
1cc
100
AcDbEntity
8
1
0
POLYLINE
5
1cd
100
AcDbEntity
8
1
6
CONTINUOUS
62
5
100
AcDb2dPolyline
66
1
10
0.0
20
0.0
30
0.0
70
0
0
VERTEX
5
1ce
100
AcDbEntity
8
1
100
AcDbVertex
100
AcDb2dVertex
62
5
10
120.750000
20
327.437500
0
VERTEX
5
1cf
100
AcDbEntity
8
1
100
AcDbVertex
100
AcDb2dVertex
62
5
10
118.750000
20
324.937500
0
VERTEX
5
1d0
100
AcDbEntity
8
1
100
AcDbVertex
100
AcDb2dVertex
62
5
10
116.500000
20
323.375000
0
SEQEND
5
1d1
100
AcDbEntity
8
1
0
LINE
5
1d2
100
AcDbEntity
8
1
100
AcDbLine
6
CONTINUOUS
62
5
10
119.250000
20
325.562500
11
119.250000
21
320.250000
0
POLYLINE
5
1d3
100
AcDbEntity
8
1
6
CONTINUOUS
62
5
100
AcDb2dPolyline
66
1
10
0.0
20
0.0
30
0.0
70
0
0
VERTEX
5
1d4
100
AcDbEntity
8
1
100
AcDbVertex
100
AcDb2dVertex
62
5
10
92.000000
20
326.187500
0
VERTEX
5
1d5
100
AcDbEntity
8
1
100
AcDbVertex
100
AcDb2dVertex
62
5
10
97.250000
20
326.187500
0
VERTEX
5
1d6
100
AcDbEntity
8
1
100
AcDbVertex
100
AcDb2dVertex
62
5
10
97.250000
20
325.875000
0
VERTEX
5
1d7
100
AcDbEntity
8
1
100
AcDbVertex
100
AcDb2dVertex
62
5
10
95.500000
20
324.000000
0
VERTEX
5
1d8
100
AcDbEntity
8
1
100
AcDbVertex
100
AcDb2dVertex
62
5
10
94.750000
20
324.000000
0
SEQEND
5
1d9
100
AcDbEntity
8
1
0
POLYLINE
5
1da
100
AcDbEntity
8
1
6
CONTINUOUS
62
5
100
AcDb2dPolyline
66
1
10
0.0
20
0.0
30
0.0
70
0
0
VERTEX
5
1db
100
AcDbEntity
8
1
100
AcDbVertex
100
AcDb2dVertex
62
5
10
94.750000
20
324.937500
0
VERTEX
5
1dc
100
AcDbEntity
8
1
100
AcDbVertex
100
AcDb2dVertex
62
5
10
94.750000
20
323.375000
0
VERTEX
5
1dd
100
AcDbEntity
8
1
100
AcDbVertex
100
AcDb2dVertex
62
5
10
94.000000
20
321.500000
0
VERTEX
5
1de
100
AcDbEntity
8
1
100
AcDbVertex
100
AcDb2dVertex
62
5
10
93.000000
20
320.250000
0
SEQEND
5
1df
100
AcDbEntity
8
1
0
LINE
5
1e0
100
AcDbEntity
8
1
100
AcDbLine
6
CONTINUOUS
62
5
10
100.250000
20
324.937500
11
105.250000
21
324.937500
0
POLYLINE
5
1e1
100
AcDbEntity
8
1
6
CONTINUOUS
62
5
100
AcDb2dPolyline
66
1
10
0.0
20
0.0
30
0.0
70
0
0
VERTEX
5
1e2
100
AcDbEntity
8
1
100
AcDbVertex
100
AcDb2dVertex
62
5
10
102.750000
20
326.812500
0
VERTEX
5
1e3
100
AcDbEntity
8
1
100
AcDbVertex
100
AcDb2dVertex
62
5
10
102.750000
20
320.562500
0
VERTEX
5
1e4
100
AcDbEntity
8
1
100
AcDbVertex
100
AcDb2dVertex
62
5
10
102.250000
20
320.562500
0
SEQEND
5
1e5
100
AcDbEntity
8
1
0
LINE
5
1e6
100
AcDbEntity
8
1
100
AcDbLine
6
CONTINUOUS
62
5
10
101.500000
20
323.375000
11
100.250000
21
321.500000
0
LINE
5
1e7
100
AcDbEntity
8
1
100
AcDbLine
6
CONTINUOUS
62
5
10
104.250000
20
323.375000
11
105.500000
21
321.812500
0
POLYLINE
5
1e8
100
AcDbEntity
8
1
6
CONTINUOUS
62
5
100
AcDb2dPolyline
66
1
10
0.0
20
0.0
30
0.0
70
1
0
VERTEX
5
1e9
100
AcDbEntity
8
1
100
AcDbVertex
100
AcDb2dVertex
62
5
10
89.000000
20
337.750000
0
VERTEX
5
1ea
100
AcDbEntity
8
1
100
AcDbVertex
100
AcDb2dVertex
62
5
10
89.500000
20
337.750000
0
VERTEX
5
1eb
100
AcDbEntity
8
1
100
AcDbVertex
100
AcDb2dVertex
62
5
10
90.000000
20
337.437500
0
VERTEX
5
1ec
100
AcDbEntity
8
1
100
AcDbVertex
100
AcDb2dVertex
62
5
10
90.250000
20
336.812500
0
VERTEX
5
1ed
100
AcDbEntity
8
1
100
AcDbVertex
100
AcDb2dVertex
62
5
10
90.250000
20
335.562500
0
VERTEX
5
1ee
100
AcDbEntity
8
1
100
AcDbVertex
100
AcDb2dVertex
62
5
10
90.000000
20
334.937500
0
VERTEX
5
1ef
100
AcDbEntity
8
1
100
AcDbVertex
100
AcDb2dVertex
62
5
10
88.500000
20
333.687500
0
VERTEX
5
1f0
100
AcDbEntity
8
1
100
AcDbVertex
100
AcDb2dVertex
62
5
10
88.000000
20
332.750000
0
VERTEX
5
1f1
100
AcDbEntity
8
1
100
AcDbVertex
100
AcDb2dVertex
62
5
10
88.000000
20
331.500000
0
VERTEX
5
1f2
100
AcDbEntity
8
1
100
AcDbVertex
100
AcDb2dVertex
62
5
10
88.250000
20
330.875000
0
VERTEX
5
1f3
100
AcDbEntity
8
1
100
AcDbVertex
100
AcDb2dVertex
62
5
10
88.500000
20
330.562500
0
VERTEX
5
1f4
100
AcDbEntity
8
1
100
AcDbVertex
100
AcDb2dVertex
62
5
10
89.000000
20
330.250000
0
VERTEX
5
1f5
100
AcDbEntity
8
1
100
AcDbVertex
100
AcDb2dVertex
62
5
10
89.500000
20
330.250000
0
VERTEX
5
1f6
100
AcDbEntity
8
1
100
AcDbVertex
100
AcDb2dVertex
62
5
10
90.000000
20
330.562500
0
VERTEX
5
1f7
100
AcDbEntity
8
1
100
AcDbVertex
100
AcDb2dVertex
62
5
10
90.250000
20
330.875000
0
VERTEX
5
1f8
100
AcDbEntity
8
1
100
AcDbVertex
100
AcDb2dVertex
62
5
10
90.500000
20
331.500000
0
VERTEX
5
1f9
100
AcDbEntity
8
1
100
AcDbVertex
100
AcDb2dVertex
62
5
10
90.500000
20
332.750000
0
VERTEX
5
1fa
100
AcDbEntity
8
1
100
AcDbVertex
100
AcDb2dVertex
62
5
10
90.000000
20
333.687500
0
VERTEX
5
1fb
100
AcDbEntity
8
1
100
AcDbVertex
100
AcDb2dVertex
62
5
10
88.500000
20
334.937500
0
VERTEX
5
1fc
100
AcDbEntity
8
1
100
AcDbVertex
100
AcDb2dVertex
62
5
10
88.250000
20
335.562500
0
VERTEX
5
1fd
100
AcDbEntity
8
1
100
AcDbVertex
100
AcDb2dVertex
62
5
10
88.250000
20
336.812500
0
VERTEX
5
1fe
100
AcDbEntity
8
1
100
AcDbVertex
100
AcDb2dVertex
62
5
10
88.500000
20
337.437500
0
VERTEX
5
1ff
100
AcDbEntity
8
1
100
AcDbVertex
100
AcDb2dVertex
62
5
10
89.000000
20
337.750000
0
SEQEND
5
200
100
AcDbEntity
8
1
0
LINE
5
201
100
AcDbEntity
8
1
100
AcDbLine
6
CONTINUOUS
62
5
10
92.000000
20
337.750000
11
92.000000
21
330.250000
0
LINE
5
202
100
AcDbEntity
8
1
100
AcDbLine
6
CONTINUOUS
62
5
10
94.500000
20
337.750000
11
92.000000
21
333.375000
0
LINE
5
203
100
AcDbEntity
8
1
100
AcDbLine
6
CONTINUOUS
62
5
10
92.750000
20
334.625000
11
94.750000
21
330.250000
0
LINE
5
204
100
AcDbEntity
8
1
100
AcDbLine
6
CONTINUOUS
62
5
10
100.750000
20
338.062500
11
99.750000
21
336.187500
0
POLYLINE
5
205
100
AcDbEntity
8
1
6
CONTINUOUS
62
5
100
AcDb2dPolyline
66
1
10
0.0
20
0.0
30
0.0
70
0
0
VERTEX
5
206
100
AcDbEntity
8
1
100
AcDbVertex
100
AcDb2dVertex
62
5
10
101.250000
20
336.500000
0
VERTEX
5
207
100
AcDbEntity
8
1
100
AcDbVertex
100
AcDb2dVertex
62
5
10
100.500000
20
334.937500
0
VERTEX
5
208
100
AcDbEntity
8
1
100
AcDbVertex
100
AcDb2dVertex
62
5
10
99.500000
20
333.375000
0
SEQEND
5
209
100
AcDbEntity
8
1
0
LINE
5
20a
100
AcDbEntity
8
1
100
AcDbLine
6
CONTINUOUS
62
5
10
100.500000
20
334.937500
11
100.500000
21
329.625000
0
LINE
5
20b
100
AcDbEntity
8
1
100
AcDbLine
6
CONTINUOUS
62
5
10
102.500000
20
338.375000
11
102.000000
21
336.187500
0
POLYLINE
5
20c
100
AcDbEntity
8
1
6
CONTINUOUS
62
5
100
AcDb2dPolyline
66
1
10
0.0
20
0.0
30
0.0
70
0
0
VERTEX
5
20d
100
AcDbEntity
8
1
100
AcDbVertex
100
AcDb2dVertex
62
5
10
101.750000
20
337.437500
0
VERTEX
5
20e
100
AcDbEntity
8
1
100
AcDbVertex
100
AcDb2dVertex
62
5
10
103.500000
20
337.437500
0
VERTEX
5
20f
100
AcDbEntity
8
1
100
AcDbVertex
100
AcDb2dVertex
62
5
10
103.500000
20
336.187500
0
SEQEND
5
210
100
AcDbEntity
8
1
0
LINE
5
211
100
AcDbEntity
8
1
100
AcDbLine
6
CONTINUOUS
62
5
10
101.500000
20
336.187500
11
104.250000
21
336.187500
0
POLYLINE
5
212
100
AcDbEntity
8
1
6
CONTINUOUS
62
5
100
AcDb2dPolyline
66
1
10
0.0
20
0.0
30
0.0
70
1
0
VERTEX
5
213
100
AcDbEntity
8
1
100
AcDbVertex
100
AcDb2dVertex
62
5
10
101.750000
20
335.250000
0
VERTEX
5
214
100
AcDbEntity
8
1
100
AcDbVertex
100
AcDb2dVertex
62
5
10
101.750000
20
333.687500
0
VERTEX
5
215
100
AcDbEntity
8
1
100
AcDbVertex
100
AcDb2dVertex
62
5
10
103.500000
20
333.687500
0
VERTEX
5
216
100
AcDbEntity
8
1
100
AcDbVertex
100
AcDb2dVertex
62
5
10
103.500000
20
335.250000
0
VERTEX
5
217
100
AcDbEntity
8
1
100
AcDbVertex
100
AcDb2dVertex
62
5
10
101.750000
20
335.250000
0
SEQEND
5
218
100
AcDbEntity
8
1
0
POLYLINE
5
219
100
AcDbEntity
8
1
6
CONTINUOUS
62
5
100
AcDb2dPolyline
66
1
10
0.0
20
0.0
30
0.0
70
0
0
VERTEX
5
21a
100
AcDbEntity
8
1
100
AcDbVertex
100
AcDb2dVertex
62
5
10
104.000000
20
332.750000
0
VERTEX
5
21b
100
AcDbEntity
8
1
100
AcDbVertex
100
AcDb2dVertex
62
5
10
101.500000
20
332.750000
0
VERTEX
5
21c
100
AcDbEntity
8
1
100
AcDbVertex
100
AcDb2dVertex
62
5
10
101.500000
20
331.500000
0
SEQEND
5
21d
100
AcDbEntity
8
1
0
LINE
5
21e
100
AcDbEntity
8
1
100
AcDbLine
6
CONTINUOUS
62
5
10
101.000000
20
331.500000
11
104.250000
21
331.500000
0
LINE
5
21f
100
AcDbEntity
8
1
100
AcDbLine
6
CONTINUOUS
62
5
10
103.000000
20
333.375000
11
103.000000
21
329.625000
0
LINE
5
220
100
AcDbEntity
8
1
100
AcDbLine
6
CONTINUOUS
62
5
10
104.500000
20
337.750000
11
106.250000
21
337.750000
0
LINE
5
221
100
AcDbEntity
8
1
100
AcDbLine
6
CONTINUOUS
62
5
10
104.250000
20
335.562500
11
106.500000
21
335.562500
0
POLYLINE
5
222
100
AcDbEntity
8
1
6
CONTINUOUS
62
5
100
AcDb2dPolyline
66
1
10
0.0
20
0.0
30
0.0
70
0
0
VERTEX
5
223
100
AcDbEntity
8
1
100
AcDbVertex
100
AcDb2dVertex
62
5
10
105.500000
20
335.562500
0
VERTEX
5
224
100
AcDbEntity
8
1
100
AcDbVertex
100
AcDb2dVertex
62
5
10
105.500000
20
329.625000
0
VERTEX
5
225
100
AcDbEntity
8
1
100
AcDbVertex
100
AcDb2dVertex
62
5
10
105.000000
20
329.625000
0
SEQEND
5
226
100
AcDbEntity
8
1
0
POLYLINE
5
227
100
AcDbEntity
8
1
6
CONTINUOUS
62
5
100
AcDb2dPolyline
66
1
10
0.0
20
0.0
30
0.0
70
1
0
VERTEX
5
228
100
AcDbEntity
8
1
100
AcDbVertex
100
AcDb2dVertex
62
5
10
108.750000
20
337.750000
0
VERTEX
5
229
100
AcDbEntity
8
1
100
AcDbVertex
100
AcDb2dVertex
62
5
10
113.250000
20
337.750000
0
VERTEX
5
22a
100
AcDbEntity
8
1
100
AcDbVertex
100
AcDb2dVertex
62
5
10
113.250000
20
334.937500
0
VERTEX
5
22b
100
AcDbEntity
8
1
100
AcDbVertex
100
AcDb2dVertex
62
5
10
108.750000
20
334.937500
0
VERTEX
5
22c
100
AcDbEntity
8
1
100
AcDbVertex
100
AcDb2dVertex
62
5
10
108.750000
20
337.750000
0
SEQEND
5
22d
100
AcDbEntity
8
1
0
LINE
5
22e
100
AcDbEntity
8
1
100
AcDbLine
6
CONTINUOUS
62
5
10
108.750000
20
336.500000
11
113.250000
21
336.500000
0
POLYLINE
5
22f
100
AcDbEntity
8
1
6
CONTINUOUS
62
5
100
AcDb2dPolyline
66
1
10
0.0
20
0.0
30
0.0
70
0
0
VERTEX
5
230
100
AcDbEntity
8
1
100
AcDbVertex
100
AcDb2dVertex
62
5
10
109.000000
20
334.000000
0
VERTEX
5
231
100
AcDbEntity
8
1
100
AcDbVertex
100
AcDb2dVertex
62
5
10
108.500000
20
333.062500
0
VERTEX
5
232
100
AcDbEntity
8
1
100
AcDbVertex
100
AcDb2dVertex
62
5
10
107.750000
20
332.125000
0
SEQEND
5
233
100
AcDbEntity
8
1
0
LINE
5
234
100
AcDbEntity
8
1
100
AcDbLine
6
CONTINUOUS
62
5
10
108.500000
20
333.062500
11
113.750000
21
333.062500
0
LINE
5
235
100
AcDbEntity
8
1
100
AcDbLine
6
CONTINUOUS
62
5
10
109.000000
20
331.812500
11
113.000000
21
331.812500
0
LINE
5
236
100
AcDbEntity
8
1
100
AcDbLine
6
CONTINUOUS
62
5
10
107.750000
20
330.250000
11
114.250000
21
330.250000
0
LINE
5
237
100
AcDbEntity
8
1
100
AcDbLine
6
CONTINUOUS
62
5
10
111.000000
20
334.312500
11
111.000000
21
330.250000
0
LINE
5
238
100
AcDbEntity
8
1
100
AcDbLine
6
CONTINUOUS
62
5
10
115.250000
20
336.187500
11
118.500000
21
336.187500
0
POLYLINE
5
239
100
AcDbEntity
8
1
6
CONTINUOUS
62
5
100
AcDb2dPolyline
66
1
10
0.0
20
0.0
30
0.0
70
0
0
VERTEX
5
23a
100
AcDbEntity
8
1
100
AcDbVertex
100
AcDb2dVertex
62
5
10
116.750000
20
338.062500
0
VERTEX
5
23b
100
AcDbEntity
8
1
100
AcDbVertex
100
AcDb2dVertex
62
5
10
116.750000
20
336.187500
0
VERTEX
5
23c
100
AcDbEntity
8
1
100
AcDbVertex
100
AcDb2dVertex
62
5
10
116.250000
20
332.437500
0
VERTEX
5
23d
100
AcDbEntity
8
1
100
AcDbVertex
100
AcDb2dVertex
62
5
10
115.250000
20
329.937500
0
SEQEND
5
23e
100
AcDbEntity
8
1
0
POLYLINE
5
23f
100
AcDbEntity
8
1
6
CONTINUOUS
62
5
100
AcDb2dPolyline
66
1
10
0.0
20
0.0
30
0.0
70
0
0
VERTEX
5
240
100
AcDbEntity
8
1
100
AcDbVertex
100
AcDb2dVertex
62
5
10
116.500000
20
334.000000
0
VERTEX
5
241
100
AcDbEntity
8
1
100
AcDbVertex
100
AcDb2dVertex
62
5
10
118.000000
20
334.000000
0
VERTEX
5
242
100
AcDbEntity
8
1
100
AcDbVertex
100
AcDb2dVertex
62
5
10
118.000000
20
332.750000
0
VERTEX
5
243
100
AcDbEntity
8
1
100
AcDbVertex
100
AcDb2dVertex
62
5
10
117.750000
20
330.875000
0
VERTEX
5
244
100
AcDbEntity
8
1
100
AcDbVertex
100
AcDb2dVertex
62
5
10
117.500000
20
329.937500
0
VERTEX
5
245
100
AcDbEntity
8
1
100
AcDbVertex
100
AcDb2dVertex
62
5
10
116.750000
20
329.937500
0
SEQEND
5
246
100
AcDbEntity
8
1
0
POLYLINE
5
247
100
AcDbEntity
8
1
6
CONTINUOUS
62
5
100
AcDb2dPolyline
66
1
10
0.0
20
0.0
30
0.0
70
0
0
VERTEX
5
248
100
AcDbEntity
8
1
100
AcDbVertex
100
AcDb2dVertex
62
5
10
120.250000
20
338.062500
0
VERTEX
5
249
100
AcDbEntity
8
1
100
AcDbVertex
100
AcDb2dVertex
62
5
10
119.500000
20
336.187500
0
VERTEX
5
24a
100
AcDbEntity
8
1
100
AcDbVertex
100
AcDb2dVertex
62
5
10
118.500000
20
334.625000
0
SEQEND
5
24b
100
AcDbEntity
8
1
0
LINE
5
24c
100
AcDbEntity
8
1
100
AcDbLine
6
CONTINUOUS
62
5
10
119.500000
20
336.187500
11
122.500000
21
336.187500
0
POLYLINE
5
24d
100
AcDbEntity
8
1
6
CONTINUOUS
62
5
100
AcDb2dPolyline
66
1
10
0.0
20
0.0
30
0.0
70
0
0
VERTEX
5
24e
100
AcDbEntity
8
1
100
AcDbVertex
100
AcDb2dVertex
62
5
10
121.750000
20
336.187500
0
VERTEX
5
24f
100
AcDbEntity
8
1
100
AcDbVertex
100
AcDb2dVertex
62
5
10
121.250000
20
333.062500
0
VERTEX
5
250
100
AcDbEntity
8
1
100
AcDbVertex
100
AcDb2dVertex
62
5
10
120.500000
20
331.500000
0
VERTEX
5
251
100
AcDbEntity
8
1
100
AcDbVertex
100
AcDb2dVertex
62
5
10
118.500000
20
329.625000
0
SEQEND
5
252
100
AcDbEntity
8
1
0
POLYLINE
5
253
100
AcDbEntity
8
1
6
CONTINUOUS
62
5
100
AcDb2dPolyline
66
1
10
0.0
20
0.0
30
0.0
70
0
0
VERTEX
5
254
100
AcDbEntity
8
1
100
AcDbVertex
100
AcDb2dVertex
62
5
10
119.750000
20
336.187500
0
VERTEX
5
255
100
AcDbEntity
8
1
100
AcDbVertex
100
AcDb2dVertex
62
5
10
119.750000
20
333.687500
0
VERTEX
5
256
100
AcDbEntity
8
1
100
AcDbVertex
100
AcDb2dVertex
62
5
10
120.250000
20
331.812500
0
VERTEX
5
257
100
AcDbEntity
8
1
100
AcDbVertex
100
AcDb2dVertex
62
5
10
121.250000
20
330.250000
0
VERTEX
5
258
100
AcDbEntity
8
1
100
AcDbVertex
100
AcDb2dVertex
62
5
10
122.250000
20
329.312500
0
SEQEND
5
259
100
AcDbEntity
8
1
0
LINE
5
25a
100
AcDbEntity
8
1
100
AcDbLine
6
CONTINUOUS
62
5
10
126.500000
20
338.062500
11
127.250000
21
336.500000
0
LINE
5
25b
100
AcDbEntity
8
1
100
AcDbLine
6
CONTINUOUS
62
5
10
129.250000
20
338.062500
11
128.250000
21
336.500000
0
LINE
5
25c
100
AcDbEntity
8
1
100
AcDbLine
6
CONTINUOUS
62
5
10
125.750000
20
336.187500
11
130.000000
21
336.187500
0
LINE
5
25d
100
AcDbEntity
8
1
100
AcDbLine
6
CONTINUOUS
62
5
10
125.500000
20
334.312500
11
130.250000
21
334.312500
0
POLYLINE
5
25e
100
AcDbEntity
8
1
6
CONTINUOUS
62
5
100
AcDb2dPolyline
66
1
10
0.0
20
0.0
30
0.0
70
0
0
VERTEX
5
25f
100
AcDbEntity
8
1
100
AcDbVertex
100
AcDb2dVertex
62
5
10
127.750000
20
336.187500
0
VERTEX
5
260
100
AcDbEntity
8
1
100
AcDbVertex
100
AcDb2dVertex
62
5
10
127.750000
20
334.000000
0
VERTEX
5
261
100
AcDbEntity
8
1
100
AcDbVertex
100
AcDb2dVertex
62
5
10
127.250000
20
332.750000
0
VERTEX
5
262
100
AcDbEntity
8
1
100
AcDbVertex
100
AcDb2dVertex
62
5
10
126.250000
20
331.812500
0
SEQEND
5
263
100
AcDbEntity
8
1
0
POLYLINE
5
264
100
AcDbEntity
8
1
6
CONTINUOUS
62
5
100
AcDb2dPolyline
66
1
10
0.0
20
0.0
30
0.0
70
0
0
VERTEX
5
265
100
AcDbEntity
8
1
100
AcDbVertex
100
AcDb2dVertex
62
5
10
127.750000
20
333.687500
0
VERTEX
5
266
100
AcDbEntity
8
1
100
AcDbVertex
100
AcDb2dVertex
62
5
10
129.000000
20
332.750000
0
VERTEX
5
267
100
AcDbEntity
8
1
100
AcDbVertex
100
AcDb2dVertex
62
5
10
130.000000
20
331.812500
0
SEQEND
5
268
100
AcDbEntity
8
1
0
LINE
5
269
100
AcDbEntity
8
1
100
AcDbLine
6
CONTINUOUS
62
5
10
124.000000
20
338.062500
11
125.000000
21
336.812500
0
POLYLINE
5
26a
100
AcDbEntity
8
1
6
CONTINUOUS
62
5
100
AcDb2dPolyline
66
1
10
0.0
20
0.0
30
0.0
70
0
0
VERTEX
5
26b
100
AcDbEntity
8
1
100
AcDbVertex
100
AcDb2dVertex
62
5
10
123.500000
20
334.625000
0
VERTEX
5
26c
100
AcDbEntity
8
1
100
AcDbVertex
100
AcDb2dVertex
62
5
10
125.000000
20
334.625000
0
VERTEX
5
26d
100
AcDbEntity
8
1
100
AcDbVertex
100
AcDb2dVertex
62
5
10
125.000000
20
331.500000
0
VERTEX
5
26e
100
AcDbEntity
8
1
100
AcDbVertex
100
AcDb2dVertex
62
5
10
123.750000
20
330.250000
0
SEQEND
5
26f
100
AcDbEntity
8
1
0
POLYLINE
5
270
100
AcDbEntity
8
1
6
CONTINUOUS
62
5
100
AcDb2dPolyline
66
1
10
0.0
20
0.0
30
0.0
70
0
0
VERTEX
5
271
100
AcDbEntity
8
1
100
AcDbVertex
100
AcDb2dVertex
62
5
10
125.000000
20
331.500000
0
VERTEX
5
272
100
AcDbEntity
8
1
100
AcDbVertex
100
AcDb2dVertex
62
5
10
125.750000
20
330.562500
0
VERTEX
5
273
100
AcDbEntity
8
1
100
AcDbVertex
100
AcDb2dVertex
62
5
10
126.500000
20
330.250000
0
VERTEX
5
274
100
AcDbEntity
8
1
100
AcDbVertex
100
AcDb2dVertex
62
5
10
130.250000
20
329.937500
0
SEQEND
5
275
100
AcDbEntity
8
1
0
POLYLINE
5
276
100
AcDbEntity
8
1
6
CONTINUOUS
62
5
100
AcDb2dPolyline
66
1
10
0.0
20
0.0
30
0.0
70
0
0
VERTEX
5
277
100
AcDbEntity
8
1
100
AcDbVertex
100
AcDb2dVertex
62
5
10
126.250000
20
324.937500
0
VERTEX
5
278
100
AcDbEntity
8
1
100
AcDbVertex
100
AcDb2dVertex
62
5
10
126.500000
20
324.937500
0
VERTEX
5
279
100
AcDbEntity
8
1
100
AcDbVertex
100
AcDb2dVertex
62
5
10
128.250000
20
323.687500
0
SEQEND
5
27a
100
AcDbEntity
8
1
0
LINE
5
27b
100
AcDbEntity
8
1
100
AcDbLine
6
CONTINUOUS
62
5
10
126.250000
20
327.750000
11
126.250000
21
320.250000
0
POLYLINE
5
27c
100
AcDbEntity
8
1
6
CONTINUOUS
62
5
100
AcDb2dPolyline
66
1
10
0.0
20
0.0
30
0.0
70
0
0
VERTEX
5
27d
100
AcDbEntity
8
1
100
AcDbVertex
100
AcDb2dVertex
62
5
10
87.500000
20
299.562500
0
VERTEX
5
27e
100
AcDbEntity
8
1
100
AcDbVertex
100
AcDb2dVertex
62
5
10
87.500000
20
300.500000
0
VERTEX
5
27f
100
AcDbEntity
8
1
100
AcDbVertex
100
AcDb2dVertex
62
5
10
90.625000
20
300.500000
0
VERTEX
5
280
100
AcDbEntity
8
1
100
AcDbVertex
100
AcDb2dVertex
62
5
10
90.625000
20
299.875000
0
VERTEX
5
281
100
AcDbEntity
8
1
100
AcDbVertex
100
AcDb2dVertex
62
5
10
90.000000
20
298.312500
0
VERTEX
5
282
100
AcDbEntity
8
1
100
AcDbVertex
100
AcDb2dVertex
62
5
10
89.375000
20
296.125000
0
VERTEX
5
283
100
AcDbEntity
8
1
100
AcDbVertex
100
AcDb2dVertex
62
5
10
88.750000
20
293.000000
0
SEQEND
5
284
100
AcDbEntity
8
1
0
POLYLINE
5
285
100
AcDbEntity
8
1
6
CONTINUOUS
62
5
100
AcDb2dPolyline
66
1
10
0.0
20
0.0
30
0.0
70
0
0
VERTEX
5
286
100
AcDbEntity
8
1
100
AcDbVertex
100
AcDb2dVertex
62
5
10
92.500000
20
299.562500
0
VERTEX
5
287
100
AcDbEntity
8
1
100
AcDbVertex
100
AcDb2dVertex
62
5
10
92.500000
20
300.500000
0
VERTEX
5
288
100
AcDbEntity
8
1
100
AcDbVertex
100
AcDb2dVertex
62
5
10
95.625000
20
300.500000
0
VERTEX
5
289
100
AcDbEntity
8
1
100
AcDbVertex
100
AcDb2dVertex
62
5
10
95.625000
20
299.875000
0
VERTEX
5
28a
100
AcDbEntity
8
1
100
AcDbVertex
100
AcDb2dVertex
62
5
10
95.000000
20
298.312500
0
VERTEX
5
28b
100
AcDbEntity
8
1
100
AcDbVertex
100
AcDb2dVertex
62
5
10
94.375000
20
296.125000
0
VERTEX
5
28c
100
AcDbEntity
8
1
100
AcDbVertex
100
AcDb2dVertex
62
5
10
93.750000
20
293.000000
0
SEQEND
5
28d
100
AcDbEntity
8
1
0
POLYLINE
5
28e
100
AcDbEntity
8
1
6
CONTINUOUS
62
5
100
AcDb2dPolyline
66
1
10
0.0
20
0.0
30
0.0
70
0
0
VERTEX
5
28f
100
AcDbEntity
8
1
100
AcDbVertex
100
AcDb2dVertex
62
5
10
97.187500
20
300.500000
0
VERTEX
5
290
100
AcDbEntity
8
1
100
AcDbVertex
100
AcDb2dVertex
62
5
10
98.125000
20
293.000000
0
VERTEX
5
291
100
AcDbEntity
8
1
100
AcDbVertex
100
AcDb2dVertex
62
5
10
99.062500
20
300.500000
0
VERTEX
5
292
100
AcDbEntity
8
1
100
AcDbVertex
100
AcDb2dVertex
62
5
10
100.000000
20
293.000000
0
VERTEX
5
293
100
AcDbEntity
8
1
100
AcDbVertex
100
AcDb2dVertex
62
5
10
100.937500
20
300.500000
0
SEQEND
5
294
100
AcDbEntity
8
1
0
LINE
5
295
100
AcDbEntity
8
1
100
AcDbLine
6
CONTINUOUS
62
5
10
102.500000
20
300.500000
11
102.500000
21
293.000000
0
POLYLINE
5
296
100
AcDbEntity
8
1
6
CONTINUOUS
62
5
100
AcDb2dPolyline
66
1
10
0.0
20
0.0
30
0.0
70
0
0
VERTEX
5
297
100
AcDbEntity
8
1
100
AcDbVertex
100
AcDb2dVertex
62
5
10
102.500000
20
300.500000
0
VERTEX
5
298
100
AcDbEntity
8
1
100
AcDbVertex
100
AcDb2dVertex
62
5
10
103.750000
20
300.500000
0
VERTEX
5
299
100
AcDbEntity
8
1
100
AcDbVertex
100
AcDb2dVertex
62
5
10
104.687500
20
300.187500
0
VERTEX
5
29a
100
AcDbEntity
8
1
100
AcDbVertex
100
AcDb2dVertex
62
5
10
105.312500
20
299.562500
0
VERTEX
5
29b
100
AcDbEntity
8
1
100
AcDbVertex
100
AcDb2dVertex
62
5
10
105.625000
20
298.937500
0
VERTEX
5
29c
100
AcDbEntity
8
1
100
AcDbVertex
100
AcDb2dVertex
62
5
10
105.625000
20
298.000000
0
VERTEX
5
29d
100
AcDbEntity
8
1
100
AcDbVertex
100
AcDb2dVertex
62
5
10
105.312500
20
297.375000
0
VERTEX
5
29e
100
AcDbEntity
8
1
100
AcDbVertex
100
AcDb2dVertex
62
5
10
104.687500
20
296.750000
0
VERTEX
5
29f
100
AcDbEntity
8
1
100
AcDbVertex
100
AcDb2dVertex
62
5
10
103.750000
20
296.437500
0
VERTEX
5
2a0
100
AcDbEntity
8
1
100
AcDbVertex
100
AcDb2dVertex
62
5
10
102.500000
20
296.437500
0
SEQEND
5
2a1
100
AcDbEntity
8
1
0
POLYLINE
5
2a2
100
AcDbEntity
8
1
6
CONTINUOUS
62
5
100
AcDb2dPolyline
66
1
10
0.0
20
0.0
30
0.0
70
0
0
VERTEX
5
2a3
100
AcDbEntity
8
1
100
AcDbVertex
100
AcDb2dVertex
62
5
10
107.500000
20
293.000000
0
VERTEX
5
2a4
100
AcDbEntity
8
1
100
AcDbVertex
100
AcDb2dVertex
62
5
10
109.062500
20
300.500000
0
VERTEX
5
2a5
100
AcDbEntity
8
1
100
AcDbVertex
100
AcDb2dVertex
62
5
10
110.625000
20
293.000000
0
SEQEND
5
2a6
100
AcDbEntity
8
1
0
LINE
5
2a7
100
AcDbEntity
8
1
100
AcDbLine
6
CONTINUOUS
62
5
10
108.125000
20
295.500000
11
110.000000
21
295.500000
0
LINE
5
2a8
100
AcDbEntity
8
1
100
AcDbLine
6
CONTINUOUS
62
5
10
117.500000
20
300.500000
11
117.500000
21
293.000000
0
POLYLINE
5
2a9
100
AcDbEntity
8
1
6
CONTINUOUS
62
5
100
AcDb2dPolyline
66
1
10
0.0
20
0.0
30
0.0
70
0
0
VERTEX
5
2aa
100
AcDbEntity
8
1
100
AcDbVertex
100
AcDb2dVertex
62
5
10
117.500000
20
300.500000
0
VERTEX
5
2ab
100
AcDbEntity
8
1
100
AcDbVertex
100
AcDb2dVertex
62
5
10
118.750000
20
300.500000
0
VERTEX
5
2ac
100
AcDbEntity
8
1
100
AcDbVertex
100
AcDb2dVertex
62
5
10
119.687500
20
300.187500
0
VERTEX
5
2ad
100
AcDbEntity
8
1
100
AcDbVertex
100
AcDb2dVertex
62
5
10
120.312500
20
299.562500
0
VERTEX
5
2ae
100
AcDbEntity
8
1
100
AcDbVertex
100
AcDb2dVertex
62
5
10
120.625000
20
298.937500
0
VERTEX
5
2af
100
AcDbEntity
8
1
100
AcDbVertex
100
AcDb2dVertex
62
5
10
120.625000
20
298.000000
0
VERTEX
5
2b0
100
AcDbEntity
8
1
100
AcDbVertex
100
AcDb2dVertex
62
5
10
120.312500
20
297.375000
0
VERTEX
5
2b1
100
AcDbEntity
8
1
100
AcDbVertex
100
AcDb2dVertex
62
5
10
119.687500
20
296.750000
0
VERTEX
5
2b2
100
AcDbEntity
8
1
100
AcDbVertex
100
AcDb2dVertex
62
5
10
118.750000
20
296.437500
0
VERTEX
5
2b3
100
AcDbEntity
8
1
100
AcDbVertex
100
AcDb2dVertex
62
5
10
117.500000
20
296.437500
0
SEQEND
5
2b4
100
AcDbEntity
8
1
0
POLYLINE
5
2b5
100
AcDbEntity
8
1
6
CONTINUOUS
62
5
100
AcDb2dPolyline
66
1
10
0.0
20
0.0
30
0.0
70
0
0
VERTEX
5
2b6
100
AcDbEntity
8
1
100
AcDbVertex
100
AcDb2dVertex
62
5
10
122.187500
20
300.500000
0
VERTEX
5
2b7
100
AcDbEntity
8
1
100
AcDbVertex
100
AcDb2dVertex
62
5
10
123.125000
20
293.000000
0
VERTEX
5
2b8
100
AcDbEntity
8
1
100
AcDbVertex
100
AcDb2dVertex
62
5
10
124.062500
20
300.500000
0
VERTEX
5
2b9
100
AcDbEntity
8
1
100
AcDbVertex
100
AcDb2dVertex
62
5
10
125.000000
20
293.000000
0
VERTEX
5
2ba
100
AcDbEntity
8
1
100
AcDbVertex
100
AcDb2dVertex
62
5
10
125.937500
20
300.500000
0
SEQEND
5
2bb
100
AcDbEntity
8
1
0
POLYLINE
5
2bc
100
AcDbEntity
8
1
6
CONTINUOUS
62
5
100
AcDb2dPolyline
66
1
10
0.0
20
0.0
30
0.0
70
0
0
VERTEX
5
2bd
100
AcDbEntity
8
1
100
AcDbVertex
100
AcDb2dVertex
62
5
10
76.750000
20
326.500000
0
VERTEX
5
2be
100
AcDbEntity
8
1
100
AcDbVertex
100
AcDb2dVertex
62
5
10
76.750000
20
321.187500
0
VERTEX
5
2bf
100
AcDbEntity
8
1
100
AcDbVertex
100
AcDb2dVertex
62
5
10
77.250000
20
320.562500
0
VERTEX
5
2c0
100
AcDbEntity
8
1
100
AcDbVertex
100
AcDb2dVertex
62
5
10
80.750000
20
320.562500
0
SEQEND
5
2c1
100
AcDbEntity
8
1
0
LINE
5
2c2
100
AcDbEntity
8
1
100
AcDbLine
6
CONTINUOUS
62
5
10
80.250000
20
324.625000
11
76.750000
21
323.687500
0
POLYLINE
5
2c3
100
AcDbEntity
8
1
6
CONTINUOUS
62
5
100
AcDb2dPolyline
66
1
10
0.0
20
0.0
30
0.0
70
1
0
VERTEX
5
2c4
100
AcDbEntity
8
1
100
AcDbVertex
100
AcDb2dVertex
62
5
10
80.250000
20
326.500000
0
VERTEX
5
2c5
100
AcDbEntity
8
1
100
AcDbVertex
100
AcDb2dVertex
62
5
10
80.750000
20
327.125000
0
VERTEX
5
2c6
100
AcDbEntity
8
1
100
AcDbVertex
100
AcDb2dVertex
62
5
10
81.000000
20
327.125000
0
VERTEX
5
2c7
100
AcDbEntity
8
1
100
AcDbVertex
100
AcDb2dVertex
62
5
10
81.500000
20
326.500000
0
VERTEX
5
2c8
100
AcDbEntity
8
1
100
AcDbVertex
100
AcDb2dVertex
62
5
10
81.500000
20
326.187500
0
VERTEX
5
2c9
100
AcDbEntity
8
1
100
AcDbVertex
100
AcDb2dVertex
62
5
10
81.000000
20
325.562500
0
VERTEX
5
2ca
100
AcDbEntity
8
1
100
AcDbVertex
100
AcDb2dVertex
62
5
10
80.750000
20
325.562500
0
VERTEX
5
2cb
100
AcDbEntity
8
1
100
AcDbVertex
100
AcDb2dVertex
62
5
10
80.250000
20
326.187500
0
VERTEX
5
2cc
100
AcDbEntity
8
1
100
AcDbVertex
100
AcDb2dVertex
62
5
10
80.250000
20
326.500000
0
SEQEND
5
2cd
100
AcDbEntity
8
1
0
POLYLINE
5
2ce
100
AcDbEntity
8
1
6
CONTINUOUS
62
5
100
AcDb2dPolyline
66
1
10
0.0
20
0.0
30
0.0
70
0
0
VERTEX
5
2cf
100
AcDbEntity
8
1
100
AcDbVertex
100
AcDb2dVertex
62
5
10
78.000000
20
337.750000
0
VERTEX
5
2d0
100
AcDbEntity
8
1
100
AcDbVertex
100
AcDb2dVertex
62
5
10
75.750000
20
332.125000
0
VERTEX
5
2d1
100
AcDbEntity
8
1
100
AcDbVertex
100
AcDb2dVertex
62
5
10
78.750000
20
332.125000
0
SEQEND
5
2d2
100
AcDbEntity
8
1
0
LINE
5
2d3
100
AcDbEntity
8
1
100
AcDbLine
6
CONTINUOUS
62
5
10
78.000000
20
337.750000
11
78.000000
21
330.250000
0
LINE
5
2d4
100
AcDbEntity
8
1
100
AcDbLine
6
CONTINUOUS
62
5
10
77.500000
20
330.250000
11
78.500000
21
330.250000
0
LINE
5
2d5
100
AcDbEntity
8
1
100
AcDbLine
6
CONTINUOUS
62
5
10
80.000000
20
337.750000
11
80.000000
21
330.250000
0
LINE
5
2d6
100
AcDbEntity
8
1
100
AcDbLine
6
CONTINUOUS
62
5
10
82.500000
20
337.750000
11
80.000000
21
333.375000
0
LINE
5
2d7
100
AcDbEntity
8
1
100
AcDbLine
6
CONTINUOUS
62
5
10
80.750000
20
334.625000
11
82.750000
21
330.250000
0
LINE
5
2d8
100
AcDbEntity
8
1
100
AcDbLine
6
CONTINUOUS
62
5
10
50.000000
20
350.000000
11
50.000000
21
318.000000
0
LINE
5
2d9
100
AcDbEntity
8
1
100
AcDbLine
6
CONTINUOUS
62
5
10
50.000000
20
350.000000
11
50.000000
21
318.000000
0
LINE
5
2da
100
AcDbEntity
8
1
100
AcDbLine
6
CONTINUOUS
62
5
10
77.500000
20
296.750000
11
80.625000
21
296.750000
0
POLYLINE
5
2db
100
AcDbEntity
8
1
6
CONTINUOUS
62
5
100
AcDb2dPolyline
66
1
10
0.0
20
0.0
30
0.0
70
0
0
VERTEX
5
2dc
100
AcDbEntity
8
1
100
AcDbVertex
100
AcDb2dVertex
62
5
10
65.625000
20
298.937500
0
VERTEX
5
2dd
100
AcDbEntity
8
1
100
AcDbVertex
100
AcDb2dVertex
62
5
10
65.312500
20
299.875000
0
VERTEX
5
2de
100
AcDbEntity
8
1
100
AcDbVertex
100
AcDb2dVertex
62
5
10
64.687500
20
300.500000
0
VERTEX
5
2df
100
AcDbEntity
8
1
100
AcDbVertex
100
AcDb2dVertex
62
5
10
63.750000
20
300.500000
0
VERTEX
5
2e0
100
AcDbEntity
8
1
100
AcDbVertex
100
AcDb2dVertex
62
5
10
62.812500
20
299.562500
0
VERTEX
5
2e1
100
AcDbEntity
8
1
100
AcDbVertex
100
AcDb2dVertex
62
5
10
62.500000
20
298.000000
0
VERTEX
5
2e2
100
AcDbEntity
8
1
100
AcDbVertex
100
AcDb2dVertex
62
5
10
62.500000
20
295.500000
0
VERTEX
5
2e3
100
AcDbEntity
8
1
100
AcDbVertex
100
AcDb2dVertex
62
5
10
62.812500
20
293.937500
0
VERTEX
5
2e4
100
AcDbEntity
8
1
100
AcDbVertex
100
AcDb2dVertex
62
5
10
63.750000
20
293.000000
0
VERTEX
5
2e5
100
AcDbEntity
8
1
100
AcDbVertex
100
AcDb2dVertex
62
5
10
64.687500
20
293.000000
0
VERTEX
5
2e6
100
AcDbEntity
8
1
100
AcDbVertex
100
AcDb2dVertex
62
5
10
65.312500
20
293.625000
0
VERTEX
5
2e7
100
AcDbEntity
8
1
100
AcDbVertex
100
AcDb2dVertex
62
5
10
65.937500
20
295.187500
0
SEQEND
5
2e8
100
AcDbEntity
8
1
0
POLYLINE
5
2e9
100
AcDbEntity
8
1
6
CONTINUOUS
62
5
100
AcDb2dPolyline
66
1
10
0.0
20
0.0
30
0.0
70
0
0
VERTEX
5
2ea
100
AcDbEntity
8
1
100
AcDbVertex
100
AcDb2dVertex
62
5
10
70.625000
20
298.937500
0
VERTEX
5
2eb
100
AcDbEntity
8
1
100
AcDbVertex
100
AcDb2dVertex
62
5
10
70.000000
20
300.187500
0
VERTEX
5
2ec
100
AcDbEntity
8
1
100
AcDbVertex
100
AcDb2dVertex
62
5
10
69.062500
20
300.500000
0
VERTEX
5
2ed
100
AcDbEntity
8
1
100
AcDbVertex
100
AcDb2dVertex
62
5
10
68.437500
20
300.500000
0
VERTEX
5
2ee
100
AcDbEntity
8
1
100
AcDbVertex
100
AcDb2dVertex
62
5
10
67.812500
20
300.187500
0
VERTEX
5
2ef
100
AcDbEntity
8
1
100
AcDbVertex
100
AcDb2dVertex
62
5
10
67.187500
20
299.250000
0
VERTEX
5
2f0
100
AcDbEntity
8
1
100
AcDbVertex
100
AcDb2dVertex
62
5
10
67.187500
20
298.312500
0
VERTEX
5
2f1
100
AcDbEntity
8
1
100
AcDbVertex
100
AcDb2dVertex
62
5
10
67.812500
20
297.375000
0
VERTEX
5
2f2
100
AcDbEntity
8
1
100
AcDbVertex
100
AcDb2dVertex
62
5
10
70.000000
20
296.125000
0
VERTEX
5
2f3
100
AcDbEntity
8
1
100
AcDbVertex
100
AcDb2dVertex
62
5
10
70.625000
20
295.187500
0
VERTEX
5
2f4
100
AcDbEntity
8
1
100
AcDbVertex
100
AcDb2dVertex
62
5
10
70.625000
20
294.250000
0
VERTEX
5
2f5
100
AcDbEntity
8
1
100
AcDbVertex
100
AcDb2dVertex
62
5
10
70.000000
20
293.312500
0
VERTEX
5
2f6
100
AcDbEntity
8
1
100
AcDbVertex
100
AcDb2dVertex
62
5
10
69.062500
20
293.000000
0
VERTEX
5
2f7
100
AcDbEntity
8
1
100
AcDbVertex
100
AcDb2dVertex
62
5
10
68.437500
20
293.000000
0
VERTEX
5
2f8
100
AcDbEntity
8
1
100
AcDbVertex
100
AcDb2dVertex
62
5
10
67.500000
20
293.625000
0
VERTEX
5
2f9
100
AcDbEntity
8
1
100
AcDbVertex
100
AcDb2dVertex
62
5
10
67.187500
20
294.875000
0
SEQEND
5
2fa
100
AcDbEntity
8
1
0
POLYLINE
5
2fb
100
AcDbEntity
8
1
6
CONTINUOUS
62
5
100
AcDb2dPolyline
66
1
10
0.0
20
0.0
30
0.0
70
0
0
VERTEX
5
2fc
100
AcDbEntity
8
1
100
AcDbVertex
100
AcDb2dVertex
62
5
10
75.625000
20
300.500000
0
VERTEX
5
2fd
100
AcDbEntity
8
1
100
AcDbVertex
100
AcDb2dVertex
62
5
10
72.500000
20
300.500000
0
VERTEX
5
2fe
100
AcDbEntity
8
1
100
AcDbVertex
100
AcDb2dVertex
62
5
10
72.500000
20
293.000000
0
SEQEND
5
2ff
100
AcDbEntity
8
1
0
LINE
5
300
100
AcDbEntity
8
1
100
AcDbLine
6
CONTINUOUS
62
5
10
72.500000
20
296.750000
11
75.000000
21
296.750000
0
LINE
5
301
100
AcDbEntity
8
1
100
AcDbLine
6
CONTINUOUS
62
5
10
82.500000
20
300.500000
11
82.500000
21
293.000000
0
LINE
5
302
100
AcDbEntity
8
1
100
AcDbLine
6
CONTINUOUS
62
5
10
85.625000
20
300.500000
11
82.500000
21
296.125000
0
LINE
5
303
100
AcDbEntity
8
1
100
AcDbLine
6
CONTINUOUS
62
5
10
83.437500
20
297.375000
11
85.937500
21
293.000000
0
POLYLINE
5
304
100
AcDbEntity
8
1
6
CONTINUOUS
62
5
100
AcDb2dPolyline
66
1
10
0.0
20
0.0
30
0.0
70
0
0
VERTEX
5
305
100
AcDbEntity
8
1
100
AcDbVertex
100
AcDb2dVertex
62
5
10
85.500000
20
324.312500
0
VERTEX
5
306
100
AcDbEntity
8
1
100
AcDbVertex
100
AcDb2dVertex
62
5
10
87.500000
20
324.312500
0
VERTEX
5
307
100
AcDbEntity
8
1
100
AcDbVertex
100
AcDb2dVertex
62
5
10
87.250000
20
321.187500
0
SEQEND
5
308
100
AcDbEntity
8
1
0
LINE
5
309
100
AcDbEntity
8
1
100
AcDbLine
6
CONTINUOUS
62
5
10
84.750000
20
321.187500
11
89.000000
21
321.187500
0
LINE
5
30a
100
AcDbEntity
8
1
100
AcDbLine
6
CONTINUOUS
62
5
10
145.349999
20
188.500017
11
145.349999
21
188.150017
0
LINE
5
30b
100
AcDbEntity
8
1
100
AcDbLine
6
CONTINUOUS
62
5
10
146.099999
20
190.800017
11
146.099999
21
189.000017
0
ARC
5
30c
100
AcDbEntity
8
1
100
AcDbCircle
6
CONTINUOUS
62
5
10
145.600000
20
189.000017
40
0.500000
100
AcDbArc
50
-89.999999
51
0.000000
0
LINE
5
30d
100
AcDbEntity
8
1
100
AcDbLine
6
CONTINUOUS
62
5
10
145.350000
20
193.150017
11
145.350000
21
191.300017
0
LINE
5
30e
100
AcDbEntity
8
1
100
AcDbLine
6
CONTINUOUS
62
5
10
145.349999
20
193.150017
11
145.349999
21
191.300017
0
ARC
5
30f
100
AcDbEntity
8
1
100
AcDbCircle
6
CONTINUOUS
62
5
10
145.600000
20
190.800017
40
0.500000
100
AcDbArc
50
0.000000
51
89.999999
0
POLYLINE
5
310
100
AcDbEntity
8
1
6
CONTINUOUS
62
5
100
AcDb2dPolyline
66
1
10
0.0
20
0.0
30
0.0
70
0
0
VERTEX
5
311
100
AcDbEntity
8
1
100
AcDbVertex
100
AcDb2dVertex
62
5
10
138.350000
20
194.000152
0
VERTEX
5
312
100
AcDbEntity
8
1
100
AcDbVertex
100
AcDb2dVertex
62
5
10
138.349013
20
194.031552
0
VERTEX
5
313
100
AcDbEntity
8
1
100
AcDbVertex
100
AcDb2dVertex
62
5
10
138.346056
20
194.062827
0
VERTEX
5
314
100
AcDbEntity
8
1
100
AcDbVertex
100
AcDb2dVertex
62
5
10
138.341141
20
194.093853
0
VERTEX
5
315
100
AcDbEntity
8
1
100
AcDbVertex
100
AcDb2dVertex
62
5
10
138.334286
20
194.124509
0
VERTEX
5
316
100
AcDbEntity
8
1
100
AcDbVertex
100
AcDb2dVertex
62
5
10
138.325520
20
194.154673
0
VERTEX
5
317
100
AcDbEntity
8
1
100
AcDbVertex
100
AcDb2dVertex
62
5
10
138.314876
20
194.184227
0
VERTEX
5
318
100
AcDbEntity
8
1
100
AcDbVertex
100
AcDb2dVertex
62
5
10
138.302397
20
194.213053
0
VERTEX
5
319
100
AcDbEntity
8
1
100
AcDbVertex
100
AcDb2dVertex
62
5
10
138.288132
20
194.241038
0
VERTEX
5
31a
100
AcDbEntity
8
1
100
AcDbVertex
100
AcDb2dVertex
62
5
10
138.272137
20
194.268071
0
VERTEX
5
31b
100
AcDbEntity
8
1
100
AcDbVertex
100
AcDb2dVertex
62
5
10
138.254476
20
194.294046
0
VERTEX
5
31c
100
AcDbEntity
8
1
100
AcDbVertex
100
AcDb2dVertex
62
5
10
138.235217
20
194.318860
0
VERTEX
5
31d
100
AcDbEntity
8
1
100
AcDbVertex
100
AcDb2dVertex
62
5
10
138.214438
20
194.342416
0
VERTEX
5
31e
100
AcDbEntity
8
1
100
AcDbVertex
100
AcDb2dVertex
62
5
10
138.192219
20
194.364620
0
VERTEX
5
31f
100
AcDbEntity
8
1
100
AcDbVertex
100
AcDb2dVertex
62
5
10
138.168650
20
194.385385
0
VERTEX
5
320
100
AcDbEntity
8
1
100
AcDbVertex
100
AcDb2dVertex
62
5
10
138.143822
20
194.404628
0
VERTEX
5
321
100
AcDbEntity
8
1
100
AcDbVertex
100
AcDb2dVertex
62
5
10
138.117834
20
194.422274
0
VERTEX
5
322
100
AcDbEntity
8
1
100
AcDbVertex
100
AcDb2dVertex
62
5
10
138.090788
20
194.438254
0
VERTEX
5
323
100
AcDbEntity
8
1
100
AcDbVertex
100
AcDb2dVertex
62
5
10
138.062791
20
194.452504
0
VERTEX
5
324
100
AcDbEntity
8
1
100
AcDbVertex
100
AcDb2dVertex
62
5
10
138.033954
20
194.464967
0
VERTEX
5
325
100
AcDbEntity
8
1
100
AcDbVertex
100
AcDb2dVertex
62
5
10
138.004390
20
194.475595
0
VERTEX
5
326
100
AcDbEntity
8
1
100
AcDbVertex
100
AcDb2dVertex
62
5
10
137.974216
20
194.484346
0
VERTEX
5
327
100
AcDbEntity
8
1
100
AcDbVertex
100
AcDb2dVertex
62
5
10
137.943551
20
194.491185
0
VERTEX
5
328
100
AcDbEntity
8
1
100
AcDbVertex
100
AcDb2dVertex
62
5
10
137.912517
20
194.496085
0
VERTEX
5
329
100
AcDbEntity
8
1
100
AcDbVertex
100
AcDb2dVertex
62
5
10
137.881235
20
194.499028
0
VERTEX
5
32a
100
AcDbEntity
8
1
100
AcDbVertex
100
AcDb2dVertex
62
5
10
137.850057
20
194.500000
0
SEQEND
5
32b
100
AcDbEntity
8
1
0
POLYLINE
5
32c
100
AcDbEntity
8
1
6
CONTINUOUS
62
5
100
AcDb2dPolyline
66
1
10
0.0
20
0.0
30
0.0
70
0
0
VERTEX
5
32d
100
AcDbEntity
8
1
100
AcDbVertex
100
AcDb2dVertex
62
5
10
138.400000
20
189.981680
0
VERTEX
5
32e
100
AcDbEntity
8
1
100
AcDbVertex
100
AcDb2dVertex
62
5
10
138.400000
20
189.980966
0
VERTEX
5
32f
100
AcDbEntity
8
1
100
AcDbVertex
100
AcDb2dVertex
62
5
10
138.400000
20
189.978938
0
VERTEX
5
330
100
AcDbEntity
8
1
100
AcDbVertex
100
AcDb2dVertex
62
5
10
138.400000
20
189.975766
0
VERTEX
5
331
100
AcDbEntity
8
1
100
AcDbVertex
100
AcDb2dVertex
62
5
10
138.400000
20
189.971618
0
VERTEX
5
332
100
AcDbEntity
8
1
100
AcDbVertex
100
AcDb2dVertex
62
5
10
138.400000
20
189.966667
0
VERTEX
5
333
100
AcDbEntity
8
1
100
AcDbVertex
100
AcDb2dVertex
62
5
10
138.400000
20
189.961080
0
VERTEX
5
334
100
AcDbEntity
8
1
100
AcDbVertex
100
AcDb2dVertex
62
5
10
138.400000
20
189.955027
0
VERTEX
5
335
100
AcDbEntity
8
1
100
AcDbVertex
100
AcDb2dVertex
62
5
10
138.400000
20
189.948680
0
VERTEX
5
336
100
AcDbEntity
8
1
100
AcDbVertex
100
AcDb2dVertex
62
5
10
138.400000
20
189.942207
0
VERTEX
5
337
100
AcDbEntity
8
1
100
AcDbVertex
100
AcDb2dVertex
62
5
10
138.400000
20
189.935778
0
VERTEX
5
338
100
AcDbEntity
8
1
100
AcDbVertex
100
AcDb2dVertex
62
5
10
138.400000
20
189.929564
0
VERTEX
5
339
100
AcDbEntity
8
1
100
AcDbVertex
100
AcDb2dVertex
62
5
10
138.400000
20
189.923908
0
VERTEX
5
33a
100
AcDbEntity
8
1
100
AcDbVertex
100
AcDb2dVertex
62
5
10
138.400000
20
189.918554
0
VERTEX
5
33b
100
AcDbEntity
8
1
100
AcDbVertex
100
AcDb2dVertex
62
5
10
138.400000
20
189.913448
0
VERTEX
5
33c
100
AcDbEntity
8
1
100
AcDbVertex
100
AcDb2dVertex
62
5
10
138.400000
20
189.908536
0
VERTEX
5
33d
100
AcDbEntity
8
1
100
AcDbVertex
100
AcDb2dVertex
62
5
10
138.400000
20
189.903764
0
VERTEX
5
33e
100
AcDbEntity
8
1
100
AcDbVertex
100
AcDb2dVertex
62
5
10
138.400000
20
189.899078
0
VERTEX
5
33f
100
AcDbEntity
8
1
100
AcDbVertex
100
AcDb2dVertex
62
5
10
138.400000
20
189.894425
0
VERTEX
5
340
100
AcDbEntity
8
1
100
AcDbVertex
100
AcDb2dVertex
62
5
10
138.400000
20
189.889749
0
VERTEX
5
341
100
AcDbEntity
8
1
100
AcDbVertex
100
AcDb2dVertex
62
5
10
138.400000
20
189.884998
0
VERTEX
5
342
100
AcDbEntity
8
1
100
AcDbVertex
100
AcDb2dVertex
62
5
10
138.400000
20
189.880118
0
VERTEX
5
343
100
AcDbEntity
8
1
100
AcDbVertex
100
AcDb2dVertex
62
5
10
138.400000
20
189.875054
0
VERTEX
5
344
100
AcDbEntity
8
1
100
AcDbVertex
100
AcDb2dVertex
62
5
10
138.400000
20
189.864553
0
VERTEX
5
345
100
AcDbEntity
8
1
100
AcDbVertex
100
AcDb2dVertex
62
5
10
138.400000
20
189.853317
0
VERTEX
5
346
100
AcDbEntity
8
1
100
AcDbVertex
100
AcDb2dVertex
62
5
10
138.400000
20
189.841515
0
VERTEX
5
347
100
AcDbEntity
8
1
100
AcDbVertex
100
AcDb2dVertex
62
5
10
138.400000
20
189.829311
0
VERTEX
5
348
100
AcDbEntity
8
1
100
AcDbVertex
100
AcDb2dVertex
62
5
10
138.400000
20
189.816874
0
VERTEX
5
349
100
AcDbEntity
8
1
100
AcDbVertex
100
AcDb2dVertex
62
5
10
138.400000
20
189.804370
0
VERTEX
5
34a
100
AcDbEntity
8
1
100
AcDbVertex
100
AcDb2dVertex
62
5
10
138.400000
20
189.791964
0
VERTEX
5
34b
100
AcDbEntity
8
1
100
AcDbVertex
100
AcDb2dVertex
62
5
10
138.400000
20
189.779826
0
VERTEX
5
34c
100
AcDbEntity
8
1
100
AcDbVertex
100
AcDb2dVertex
62
5
10
138.400000
20
189.768120
0
VERTEX
5
34d
100
AcDbEntity
8
1
100
AcDbVertex
100
AcDb2dVertex
62
5
10
138.400000
20
189.757014
0
VERTEX
5
34e
100
AcDbEntity
8
1
100
AcDbVertex
100
AcDb2dVertex
62
5
10
138.400000
20
189.746674
0
VERTEX
5
34f
100
AcDbEntity
8
1
100
AcDbVertex
100
AcDb2dVertex
62
5
10
138.400000
20
189.741976
0
VERTEX
5
350
100
AcDbEntity
8
1
100
AcDbVertex
100
AcDb2dVertex
62
5
10
138.400000
20
189.737446
0
VERTEX
5
351
100
AcDbEntity
8
1
100
AcDbVertex
100
AcDb2dVertex
62
5
10
138.400000
20
189.733035
0
VERTEX
5
352
100
AcDbEntity
8
1
100
AcDbVertex
100
AcDb2dVertex
62
5
10
138.400000
20
189.728693
0
VERTEX
5
353
100
AcDbEntity
8
1
100
AcDbVertex
100
AcDb2dVertex
62
5
10
138.400000
20
189.724369
0
VERTEX
5
354
100
AcDbEntity
8
1
100
AcDbVertex
100
AcDb2dVertex
62
5
10
138.400000
20
189.720014
0
VERTEX
5
355
100
AcDbEntity
8
1
100
AcDbVertex
100
AcDb2dVertex
62
5
10
138.400000
20
189.715576
0
VERTEX
5
356
100
AcDbEntity
8
1
100
AcDbVertex
100
AcDb2dVertex
62
5
10
138.400000
20
189.711005
0
VERTEX
5
357
100
AcDbEntity
8
1
100
AcDbVertex
100
AcDb2dVertex
62
5
10
138.400000
20
189.706252
0
VERTEX
5
358
100
AcDbEntity
8
1
100
AcDbVertex
100
AcDb2dVertex
62
5
10
138.400000
20
189.701266
0
VERTEX
5
359
100
AcDbEntity
8
1
100
AcDbVertex
100
AcDb2dVertex
62
5
10
138.400000
20
189.695996
0
VERTEX
5
35a
100
AcDbEntity
8
1
100
AcDbVertex
100
AcDb2dVertex
62
5
10
138.400000
20
189.690486
0
VERTEX
5
35b
100
AcDbEntity
8
1
100
AcDbVertex
100
AcDb2dVertex
62
5
10
138.400000
20
189.684797
0
VERTEX
5
35c
100
AcDbEntity
8
1
100
AcDbVertex
100
AcDb2dVertex
62
5
10
138.400000
20
189.679078
0
VERTEX
5
35d
100
AcDbEntity
8
1
100
AcDbVertex
100
AcDb2dVertex
62
5
10
138.400000
20
189.673477
0
VERTEX
5
35e
100
AcDbEntity
8
1
100
AcDbVertex
100
AcDb2dVertex
62
5
10
138.400000
20
189.668142
0
VERTEX
5
35f
100
AcDbEntity
8
1
100
AcDbVertex
100
AcDb2dVertex
62
5
10
138.400000
20
189.663222
0
VERTEX
5
360
100
AcDbEntity
8
1
100
AcDbVertex
100
AcDb2dVertex
62
5
10
138.400000
20
189.658863
0
VERTEX
5
361
100
AcDbEntity
8
1
100
AcDbVertex
100
AcDb2dVertex
62
5
10
138.400000
20
189.655215
0
VERTEX
5
362
100
AcDbEntity
8
1
100
AcDbVertex
100
AcDb2dVertex
62
5
10
138.400000
20
189.652426
0
VERTEX
5
363
100
AcDbEntity
8
1
100
AcDbVertex
100
AcDb2dVertex
62
5
10
138.400000
20
189.650644
0
VERTEX
5
364
100
AcDbEntity
8
1
100
AcDbVertex
100
AcDb2dVertex
62
5
10
138.400000
20
189.650017
0
SEQEND
5
365
100
AcDbEntity
8
1
0
LINE
5
366
100
AcDbEntity
8
1
100
AcDbLine
6
CONTINUOUS
62
5
10
138.400000
20
189.981680
11
138.400000
21
190.150017
0
LINE
5
367
100
AcDbEntity
8
1
100
AcDbLine
6
CONTINUOUS
62
5
10
138.400000
20
190.150017
11
138.350000
21
190.150017
0
POLYLINE
5
368
100
AcDbEntity
8
1
6
CONTINUOUS
62
5
100
AcDb2dPolyline
66
1
10
0.0
20
0.0
30
0.0
70
0
0
VERTEX
5
369
100
AcDbEntity
8
1
100
AcDbVertex
100
AcDb2dVertex
62
5
10
138.197083
20
187.372569
0
VERTEX
5
36a
100
AcDbEntity
8
1
100
AcDbVertex
100
AcDb2dVertex
62
5
10
138.196264
20
187.369941
0
VERTEX
5
36b
100
AcDbEntity
8
1
100
AcDbVertex
100
AcDb2dVertex
62
5
10
138.195451
20
187.365353
0
VERTEX
5
36c
100
AcDbEntity
8
1
100
AcDbVertex
100
AcDb2dVertex
62
5
10
138.194646
20
187.358823
0
VERTEX
5
36d
100
AcDbEntity
8
1
100
AcDbVertex
100
AcDb2dVertex
62
5
10
138.193854
20
187.350377
0
VERTEX
5
36e
100
AcDbEntity
8
1
100
AcDbVertex
100
AcDb2dVertex
62
5
10
138.193078
20
187.340047
0
VERTEX
5
36f
100
AcDbEntity
8
1
100
AcDbVertex
100
AcDb2dVertex
62
5
10
138.192320
20
187.327875
0
VERTEX
5
370
100
AcDbEntity
8
1
100
AcDbVertex
100
AcDb2dVertex
62
5
10
138.191583
20
187.313910
0
VERTEX
5
371
100
AcDbEntity
8
1
100
AcDbVertex
100
AcDb2dVertex
62
5
10
138.190871
20
187.298205
0
VERTEX
5
372
100
AcDbEntity
8
1
100
AcDbVertex
100
AcDb2dVertex
62
5
10
138.190186
20
187.280823
0
VERTEX
5
373
100
AcDbEntity
8
1
100
AcDbVertex
100
AcDb2dVertex
62
5
10
138.189531
20
187.261832
0
VERTEX
5
374
100
AcDbEntity
8
1
100
AcDbVertex
100
AcDb2dVertex
62
5
10
138.188909
20
187.241308
0
VERTEX
5
375
100
AcDbEntity
8
1
100
AcDbVertex
100
AcDb2dVertex
62
5
10
138.188322
20
187.219332
0
VERTEX
5
376
100
AcDbEntity
8
1
100
AcDbVertex
100
AcDb2dVertex
62
5
10
138.187771
20
187.195989
0
VERTEX
5
377
100
AcDbEntity
8
1
100
AcDbVertex
100
AcDb2dVertex
62
5
10
138.187261
20
187.171373
0
VERTEX
5
378
100
AcDbEntity
8
1
100
AcDbVertex
100
AcDb2dVertex
62
5
10
138.186791
20
187.145581
0
VERTEX
5
379
100
AcDbEntity
8
1
100
AcDbVertex
100
AcDb2dVertex
62
5
10
138.186365
20
187.118713
0
VERTEX
5
37a
100
AcDbEntity
8
1
100
AcDbVertex
100
AcDb2dVertex
62
5
10
138.186103
20
187.100000
0
SEQEND
5
37b
100
AcDbEntity
8
1
0
LINE
5
37c
100
AcDbEntity
8
1
100
AcDbLine
6
CONTINUOUS
62
5
10
138.350000
20
187.678612
11
138.197084
21
187.372568
0
LINE
5
37d
100
AcDbEntity
8
1
100
AcDbLine
6
CONTINUOUS
62
5
10
138.310721
20
186.600001
11
138.400000
21
186.600001
0
LINE
5
37e
100
AcDbEntity
8
1
100
AcDbLine
6
CONTINUOUS
62
5
10
138.197084
20
186.827432
11
138.310721
21
186.600001
0
POLYLINE
5
37f
100
AcDbEntity
8
1
6
CONTINUOUS
62
5
100
AcDb2dPolyline
66
1
10
0.0
20
0.0
30
0.0
70
0
0
VERTEX
5
380
100
AcDbEntity
8
1
100
AcDbVertex
100
AcDb2dVertex
62
5
10
138.186103
20
187.100000
0
VERTEX
5
381
100
AcDbEntity
8
1
100
AcDbVertex
100
AcDb2dVertex
62
5
10
138.186499
20
187.072466
0
VERTEX
5
382
100
AcDbEntity
8
1
100
AcDbVertex
100
AcDb2dVertex
62
5
10
138.186939
20
187.045936
0
VERTEX
5
383
100
AcDbEntity
8
1
100
AcDbVertex
100
AcDb2dVertex
62
5
10
138.187422
20
187.020514
0
VERTEX
5
384
100
AcDbEntity
8
1
100
AcDbVertex
100
AcDb2dVertex
62
5
10
138.187946
20
186.996300
0
VERTEX
5
385
100
AcDbEntity
8
1
100
AcDbVertex
100
AcDb2dVertex
62
5
10
138.188508
20
186.973391
0
VERTEX
5
386
100
AcDbEntity
8
1
100
AcDbVertex
100
AcDb2dVertex
62
5
10
138.189107
20
186.951876
0
VERTEX
5
387
100
AcDbEntity
8
1
100
AcDbVertex
100
AcDb2dVertex
62
5
10
138.189740
20
186.931840
0
VERTEX
5
388
100
AcDbEntity
8
1
100
AcDbVertex
100
AcDb2dVertex
62
5
10
138.190405
20
186.913363
0
VERTEX
5
389
100
AcDbEntity
8
1
100
AcDbVertex
100
AcDb2dVertex
62
5
10
138.191099
20
186.896518
0
VERTEX
5
38a
100
AcDbEntity
8
1
100
AcDbVertex
100
AcDb2dVertex
62
5
10
138.191820
20
186.881370
0
VERTEX
5
38b
100
AcDbEntity
8
1
100
AcDbVertex
100
AcDb2dVertex
62
5
10
138.192563
20
186.867980
0
VERTEX
5
38c
100
AcDbEntity
8
1
100
AcDbVertex
100
AcDb2dVertex
62
5
10
138.193328
20
186.856401
0
VERTEX
5
38d
100
AcDbEntity
8
1
100
AcDbVertex
100
AcDb2dVertex
62
5
10
138.194110
20
186.846678
0
VERTEX
5
38e
100
AcDbEntity
8
1
100
AcDbVertex
100
AcDb2dVertex
62
5
10
138.194906
20
186.838849
0
VERTEX
5
38f
100
AcDbEntity
8
1
100
AcDbVertex
100
AcDb2dVertex
62
5
10
138.195713
20
186.832946
0
VERTEX
5
390
100
AcDbEntity
8
1
100
AcDbVertex
100
AcDb2dVertex
62
5
10
138.196529
20
186.828992
0
VERTEX
5
391
100
AcDbEntity
8
1
100
AcDbVertex
100
AcDb2dVertex
62
5
10
138.197083
20
186.827432
0
SEQEND
5
392
100
AcDbEntity
8
1
0
ARC
5
393
100
AcDbEntity
8
1
100
AcDbCircle
6
CONTINUOUS
62
5
10
138.900000
20
189.650017
40
0.500000
100
AcDbArc
50
89.999999
51
179.999998
0
LINE
5
394
100
AcDbEntity
8
1
100
AcDbLine
6
CONTINUOUS
62
5
10
138.350000
20
194.000152
11
138.350000
21
187.678612
0
ARC
5
395
100
AcDbEntity
8
1
100
AcDbCircle
6
CONTINUOUS
62
5
10
139.850000
20
189.650017
40
0.500000
100
AcDbArc
50
0.000000
51
89.999999
0
LINE
5
396
100
AcDbEntity
8
1
100
AcDbLine
6
CONTINUOUS
62
5
10
138.900000
20
190.150017
11
139.850000
21
190.150017
0
ARC
5
397
100
AcDbEntity
8
1
100
AcDbCircle
6
CONTINUOUS
62
5
10
143.650000
20
193.150017
40
0.500000
100
AcDbArc
50
0.000000
51
89.999999
0
LINE
5
398
100
AcDbEntity
8
1
100
AcDbLine
6
CONTINUOUS
62
5
10
144.150000
20
193.150017
11
144.150000
21
191.273222
0
LINE
5
399
100
AcDbEntity
8
1
100
AcDbLine
6
CONTINUOUS
62
5
10
144.150000
20
193.150017
11
144.150000
21
191.300017
0
ARC
5
39a
100
AcDbEntity
8
1
100
AcDbCircle
6
CONTINUOUS
62
5
10
144.850000
20
193.150017
40
0.500000
100
AcDbArc
50
0.000000
51
89.999999
0
ARC
5
39b
100
AcDbEntity
8
1
100
AcDbCircle
6
CONTINUOUS
62
5
10
144.850000
20
188.150017
40
0.500000
100
AcDbArc
50
-89.999999
51
0.000000
0
LINE
5
39c
100
AcDbEntity
8
1
100
AcDbLine
6
CONTINUOUS
62
5
10
143.650001
20
193.650017
11
144.850000
21
193.650017
0
LINE
5
39d
100
AcDbEntity
8
1
100
AcDbLine
6
CONTINUOUS
62
5
10
145.600000
20
188.500017
11
144.150000
21
188.500017
0
LINE
5
39e
100
AcDbEntity
8
1
100
AcDbLine
6
CONTINUOUS
62
5
10
144.150000
20
187.650018
11
144.850000
21
187.650018
0
LINE
5
39f
100
AcDbEntity
8
1
100
AcDbLine
6
CONTINUOUS
62
5
10
144.850000
20
187.650018
11
144.150000
21
187.650018
0
LINE
5
3a0
100
AcDbEntity
8
1
100
AcDbLine
6
CONTINUOUS
62
5
10
144.150000
20
191.300017
11
145.600000
21
191.300017
0
LINE
5
3a1
100
AcDbEntity
8
1
100
AcDbLine
6
CONTINUOUS
62
5
10
144.850000
20
193.650017
11
138.350000
21
193.650017
0
POLYLINE
5
3a2
100
AcDbEntity
8
1
6
CONTINUOUS
62
5
100
AcDb2dPolyline
66
1
10
0.0
20
0.0
30
0.0
70
1
0
VERTEX
5
3a3
100
AcDbEntity
8
1
100
AcDbVertex
100
AcDb2dVertex
62
5
10
113.123698
20
192.766671
0
VERTEX
5
3a4
100
AcDbEntity
8
1
100
AcDbVertex
100
AcDb2dVertex
62
5
10
113.123698
20
193.186113
0
VERTEX
5
3a5
100
AcDbEntity
8
1
100
AcDbVertex
100
AcDb2dVertex
62
5
10
115.417230
20
193.186130
0
VERTEX
5
3a6
100
AcDbEntity
8
1
100
AcDbVertex
100
AcDb2dVertex
62
5
10
115.417230
20
192.766688
0
VERTEX
5
3a7
100
AcDbEntity
8
1
100
AcDbVertex
100
AcDb2dVertex
62
5
10
114.489755
20
192.766688
0
VERTEX
5
3a8
100
AcDbEntity
8
1
100
AcDbVertex
100
AcDb2dVertex
62
5
10
114.489755
20
190.638307
0
VERTEX
5
3a9
100
AcDbEntity
8
1
100
AcDbVertex
100
AcDb2dVertex
62
5
10
114.035314
20
190.638307
0
VERTEX
5
3aa
100
AcDbEntity
8
1
100
AcDbVertex
100
AcDb2dVertex
62
5
10
114.035314
20
192.766671
0
SEQEND
5
3ab
100
AcDbEntity
8
1
0
POLYLINE
5
3ac
100
AcDbEntity
8
1
6
CONTINUOUS
62
5
100
AcDb2dPolyline
66
1
10
0.0
20
0.0
30
0.0
70
1
0
VERTEX
5
3ad
100
AcDbEntity
8
1
100
AcDbVertex
100
AcDb2dVertex
62
5
10
116.886096
20
190.609305
0
VERTEX
5
3ae
100
AcDbEntity
8
1
100
AcDbVertex
100
AcDb2dVertex
62
5
10
115.759017
20
193.186130
0
VERTEX
5
3af
100
AcDbEntity
8
1
100
AcDbVertex
100
AcDb2dVertex
62
5
10
116.224943
20
193.186130
0
VERTEX
5
3b0
100
AcDbEntity
8
1
100
AcDbVertex
100
AcDb2dVertex
62
5
10
117.099372
20
191.113150
0
VERTEX
5
3b1
100
AcDbEntity
8
1
100
AcDbVertex
100
AcDb2dVertex
62
5
10
117.973801
20
193.186113
0
VERTEX
5
3b2
100
AcDbEntity
8
1
100
AcDbVertex
100
AcDb2dVertex
62
5
10
118.443554
20
193.186113
0
VERTEX
5
3b3
100
AcDbEntity
8
1
100
AcDbVertex
100
AcDb2dVertex
62
5
10
117.312101
20
190.609323
0
SEQEND
5
3b4
100
AcDbEntity
8
1
0
CIRCLE
5
3b5
100
AcDbEntity
8
1
100
AcDbCircle
6
CONTINUOUS
62
5
10
124.350001
20
183.150001
40
1.200000
0
POLYLINE
5
3b6
100
AcDbEntity
8
1
6
CONTINUOUS
62
5
100
AcDb2dPolyline
66
1
10
0.0
20
0.0
30
0.0
70
0
0
VERTEX
5
3b7
100
AcDbEntity
8
1
100
AcDbVertex
100
AcDb2dVertex
62
5
10
110.849944
20
194.500000
0
VERTEX
5
3b8
100
AcDbEntity
8
1
100
AcDbVertex
100
AcDb2dVertex
62
5
10
110.818539
20
194.499013
0
VERTEX
5
3b9
100
AcDbEntity
8
1
100
AcDbVertex
100
AcDb2dVertex
62
5
10
110.787258
20
194.496057
0
VERTEX
5
3ba
100
AcDbEntity
8
1
100
AcDbVertex
100
AcDb2dVertex
62
5
10
110.756225
20
194.491142
0
VERTEX
5
3bb
100
AcDbEntity
8
1
100
AcDbVertex
100
AcDb2dVertex
62
5
10
110.725564
20
194.484289
0
VERTEX
5
3bc
100
AcDbEntity
8
1
100
AcDbVertex
100
AcDb2dVertex
62
5
10
110.695394
20
194.475525
0
VERTEX
5
3bd
100
AcDbEntity
8
1
100
AcDbVertex
100
AcDb2dVertex
62
5
10
110.665835
20
194.464883
0
VERTEX
5
3be
100
AcDbEntity
8
1
100
AcDbVertex
100
AcDb2dVertex
62
5
10
110.637003
20
194.452406
0
VERTEX
5
3bf
100
AcDbEntity
8
1
100
AcDbVertex
100
AcDb2dVertex
62
5
10
110.609013
20
194.438144
0
VERTEX
5
3c0
100
AcDbEntity
8
1
100
AcDbVertex
100
AcDb2dVertex
62
5
10
110.581974
20
194.422152
0
VERTEX
5
3c1
100
AcDbEntity
8
1
100
AcDbVertex
100
AcDb2dVertex
62
5
10
110.555994
20
194.404494
0
VERTEX
5
3c2
100
AcDbEntity
8
1
100
AcDbVertex
100
AcDb2dVertex
62
5
10
110.531175
20
194.385239
0
VERTEX
5
3c3
100
AcDbEntity
8
1
100
AcDbVertex
100
AcDb2dVertex
62
5
10
110.507615
20
194.364464
0
VERTEX
5
3c4
100
AcDbEntity
8
1
100
AcDbVertex
100
AcDb2dVertex
62
5
10
110.485407
20
194.342250
0
VERTEX
5
3c5
100
AcDbEntity
8
1
100
AcDbVertex
100
AcDb2dVertex
62
5
10
110.464638
20
194.318684
0
VERTEX
5
3c6
100
AcDbEntity
8
1
100
AcDbVertex
100
AcDb2dVertex
62
5
10
110.445391
20
194.293861
0
VERTEX
5
3c7
100
AcDbEntity
8
1
100
AcDbVertex
100
AcDb2dVertex
62
5
10
110.427742
20
194.267878
0
VERTEX
5
3c8
100
AcDbEntity
8
1
100
AcDbVertex
100
AcDb2dVertex
62
5
10
110.411759
20
194.240837
0
VERTEX
5
3c9
100
AcDbEntity
8
1
100
AcDbVertex
100
AcDb2dVertex
62
5
10
110.397507
20
194.212846
0
VERTEX
5
3ca
100
AcDbEntity
8
1
100
AcDbVertex
100
AcDb2dVertex
62
5
10
110.385041
20
194.184014
0
VERTEX
5
3cb
100
AcDbEntity
8
1
100
AcDbVertex
100
AcDb2dVertex
62
5
10
110.374411
20
194.154456
0
VERTEX
5
3cc
100
AcDbEntity
8
1
100
AcDbVertex
100
AcDb2dVertex
62
5
10
110.365658
20
194.124288
0
VERTEX
5
3cd
100
AcDbEntity
8
1
100
AcDbVertex
100
AcDb2dVertex
62
5
10
110.358818
20
194.093629
0
VERTEX
5
3ce
100
AcDbEntity
8
1
100
AcDbVertex
100
AcDb2dVertex
62
5
10
110.353917
20
194.062600
0
VERTEX
5
3cf
100
AcDbEntity
8
1
100
AcDbVertex
100
AcDb2dVertex
62
5
10
110.350974
20
194.031324
0
VERTEX
5
3d0
100
AcDbEntity
8
1
100
AcDbVertex
100
AcDb2dVertex
62
5
10
110.350001
20
194.000152
0
SEQEND
5
3d1
100
AcDbEntity
8
1
0
LINE
5
3d2
100
AcDbEntity
8
1
100
AcDbLine
6
CONTINUOUS
62
5
10
110.350001
20
189.550017
11
110.350002
21
189.550017
0
LINE
5
3d3
100
AcDbEntity
8
1
100
AcDbLine
6
CONTINUOUS
62
5
10
110.350001
20
187.678612
11
110.502917
21
187.372568
0
POLYLINE
5
3d4
100
AcDbEntity
8
1
6
CONTINUOUS
62
5
100
AcDb2dPolyline
66
1
10
0.0
20
0.0
30
0.0
70
0
0
VERTEX
5
3d5
100
AcDbEntity
8
1
100
AcDbVertex
100
AcDb2dVertex
62
5
10
110.513898
20
187.100000
0
VERTEX
5
3d6
100
AcDbEntity
8
1
100
AcDbVertex
100
AcDb2dVertex
62
5
10
110.513503
20
187.127534
0
VERTEX
5
3d7
100
AcDbEntity
8
1
100
AcDbVertex
100
AcDb2dVertex
62
5
10
110.513062
20
187.154065
0
VERTEX
5
3d8
100
AcDbEntity
8
1
100
AcDbVertex
100
AcDb2dVertex
62
5
10
110.512579
20
187.179487
0
VERTEX
5
3d9
100
AcDbEntity
8
1
100
AcDbVertex
100
AcDb2dVertex
62
5
10
110.512056
20
187.203700
0
VERTEX
5
3da
100
AcDbEntity
8
1
100
AcDbVertex
100
AcDb2dVertex
62
5
10
110.511493
20
187.226610
0
VERTEX
5
3db
100
AcDbEntity
8
1
100
AcDbVertex
100
AcDb2dVertex
62
5
10
110.510894
20
187.248125
0
VERTEX
5
3dc
100
AcDbEntity
8
1
100
AcDbVertex
100
AcDb2dVertex
62
5
10
110.510261
20
187.268160
0
VERTEX
5
3dd
100
AcDbEntity
8
1
100
AcDbVertex
100
AcDb2dVertex
62
5
10
110.509596
20
187.286637
0
VERTEX
5
3de
100
AcDbEntity
8
1
100
AcDbVertex
100
AcDb2dVertex
62
5
10
110.508902
20
187.303483
0
VERTEX
5
3df
100
AcDbEntity
8
1
100
AcDbVertex
100
AcDb2dVertex
62
5
10
110.508182
20
187.318630
0
VERTEX
5
3e0
100
AcDbEntity
8
1
100
AcDbVertex
100
AcDb2dVertex
62
5
10
110.507438
20
187.332020
0
VERTEX
5
3e1
100
AcDbEntity
8
1
100
AcDbVertex
100
AcDb2dVertex
62
5
10
110.506674
20
187.343600
0
VERTEX
5
3e2
100
AcDbEntity
8
1
100
AcDbVertex
100
AcDb2dVertex
62
5
10
110.505892
20
187.353323
0
VERTEX
5
3e3
100
AcDbEntity
8
1
100
AcDbVertex
100
AcDb2dVertex
62
5
10
110.505095
20
187.361151
0
VERTEX
5
3e4
100
AcDbEntity
8
1
100
AcDbVertex
100
AcDb2dVertex
62
5
10
110.504288
20
187.367054
0
VERTEX
5
3e5
100
AcDbEntity
8
1
100
AcDbVertex
100
AcDb2dVertex
62
5
10
110.503472
20
187.371008
0
VERTEX
5
3e6
100
AcDbEntity
8
1
100
AcDbVertex
100
AcDb2dVertex
62
5
10
110.502918
20
187.372569
0
SEQEND
5
3e7
100
AcDbEntity
8
1
0
POLYLINE
5
3e8
100
AcDbEntity
8
1
6
CONTINUOUS
62
5
100
AcDb2dPolyline
66
1
10
0.0
20
0.0
30
0.0
70
0
0
VERTEX
5
3e9
100
AcDbEntity
8
1
100
AcDbVertex
100
AcDb2dVertex
62
5
10
110.502918
20
186.827432
0
VERTEX
5
3ea
100
AcDbEntity
8
1
100
AcDbVertex
100
AcDb2dVertex
62
5
10
110.503737
20
186.830060
0
VERTEX
5
3eb
100
AcDbEntity
8
1
100
AcDbVertex
100
AcDb2dVertex
62
5
10
110.504551
20
186.834648
0
VERTEX
5
3ec
100
AcDbEntity
8
1
100
AcDbVertex
100
AcDb2dVertex
62
5
10
110.505355
20
186.841178
0
VERTEX
5
3ed
100
AcDbEntity
8
1
100
AcDbVertex
100
AcDb2dVertex
62
5
10
110.506147
20
186.849624
0
VERTEX
5
3ee
100
AcDbEntity
8
1
100
AcDbVertex
100
AcDb2dVertex
62
5
10
110.506923
20
186.859954
0
VERTEX
5
3ef
100
AcDbEntity
8
1
100
AcDbVertex
100
AcDb2dVertex
62
5
10
110.507681
20
186.872125
0
VERTEX
5
3f0
100
AcDbEntity
8
1
100
AcDbVertex
100
AcDb2dVertex
62
5
10
110.508418
20
186.886091
0
VERTEX
5
3f1
100
AcDbEntity
8
1
100
AcDbVertex
100
AcDb2dVertex
62
5
10
110.509130
20
186.901796
0
VERTEX
5
3f2
100
AcDbEntity
8
1
100
AcDbVertex
100
AcDb2dVertex
62
5
10
110.509815
20
186.919178
0
VERTEX
5
3f3
100
AcDbEntity
8
1
100
AcDbVertex
100
AcDb2dVertex
62
5
10
110.510470
20
186.938168
0
VERTEX
5
3f4
100
AcDbEntity
8
1
100
AcDbVertex
100
AcDb2dVertex
62
5
10
110.511092
20
186.958692
0
VERTEX
5
3f5
100
AcDbEntity
8
1
100
AcDbVertex
100
AcDb2dVertex
62
5
10
110.511680
20
186.980669
0
VERTEX
5
3f6
100
AcDbEntity
8
1
100
AcDbVertex
100
AcDb2dVertex
62
5
10
110.512230
20
187.004011
0
VERTEX
5
3f7
100
AcDbEntity
8
1
100
AcDbVertex
100
AcDb2dVertex
62
5
10
110.512741
20
187.028628
0
VERTEX
5
3f8
100
AcDbEntity
8
1
100
AcDbVertex
100
AcDb2dVertex
62
5
10
110.513210
20
187.054420
0
VERTEX
5
3f9
100
AcDbEntity
8
1
100
AcDbVertex
100
AcDb2dVertex
62
5
10
110.513636
20
187.081288
0
VERTEX
5
3fa
100
AcDbEntity
8
1
100
AcDbVertex
100
AcDb2dVertex
62
5
10
110.513898
20
187.100000
0
SEQEND
5
3fb
100
AcDbEntity
8
1
0
LINE
5
3fc
100
AcDbEntity
8
1
100
AcDbLine
6
CONTINUOUS
62
5
10
110.389286
20
186.600012
11
110.502917
21
186.827432
0
POLYLINE
5
3fd
100
AcDbEntity
8
1
6
CONTINUOUS
62
5
100
AcDb2dPolyline
66
1
10
0.0
20
0.0
30
0.0
70
0
0
VERTEX
5
3fe
100
AcDbEntity
8
1
100
AcDbVertex
100
AcDb2dVertex
62
5
10
110.300001
20
189.981680
0
VERTEX
5
3ff
100
AcDbEntity
8
1
100
AcDbVertex
100
AcDb2dVertex
62
5
10
110.300001
20
189.980966
0
VERTEX
5
400
100
AcDbEntity
8
1
100
AcDbVertex
100
AcDb2dVertex
62
5
10
110.300001
20
189.978938
0
VERTEX
5
401
100
AcDbEntity
8
1
100
AcDbVertex
100
AcDb2dVertex
62
5
10
110.300001
20
189.975766
0
VERTEX
5
402
100
AcDbEntity
8
1
100
AcDbVertex
100
AcDb2dVertex
62
5
10
110.300001
20
189.971618
0
VERTEX
5
403
100
AcDbEntity
8
1
100
AcDbVertex
100
AcDb2dVertex
62
5
10
110.300001
20
189.966667
0
VERTEX
5
404
100
AcDbEntity
8
1
100
AcDbVertex
100
AcDb2dVertex
62
5
10
110.300001
20
189.961080
0
VERTEX
5
405
100
AcDbEntity
8
1
100
AcDbVertex
100
AcDb2dVertex
62
5
10
110.300001
20
189.955027
0
VERTEX
5
406
100
AcDbEntity
8
1
100
AcDbVertex
100
AcDb2dVertex
62
5
10
110.300001
20
189.948680
0
VERTEX
5
407
100
AcDbEntity
8
1
100
AcDbVertex
100
AcDb2dVertex
62
5
10
110.300001
20
189.942207
0
VERTEX
5
408
100
AcDbEntity
8
1
100
AcDbVertex
100
AcDb2dVertex
62
5
10
110.300001
20
189.935778
0
VERTEX
5
409
100
AcDbEntity
8
1
100
AcDbVertex
100
AcDb2dVertex
62
5
10
110.300001
20
189.929564
0
VERTEX
5
40a
100
AcDbEntity
8
1
100
AcDbVertex
100
AcDb2dVertex
62
5
10
110.300001
20
189.923908
0
VERTEX
5
40b
100
AcDbEntity
8
1
100
AcDbVertex
100
AcDb2dVertex
62
5
10
110.300001
20
189.918554
0
VERTEX
5
40c
100
AcDbEntity
8
1
100
AcDbVertex
100
AcDb2dVertex
62
5
10
110.300001
20
189.913448
0
VERTEX
5
40d
100
AcDbEntity
8
1
100
AcDbVertex
100
AcDb2dVertex
62
5
10
110.300001
20
189.908536
0
VERTEX
5
40e
100
AcDbEntity
8
1
100
AcDbVertex
100
AcDb2dVertex
62
5
10
110.300001
20
189.903764
0
VERTEX
5
40f
100
AcDbEntity
8
1
100
AcDbVertex
100
AcDb2dVertex
62
5
10
110.300001
20
189.899078
0
VERTEX
5
410
100
AcDbEntity
8
1
100
AcDbVertex
100
AcDb2dVertex
62
5
10
110.300001
20
189.894425
0
VERTEX
5
411
100
AcDbEntity
8
1
100
AcDbVertex
100
AcDb2dVertex
62
5
10
110.300001
20
189.889749
0
VERTEX
5
412
100
AcDbEntity
8
1
100
AcDbVertex
100
AcDb2dVertex
62
5
10
110.300001
20
189.884998
0
VERTEX
5
413
100
AcDbEntity
8
1
100
AcDbVertex
100
AcDb2dVertex
62
5
10
110.300001
20
189.880118
0
VERTEX
5
414
100
AcDbEntity
8
1
100
AcDbVertex
100
AcDb2dVertex
62
5
10
110.300001
20
189.875054
0
VERTEX
5
415
100
AcDbEntity
8
1
100
AcDbVertex
100
AcDb2dVertex
62
5
10
110.300001
20
189.864553
0
VERTEX
5
416
100
AcDbEntity
8
1
100
AcDbVertex
100
AcDb2dVertex
62
5
10
110.300001
20
189.853317
0
VERTEX
5
417
100
AcDbEntity
8
1
100
AcDbVertex
100
AcDb2dVertex
62
5
10
110.300001
20
189.841515
0
VERTEX
5
418
100
AcDbEntity
8
1
100
AcDbVertex
100
AcDb2dVertex
62
5
10
110.300001
20
189.829311
0
VERTEX
5
419
100
AcDbEntity
8
1
100
AcDbVertex
100
AcDb2dVertex
62
5
10
110.300001
20
189.816874
0
VERTEX
5
41a
100
AcDbEntity
8
1
100
AcDbVertex
100
AcDb2dVertex
62
5
10
110.300001
20
189.804370
0
VERTEX
5
41b
100
AcDbEntity
8
1
100
AcDbVertex
100
AcDb2dVertex
62
5
10
110.300001
20
189.791964
0
VERTEX
5
41c
100
AcDbEntity
8
1
100
AcDbVertex
100
AcDb2dVertex
62
5
10
110.300001
20
189.779826
0
VERTEX
5
41d
100
AcDbEntity
8
1
100
AcDbVertex
100
AcDb2dVertex
62
5
10
110.300001
20
189.768120
0
VERTEX
5
41e
100
AcDbEntity
8
1
100
AcDbVertex
100
AcDb2dVertex
62
5
10
110.300001
20
189.757014
0
VERTEX
5
41f
100
AcDbEntity
8
1
100
AcDbVertex
100
AcDb2dVertex
62
5
10
110.300001
20
189.746674
0
VERTEX
5
420
100
AcDbEntity
8
1
100
AcDbVertex
100
AcDb2dVertex
62
5
10
110.300001
20
189.741976
0
VERTEX
5
421
100
AcDbEntity
8
1
100
AcDbVertex
100
AcDb2dVertex
62
5
10
110.300001
20
189.737446
0
VERTEX
5
422
100
AcDbEntity
8
1
100
AcDbVertex
100
AcDb2dVertex
62
5
10
110.300001
20
189.733035
0
VERTEX
5
423
100
AcDbEntity
8
1
100
AcDbVertex
100
AcDb2dVertex
62
5
10
110.300001
20
189.728693
0
VERTEX
5
424
100
AcDbEntity
8
1
100
AcDbVertex
100
AcDb2dVertex
62
5
10
110.300001
20
189.724369
0
VERTEX
5
425
100
AcDbEntity
8
1
100
AcDbVertex
100
AcDb2dVertex
62
5
10
110.300001
20
189.720014
0
VERTEX
5
426
100
AcDbEntity
8
1
100
AcDbVertex
100
AcDb2dVertex
62
5
10
110.300001
20
189.715576
0
VERTEX
5
427
100
AcDbEntity
8
1
100
AcDbVertex
100
AcDb2dVertex
62
5
10
110.300001
20
189.711005
0
VERTEX
5
428
100
AcDbEntity
8
1
100
AcDbVertex
100
AcDb2dVertex
62
5
10
110.300001
20
189.706252
0
VERTEX
5
429
100
AcDbEntity
8
1
100
AcDbVertex
100
AcDb2dVertex
62
5
10
110.300001
20
189.701266
0
VERTEX
5
42a
100
AcDbEntity
8
1
100
AcDbVertex
100
AcDb2dVertex
62
5
10
110.300001
20
189.695996
0
VERTEX
5
42b
100
AcDbEntity
8
1
100
AcDbVertex
100
AcDb2dVertex
62
5
10
110.300001
20
189.690486
0
VERTEX
5
42c
100
AcDbEntity
8
1
100
AcDbVertex
100
AcDb2dVertex
62
5
10
110.300001
20
189.684797
0
VERTEX
5
42d
100
AcDbEntity
8
1
100
AcDbVertex
100
AcDb2dVertex
62
5
10
110.300001
20
189.679078
0
VERTEX
5
42e
100
AcDbEntity
8
1
100
AcDbVertex
100
AcDb2dVertex
62
5
10
110.300001
20
189.673477
0
VERTEX
5
42f
100
AcDbEntity
8
1
100
AcDbVertex
100
AcDb2dVertex
62
5
10
110.300001
20
189.668142
0
VERTEX
5
430
100
AcDbEntity
8
1
100
AcDbVertex
100
AcDb2dVertex
62
5
10
110.300001
20
189.663222
0
VERTEX
5
431
100
AcDbEntity
8
1
100
AcDbVertex
100
AcDb2dVertex
62
5
10
110.300001
20
189.658863
0
VERTEX
5
432
100
AcDbEntity
8
1
100
AcDbVertex
100
AcDb2dVertex
62
5
10
110.300001
20
189.655215
0
VERTEX
5
433
100
AcDbEntity
8
1
100
AcDbVertex
100
AcDb2dVertex
62
5
10
110.300001
20
189.652426
0
VERTEX
5
434
100
AcDbEntity
8
1
100
AcDbVertex
100
AcDb2dVertex
62
5
10
110.300001
20
189.650644
0
VERTEX
5
435
100
AcDbEntity
8
1
100
AcDbVertex
100
AcDb2dVertex
62
5
10
110.300001
20
189.650017
0
SEQEND
5
436
100
AcDbEntity
8
1
0
LINE
5
437
100
AcDbEntity
8
1
100
AcDbLine
6
CONTINUOUS
62
5
10
110.300001
20
189.981680
11
110.300001
21
190.150017
0
LINE
5
438
100
AcDbEntity
8
1
100
AcDbLine
6
CONTINUOUS
62
5
10
110.300001
20
190.150017
11
110.350001
21
190.150017
0
LINE
5
439
100
AcDbEntity
8
1
100
AcDbLine
6
CONTINUOUS
62
5
10
110.300001
20
186.600010
11
110.389286
21
186.600012
0
LINE
5
43a
100
AcDbEntity
8
1
100
AcDbLine
6
CONTINUOUS
62
5
10
110.350001
20
187.678612
11
110.350001
21
194.000152
0
ARC
5
43b
100
AcDbEntity
8
1
100
AcDbCircle
6
CONTINUOUS
62
5
10
109.800001
20
189.650017
40
0.500000
100
AcDbArc
50
0.000000
51
89.999999
0
ARC
5
43c
100
AcDbEntity
8
1
100
AcDbCircle
6
CONTINUOUS
62
5
10
108.850001
20
189.650017
40
0.500000
100
AcDbArc
50
89.999999
51
179.999998
0
LINE
5
43d
100
AcDbEntity
8
1
100
AcDbLine
6
CONTINUOUS
62
5
10
109.800001
20
190.150017
11
108.850001
21
190.150017
0
ARC
5
43e
100
AcDbEntity
8
1
100
AcDbCircle
6
CONTINUOUS
62
5
10
103.850002
20
193.150017
40
0.500000
100
AcDbArc
50
89.999999
51
179.999998
0
ARC
5
43f
100
AcDbEntity
8
1
100
AcDbCircle
6
CONTINUOUS
62
5
10
105.050001
20
193.150017
40
0.500000
100
AcDbArc
50
89.999999
51
179.999998
0
LINE
5
440
100
AcDbEntity
8
1
100
AcDbLine
6
CONTINUOUS
62
5
10
105.050001
20
193.650017
11
103.850001
21
193.650017
0
LINE
5
441
100
AcDbEntity
8
1
100
AcDbLine
6
CONTINUOUS
62
5
10
104.550002
20
188.450017
11
104.550002
21
188.450017
0
LINE
5
442
100
AcDbEntity
8
1
100
AcDbLine
6
CONTINUOUS
62
5
10
103.350002
20
188.500017
11
103.350002
21
188.150017
0
LINE
5
443
100
AcDbEntity
8
1
100
AcDbLine
6
CONTINUOUS
62
5
10
103.100001
20
188.500017
11
104.550002
21
188.500017
0
LINE
5
444
100
AcDbEntity
8
1
100
AcDbLine
6
CONTINUOUS
62
5
10
103.850001
20
187.650018
11
104.550002
21
187.650018
0
LINE
5
445
100
AcDbEntity
8
1
100
AcDbLine
6
CONTINUOUS
62
5
10
104.550002
20
187.650018
11
103.850002
21
187.650018
0
ARC
5
446
100
AcDbEntity
8
1
100
AcDbCircle
6
CONTINUOUS
62
5
10
103.850002
20
188.150017
40
0.500000
100
AcDbArc
50
179.999998
51
-89.999999
0
LINE
5
447
100
AcDbEntity
8
1
100
AcDbLine
6
CONTINUOUS
62
5
10
102.600002
20
190.800017
11
102.600002
21
189.000017
0
ARC
5
448
100
AcDbEntity
8
1
100
AcDbCircle
6
CONTINUOUS
62
5
10
103.100002
20
189.000017
40
0.500000
100
AcDbArc
50
179.999998
51
-89.999999
0
LINE
5
449
100
AcDbEntity
8
1
100
AcDbLine
6
CONTINUOUS
62
5
10
104.550002
20
193.150017
11
104.550002
21
191.273222
0
LINE
5
44a
100
AcDbEntity
8
1
100
AcDbLine
6
CONTINUOUS
62
5
10
104.550002
20
193.150017
11
104.550002
21
191.300017
0
LINE
5
44b
100
AcDbEntity
8
1
100
AcDbLine
6
CONTINUOUS
62
5
10
103.350002
20
193.150017
11
103.350002
21
191.300017
0
LINE
5
44c
100
AcDbEntity
8
1
100
AcDbLine
6
CONTINUOUS
62
5
10
103.350002
20
193.150017
11
103.350002
21
191.300017
0
LINE
5
44d
100
AcDbEntity
8
1
100
AcDbLine
6
CONTINUOUS
62
5
10
104.550002
20
191.300017
11
103.100001
21
191.300017
0
ARC
5
44e
100
AcDbEntity
8
1
100
AcDbCircle
6
CONTINUOUS
62
5
10
103.100002
20
190.800017
40
0.500000
100
AcDbArc
50
89.999999
51
179.999998
0
LINE
5
44f
100
AcDbEntity
8
1
100
AcDbLine
6
CONTINUOUS
62
5
10
110.350001
20
193.650017
11
103.850002
21
193.650017
0
LINE
5
450
100
AcDbEntity
8
1
100
AcDbLine
6
CONTINUOUS
62
5
10
110.350001
20
195.150017
11
110.350001
21
221.500000
0
LINE
5
451
100
AcDbEntity
8
1
100
AcDbLine
6
CONTINUOUS
62
5
10
138.350000
20
195.150017
11
138.350000
21
221.500000
0
POLYLINE
5
452
100
AcDbEntity
8
1
6
CONTINUOUS
62
5
100
AcDb2dPolyline
66
1
10
0.0
20
0.0
30
0.0
70
0
0
VERTEX
5
453
100
AcDbEntity
8
1
100
AcDbVertex
100
AcDb2dVertex
62
5
10
124.350001
20
219.500000
0
VERTEX
5
454
100
AcDbEntity
8
1
100
AcDbVertex
100
AcDb2dVertex
62
5
10
110.350001
20
219.500000
0
VERTEX
5
455
100
AcDbEntity
8
1
100
AcDbVertex
100
AcDb2dVertex
62
5
10
116.350001
20
220.500000
0
VERTEX
5
456
100
AcDbEntity
8
1
100
AcDbVertex
100
AcDb2dVertex
62
5
10
116.350001
20
218.500000
0
VERTEX
5
457
100
AcDbEntity
8
1
100
AcDbVertex
100
AcDb2dVertex
62
5
10
110.350001
20
219.500000
0
VERTEX
5
458
100
AcDbEntity
8
1
100
AcDbVertex
100
AcDb2dVertex
62
5
10
116.350001
20
220.000000
0
VERTEX
5
459
100
AcDbEntity
8
1
100
AcDbVertex
100
AcDb2dVertex
62
5
10
116.350001
20
219.000000
0
VERTEX
5
45a
100
AcDbEntity
8
1
100
AcDbVertex
100
AcDb2dVertex
62
5
10
110.350001
20
219.500000
0
SEQEND
5
45b
100
AcDbEntity
8
1
0
POLYLINE
5
45c
100
AcDbEntity
8
1
6
CONTINUOUS
62
5
100
AcDb2dPolyline
66
1
10
0.0
20
0.0
30
0.0
70
0
0
VERTEX
5
45d
100
AcDbEntity
8
1
100
AcDbVertex
100
AcDb2dVertex
62
5
10
124.350001
20
219.500000
0
VERTEX
5
45e
100
AcDbEntity
8
1
100
AcDbVertex
100
AcDb2dVertex
62
5
10
138.350000
20
219.500000
0
VERTEX
5
45f
100
AcDbEntity
8
1
100
AcDbVertex
100
AcDb2dVertex
62
5
10
132.350000
20
218.500000
0
VERTEX
5
460
100
AcDbEntity
8
1
100
AcDbVertex
100
AcDb2dVertex
62
5
10
132.350000
20
220.500000
0
VERTEX
5
461
100
AcDbEntity
8
1
100
AcDbVertex
100
AcDb2dVertex
62
5
10
138.350000
20
219.500000
0
VERTEX
5
462
100
AcDbEntity
8
1
100
AcDbVertex
100
AcDb2dVertex
62
5
10
132.350000
20
219.000000
0
VERTEX
5
463
100
AcDbEntity
8
1
100
AcDbVertex
100
AcDb2dVertex
62
5
10
132.350000
20
220.000000
0
VERTEX
5
464
100
AcDbEntity
8
1
100
AcDbVertex
100
AcDb2dVertex
62
5
10
138.350000
20
219.500000
0
SEQEND
5
465
100
AcDbEntity
8
1
0
LINE
5
466
100
AcDbEntity
8
1
100
AcDbLine
6
CONTINUOUS
62
5
10
110.849944
20
194.500000
11
137.850057
21
194.500000
0
POLYLINE
5
467
100
AcDbEntity
8
1
6
DOT2
62
5
100
AcDb2dPolyline
66
1
10
0.0
20
0.0
30
0.0
70
0
0
VERTEX
5
468
100
AcDbEntity
8
1
100
AcDbVertex
100
AcDb2dVertex
62
5
10
120.600001
20
226.062500
0
VERTEX
5
469
100
AcDbEntity
8
1
100
AcDbVertex
100
AcDb2dVertex
62
5
10
120.912501
20
227.625000
0
VERTEX
5
46a
100
AcDbEntity
8
1
100
AcDbVertex
100
AcDb2dVertex
62
5
10
121.850001
20
228.250000
0
VERTEX
5
46b
100
AcDbEntity
8
1
100
AcDbVertex
100
AcDb2dVertex
62
5
10
122.787501
20
228.250000
0
VERTEX
5
46c
100
AcDbEntity
8
1
100
AcDbVertex
100
AcDb2dVertex
62
5
10
123.412501
20
227.937500
0
VERTEX
5
46d
100
AcDbEntity
8
1
100
AcDbVertex
100
AcDb2dVertex
62
5
10
123.725001
20
227.000000
0
VERTEX
5
46e
100
AcDbEntity
8
1
100
AcDbVertex
100
AcDb2dVertex
62
5
10
123.725001
20
226.062500
0
VERTEX
5
46f
100
AcDbEntity
8
1
100
AcDbVertex
100
AcDb2dVertex
62
5
10
123.412501
20
225.125000
0
VERTEX
5
470
100
AcDbEntity
8
1
100
AcDbVertex
100
AcDb2dVertex
62
5
10
120.600001
20
220.750000
0
VERTEX
5
471
100
AcDbEntity
8
1
100
AcDbVertex
100
AcDb2dVertex
62
5
10
123.725001
20
220.750000
0
VERTEX
5
472
100
AcDbEntity
8
1
100
AcDbVertex
100
AcDb2dVertex
62
5
10
123.725001
20
221.687500
0
SEQEND
5
473
100
AcDbEntity
8
1
0
POLYLINE
5
474
100
AcDbEntity
8
1
6
DOT2
62
5
100
AcDb2dPolyline
66
1
10
0.0
20
0.0
30
0.0
70
1
0
VERTEX
5
475
100
AcDbEntity
8
1
100
AcDbVertex
100
AcDb2dVertex
62
5
10
126.850001
20
228.250000
0
VERTEX
5
476
100
AcDbEntity
8
1
100
AcDbVertex
100
AcDb2dVertex
62
5
10
127.475001
20
228.250000
0
VERTEX
5
477
100
AcDbEntity
8
1
100
AcDbVertex
100
AcDb2dVertex
62
5
10
128.100001
20
227.937500
0
VERTEX
5
478
100
AcDbEntity
8
1
100
AcDbVertex
100
AcDb2dVertex
62
5
10
128.412501
20
227.312500
0
VERTEX
5
479
100
AcDbEntity
8
1
100
AcDbVertex
100
AcDb2dVertex
62
5
10
128.412501
20
226.062500
0
VERTEX
5
47a
100
AcDbEntity
8
1
100
AcDbVertex
100
AcDb2dVertex
62
5
10
128.100001
20
225.437500
0
VERTEX
5
47b
100
AcDbEntity
8
1
100
AcDbVertex
100
AcDb2dVertex
62
5
10
126.225001
20
224.187500
0
VERTEX
5
47c
100
AcDbEntity
8
1
100
AcDbVertex
100
AcDb2dVertex
62
5
10
125.600001
20
223.250000
0
VERTEX
5
47d
100
AcDbEntity
8
1
100
AcDbVertex
100
AcDb2dVertex
62
5
10
125.600001
20
222.000000
0
VERTEX
5
47e
100
AcDbEntity
8
1
100
AcDbVertex
100
AcDb2dVertex
62
5
10
125.912501
20
221.375000
0
VERTEX
5
47f
100
AcDbEntity
8
1
100
AcDbVertex
100
AcDb2dVertex
62
5
10
126.225001
20
221.062500
0
VERTEX
5
480
100
AcDbEntity
8
1
100
AcDbVertex
100
AcDb2dVertex
62
5
10
126.850001
20
220.750000
0
VERTEX
5
481
100
AcDbEntity
8
1
100
AcDbVertex
100
AcDb2dVertex
62
5
10
127.475001
20
220.750000
0
VERTEX
5
482
100
AcDbEntity
8
1
100
AcDbVertex
100
AcDb2dVertex
62
5
10
128.100001
20
221.062500
0
VERTEX
5
483
100
AcDbEntity
8
1
100
AcDbVertex
100
AcDb2dVertex
62
5
10
128.412501
20
221.375000
0
VERTEX
5
484
100
AcDbEntity
8
1
100
AcDbVertex
100
AcDb2dVertex
62
5
10
128.725001
20
222.000000
0
VERTEX
5
485
100
AcDbEntity
8
1
100
AcDbVertex
100
AcDb2dVertex
62
5
10
128.725001
20
223.250000
0
VERTEX
5
486
100
AcDbEntity
8
1
100
AcDbVertex
100
AcDb2dVertex
62
5
10
128.100001
20
224.187500
0
VERTEX
5
487
100
AcDbEntity
8
1
100
AcDbVertex
100
AcDb2dVertex
62
5
10
126.225001
20
225.437500
0
VERTEX
5
488
100
AcDbEntity
8
1
100
AcDbVertex
100
AcDb2dVertex
62
5
10
125.912501
20
226.062500
0
VERTEX
5
489
100
AcDbEntity
8
1
100
AcDbVertex
100
AcDb2dVertex
62
5
10
125.912501
20
227.312500
0
VERTEX
5
48a
100
AcDbEntity
8
1
100
AcDbVertex
100
AcDb2dVertex
62
5
10
126.225001
20
227.937500
0
VERTEX
5
48b
100
AcDbEntity
8
1
100
AcDbVertex
100
AcDb2dVertex
62
5
10
126.850001
20
228.250000
0
SEQEND
5
48c
100
AcDbEntity
8
1
0
LINE
5
48d
100
AcDbEntity
8
1
100
AcDbLine
6
CONTINUOUS
62
5
10
10.000000
20
318.000000
11
330.000000
21
318.000000
0
LINE
5
48e
100
AcDbEntity
8
1
100
AcDbLine
6
CONTINUOUS
62
5
10
10.000000
20
318.000000
11
330.000000
21
318.000000
0
LINE
5
48f
100
AcDbEntity
8
1
100
AcDbLine
6
CONTINUOUS
62
5
10
235.963945
20
172.400017
11
235.963945
21
163.665018
0
LINE
5
490
100
AcDbEntity
8
1
100
AcDbLine
6
CONTINUOUS
62
5
10
237.549998
20
176.408122
11
237.749998
21
176.408122
0
LINE
5
491
100
AcDbEntity
8
1
100
AcDbLine
6
CONTINUOUS
62
5
10
227.346052
20
163.657904
11
227.346052
21
172.400017
0
LINE
5
492
100
AcDbEntity
8
1
100
AcDbLine
6
CONTINUOUS
62
5
10
226.999998
20
172.400017
11
236.299998
21
172.400018
0
ARC
5
493
100
AcDbEntity
8
1
100
AcDbCircle
6
CONTINUOUS
62
5
10
227.799998
20
163.200019
40
0.300000
100
AcDbArc
50
179.999998
51
-89.999999
0
LINE
5
494
100
AcDbEntity
8
1
100
AcDbLine
6
CONTINUOUS
62
5
10
227.799998
20
162.900019
11
235.499999
21
162.900019
0
ARC
5
495
100
AcDbEntity
8
1
100
AcDbCircle
6
CONTINUOUS
62
5
10
235.499999
20
163.200019
40
0.300000
100
AcDbArc
50
-89.999999
51
-0.000000
0
LINE
5
496
100
AcDbEntity
8
1
100
AcDbLine
6
CONTINUOUS
62
5
10
235.799999
20
163.200019
11
235.799999
21
163.400018
0
LINE
5
497
100
AcDbEntity
8
1
100
AcDbLine
6
CONTINUOUS
62
5
10
227.499998
20
163.400018
11
227.499998
21
163.200019
0
LINE
5
498
100
AcDbEntity
8
1
100
AcDbLine
6
CONTINUOUS
62
5
10
226.999998
20
164.400018
11
236.299998
21
164.400018
0
LINE
5
499
100
AcDbEntity
8
1
100
AcDbLine
6
CONTINUOUS
62
5
10
236.299998
20
164.400018
11
226.999998
21
164.400018
0
ARC
5
49a
100
AcDbEntity
8
1
100
AcDbCircle
6
CONTINUOUS
62
5
10
236.149998
20
172.532305
40
0.200000
100
AcDbArc
50
-41.409622
51
0.000000
0
POLYLINE
5
49b
100
AcDbEntity
8
1
6
CONTINUOUS
62
5
100
AcDb2dPolyline
66
1
10
0.0
20
0.0
30
0.0
70
0
0
VERTEX
5
49c
100
AcDbEntity
8
1
100
AcDbVertex
100
AcDb2dVertex
62
5
10
236.299998
20
172.400018
0
VERTEX
5
49d
100
AcDbEntity
8
1
100
AcDbVertex
100
AcDb2dVertex
62
5
10
236.299998
20
164.400018
0
VERTEX
5
49e
100
AcDbEntity
8
1
100
AcDbVertex
100
AcDb2dVertex
62
5
10
235.833690
20
163.400018
0
VERTEX
5
49f
100
AcDbEntity
8
1
100
AcDbVertex
100
AcDb2dVertex
62
5
10
227.466307
20
163.400018
0
VERTEX
5
4a0
100
AcDbEntity
8
1
100
AcDbVertex
100
AcDb2dVertex
62
5
10
226.999998
20
164.400018
0
VERTEX
5
4a1
100
AcDbEntity
8
1
100
AcDbVertex
100
AcDb2dVertex
62
5
10
226.999998
20
172.400018
0
SEQEND
5
4a2
100
AcDbEntity
8
1
0
ARC
5
4a3
100
AcDbEntity
8
1
100
AcDbCircle
6
CONTINUOUS
62
5
10
227.149998
20
172.532305
40
0.200000
100
AcDbArc
50
-179.999998
51
-138.590377
0
LINE
5
4a4
100
AcDbEntity
8
1
100
AcDbLine
6
CONTINUOUS
62
5
10
226.949998
20
172.532305
11
226.949998
21
172.700018
0
ARC
5
4a5
100
AcDbEntity
8
1
100
AcDbCircle
6
CONTINUOUS
62
5
10
226.749998
20
172.700018
40
0.200000
100
AcDbArc
50
0.000000
51
90.000510
0
LINE
5
4a6
100
AcDbEntity
8
1
100
AcDbLine
6
CONTINUOUS
62
5
10
226.749996
20
172.900018
11
226.749998
21
172.900018
0
LINE
5
4a7
100
AcDbEntity
8
1
100
AcDbLine
6
CONTINUOUS
62
5
10
236.549998
20
172.900018
11
236.550000
21
172.900018
0
ARC
5
4a8
100
AcDbEntity
8
1
100
AcDbCircle
6
CONTINUOUS
62
5
10
236.549999
20
172.700018
40
0.200000
100
AcDbArc
50
89.999488
51
179.999998
0
LINE
5
4a9
100
AcDbEntity
8
1
100
AcDbLine
6
CONTINUOUS
62
5
10
236.349999
20
172.700018
11
236.349998
21
172.532305
0
LINE
5
4aa
100
AcDbEntity
8
1
100
AcDbLine
6
CONTINUOUS
62
5
10
210.349999
20
178.650017
11
211.549999
21
178.650017
0
LINE
5
4ab
100
AcDbEntity
8
1
100
AcDbLine
6
CONTINUOUS
62
5
10
210.349999
20
177.850018
11
209.549999
21
177.850018
0
LINE
5
4ac
100
AcDbEntity
8
1
100
AcDbLine
6
CONTINUOUS
62
5
10
209.549999
20
177.850018
11
210.349999
21
177.850018
0
LINE
5
4ad
100
AcDbEntity
8
1
100
AcDbLine
6
CONTINUOUS
62
5
10
210.350000
20
173.300018
11
211.549999
21
173.300018
0
LINE
5
4ae
100
AcDbEntity
8
1
100
AcDbLine
6
CONTINUOUS
62
5
10
209.549999
20
174.950017
11
210.349999
21
174.950017
0
LINE
5
4af
100
AcDbEntity
8
1
100
AcDbLine
6
CONTINUOUS
62
5
10
210.349999
20
174.950017
11
209.549999
21
174.950017
0
POLYLINE
5
4b0
100
AcDbEntity
8
1
6
CONTINUOUS
62
5
100
AcDb2dPolyline
66
1
10
0.0
20
0.0
30
0.0
70
0
0
VERTEX
5
4b1
100
AcDbEntity
8
1
100
AcDbVertex
100
AcDb2dVertex
62
5
10
211.549999
20
178.650017
0
VERTEX
5
4b2
100
AcDbEntity
8
1
100
AcDbVertex
100
AcDb2dVertex
62
5
10
210.349999
20
178.650020
0
VERTEX
5
4b3
100
AcDbEntity
8
1
100
AcDbVertex
100
AcDb2dVertex
62
5
10
210.350000
20
173.300016
0
VERTEX
5
4b4
100
AcDbEntity
8
1
100
AcDbVertex
100
AcDb2dVertex
62
5
10
211.549999
20
173.300018
0
SEQEND
5
4b5
100
AcDbEntity
8
1
0
LINE
5
4b6
100
AcDbEntity
8
1
100
AcDbLine
6
CONTINUOUS
62
5
10
210.149982
20
171.150018
11
211.549999
21
171.150018
0
LINE
5
4b7
100
AcDbEntity
8
1
100
AcDbLine
6
CONTINUOUS
62
5
10
209.549999
20
145.350020
11
210.349999
21
145.350020
0
LINE
5
4b8
100
AcDbEntity
8
1
100
AcDbLine
6
CONTINUOUS
62
5
10
210.349999
20
142.450020
11
209.549999
21
142.450020
0
POLYLINE
5
4b9
100
AcDbEntity
8
1
6
CONTINUOUS
62
5
100
AcDb2dPolyline
66
1
10
0.0
20
0.0
30
0.0
70
0
0
VERTEX
5
4ba
100
AcDbEntity
8
1
100
AcDbVertex
100
AcDb2dVertex
62
5
10
210.350000
20
147.400019
0
VERTEX
5
4bb
100
AcDbEntity
8
1
100
AcDbVertex
100
AcDb2dVertex
62
5
10
210.349999
20
141.650017
0
VERTEX
5
4bc
100
AcDbEntity
8
1
100
AcDbVertex
100
AcDb2dVertex
62
5
10
211.549999
20
141.650017
0
SEQEND
5
4bd
100
AcDbEntity
8
1
0
ARC
5
4be
100
AcDbEntity
8
1
100
AcDbCircle
6
CONTINUOUS
62
5
10
203.500000
20
141.088801
40
0.250000
100
AcDbArc
50
179.999998
51
-92.999992
0
LINE
5
4bf
100
AcDbEntity
8
1
100
AcDbLine
6
CONTINUOUS
62
5
10
203.250000
20
141.088801
11
203.250000
21
141.111203
0
ARC
5
4c0
100
AcDbEntity
8
1
100
AcDbCircle
6
CONTINUOUS
62
5
10
203.500000
20
141.111203
40
0.250000
100
AcDbArc
50
93.000006
51
-179.999998
0
LINE
5
4c1
100
AcDbEntity
8
1
100
AcDbLine
6
CONTINUOUS
62
5
10
203.486916
20
141.360861
11
206.549999
21
141.521425
0
LINE
5
4c2
100
AcDbEntity
8
1
100
AcDbLine
6
CONTINUOUS
62
5
10
206.549999
20
140.678649
11
203.486916
21
140.839144
0
ARC
5
4c3
100
AcDbEntity
8
1
100
AcDbCircle
6
CONTINUOUS
62
5
10
205.550000
20
155.047931
40
2.000000
100
AcDbArc
50
-179.999998
51
-92.999998
0
LINE
5
4c4
100
AcDbEntity
8
1
100
AcDbLine
6
CONTINUOUS
62
5
10
203.550000
20
155.047931
11
203.550000
21
165.252072
0
ARC
5
4c5
100
AcDbEntity
8
1
100
AcDbCircle
6
CONTINUOUS
62
5
10
205.549999
20
165.252072
40
2.000000
100
AcDbArc
50
92.999994
51
-179.999992
0
LINE
5
4c6
100
AcDbEntity
8
1
100
AcDbLine
6
CONTINUOUS
62
5
10
205.445328
20
167.249331
11
211.549999
21
167.569263
0
LINE
5
4c7
100
AcDbEntity
8
1
100
AcDbLine
6
CONTINUOUS
62
5
10
211.549999
20
152.730740
11
205.445328
21
153.050672
0
LINE
5
4c8
100
AcDbEntity
8
1
100
AcDbLine
6
CONTINUOUS
62
5
10
209.550000
20
129.000016
11
210.349999
21
129.000016
0
LINE
5
4c9
100
AcDbEntity
8
1
100
AcDbLine
6
CONTINUOUS
62
5
10
210.349999
20
131.800019
11
209.550000
21
131.800020
0
POLYLINE
5
4ca
100
AcDbEntity
8
1
6
CONTINUOUS
62
5
100
AcDb2dPolyline
66
1
10
0.0
20
0.0
30
0.0
70
0
0
VERTEX
5
4cb
100
AcDbEntity
8
1
100
AcDbVertex
100
AcDb2dVertex
62
5
10
211.549999
20
132.650018
0
VERTEX
5
4cc
100
AcDbEntity
8
1
100
AcDbVertex
100
AcDb2dVertex
62
5
10
210.349999
20
132.650018
0
VERTEX
5
4cd
100
AcDbEntity
8
1
100
AcDbVertex
100
AcDb2dVertex
62
5
10
210.349999
20
126.650021
0
SEQEND
5
4ce
100
AcDbEntity
8
1
0
POLYLINE
5
4cf
100
AcDbEntity
8
1
6
CONTINUOUS
62
5
100
AcDb2dPolyline
66
1
10
0.0
20
0.0
30
0.0
70
0
0
VERTEX
5
4d0
100
AcDbEntity
8
1
100
AcDbVertex
100
AcDb2dVertex
62
5
10
201.550000
20
127.113907
0
VERTEX
5
4d1
100
AcDbEntity
8
1
100
AcDbVertex
100
AcDb2dVertex
62
5
10
201.250000
20
127.113925
0
VERTEX
5
4d2
100
AcDbEntity
8
1
100
AcDbVertex
100
AcDb2dVertex
62
5
10
201.250000
20
129.690732
0
VERTEX
5
4d3
100
AcDbEntity
8
1
100
AcDbVertex
100
AcDb2dVertex
62
5
10
201.550000
20
129.690732
0
SEQEND
5
4d4
100
AcDbEntity
8
1
0
ARC
5
4d5
100
AcDbEntity
8
1
100
AcDbCircle
6
CONTINUOUS
62
5
10
203.500000
20
133.188836
40
0.250000
100
AcDbArc
50
179.999998
51
-93.000006
0
LINE
5
4d6
100
AcDbEntity
8
1
100
AcDbLine
6
CONTINUOUS
62
5
10
203.250000
20
133.188836
11
203.250000
21
133.211239
0
ARC
5
4d7
100
AcDbEntity
8
1
100
AcDbCircle
6
CONTINUOUS
62
5
10
203.500000
20
133.211239
40
0.250000
100
AcDbArc
50
92.999992
51
-179.999998
0
LINE
5
4d8
100
AcDbEntity
8
1
100
AcDbLine
6
CONTINUOUS
62
5
10
203.486916
20
133.460896
11
206.550000
21
133.621425
0
LINE
5
4d9
100
AcDbEntity
8
1
100
AcDbLine
6
CONTINUOUS
62
5
10
206.549999
20
132.778649
11
203.486916
21
132.939179
0
LINE
5
4da
100
AcDbEntity
8
1
100
AcDbLine
6
CONTINUOUS
62
5
10
208.449999
20
133.842894
11
208.449999
21
140.457180
0
POLYLINE
5
4db
100
AcDbEntity
8
1
6
CONTINUOUS
62
5
100
AcDb2dPolyline
66
1
10
0.0
20
0.0
30
0.0
70
0
0
VERTEX
5
4dc
100
AcDbEntity
8
1
100
AcDbVertex
100
AcDb2dVertex
62
5
10
208.049999
20
133.700036
0
VERTEX
5
4dd
100
AcDbEntity
8
1
100
AcDbVertex
100
AcDb2dVertex
62
5
10
209.449999
20
134.200037
0
VERTEX
5
4de
100
AcDbEntity
8
1
100
AcDbVertex
100
AcDb2dVertex
62
5
10
209.449999
20
140.100036
0
VERTEX
5
4df
100
AcDbEntity
8
1
100
AcDbVertex
100
AcDb2dVertex
62
5
10
208.050000
20
140.600037
0
SEQEND
5
4e0
100
AcDbEntity
8
1
0
POLYLINE
5
4e1
100
AcDbEntity
8
1
6
CONTINUOUS
62
5
100
AcDb2dPolyline
66
1
10
0.0
20
0.0
30
0.0
70
0
0
VERTEX
5
4e2
100
AcDbEntity
8
1
100
AcDbVertex
100
AcDb2dVertex
62
5
10
209.549999
20
140.650019
0
VERTEX
5
4e3
100
AcDbEntity
8
1
100
AcDbVertex
100
AcDb2dVertex
62
5
10
208.049999
20
140.650019
0
VERTEX
5
4e4
100
AcDbEntity
8
1
100
AcDbVertex
100
AcDb2dVertex
62
5
10
208.049999
20
133.650020
0
VERTEX
5
4e5
100
AcDbEntity
8
1
100
AcDbVertex
100
AcDb2dVertex
62
5
10
209.550000
20
133.650020
0
SEQEND
5
4e6
100
AcDbEntity
8
1
0
POLYLINE
5
4e7
100
AcDbEntity
8
1
6
CONTINUOUS
62
5
100
AcDb2dPolyline
66
1
10
0.0
20
0.0
30
0.0
70
1
0
VERTEX
5
4e8
100
AcDbEntity
8
1
100
AcDbVertex
100
AcDb2dVertex
62
5
10
212.768181
20
140.650019
0
VERTEX
5
4e9
100
AcDbEntity
8
1
100
AcDbVertex
100
AcDb2dVertex
62
5
10
213.313635
20
140.650019
0
VERTEX
5
4ea
100
AcDbEntity
8
1
100
AcDbVertex
100
AcDb2dVertex
62
5
10
213.313635
20
133.650020
0
VERTEX
5
4eb
100
AcDbEntity
8
1
100
AcDbVertex
100
AcDb2dVertex
62
5
10
212.768181
20
133.650020
0
SEQEND
5
4ec
100
AcDbEntity
8
1
0
POLYLINE
5
4ed
100
AcDbEntity
8
1
6
CONTINUOUS
62
5
100
AcDb2dPolyline
66
1
10
0.0
20
0.0
30
0.0
70
0
0
VERTEX
5
4ee
100
AcDbEntity
8
1
100
AcDbVertex
100
AcDb2dVertex
62
5
10
209.550000
20
126.650020
0
VERTEX
5
4ef
100
AcDbEntity
8
1
100
AcDbVertex
100
AcDb2dVertex
62
5
10
213.549999
20
126.650021
0
VERTEX
5
4f0
100
AcDbEntity
8
1
100
AcDbVertex
100
AcDb2dVertex
62
5
10
213.549999
20
147.400018
0
VERTEX
5
4f1
100
AcDbEntity
8
1
100
AcDbVertex
100
AcDb2dVertex
62
5
10
209.550000
20
147.400018
0
SEQEND
5
4f2
100
AcDbEntity
8
1
0
POLYLINE
5
4f3
100
AcDbEntity
8
1
6
CONTINUOUS
62
5
100
AcDb2dPolyline
66
1
10
0.0
20
0.0
30
0.0
70
0
0
VERTEX
5
4f4
100
AcDbEntity
8
1
100
AcDbVertex
100
AcDb2dVertex
62
5
10
210.150017
20
149.150019
0
VERTEX
5
4f5
100
AcDbEntity
8
1
100
AcDbVertex
100
AcDb2dVertex
62
5
10
211.549999
20
149.150019
0
VERTEX
5
4f6
100
AcDbEntity
8
1
100
AcDbVertex
100
AcDb2dVertex
62
5
10
211.549999
20
126.650021
0
SEQEND
5
4f7
100
AcDbEntity
8
1
0
ARC
5
4f8
100
AcDbEntity
8
1
100
AcDbCircle
6
CONTINUOUS
62
5
10
207.050000
20
143.650019
40
0.500000
100
AcDbArc
50
89.999999
51
179.999998
0
LINE
5
4f9
100
AcDbEntity
8
1
100
AcDbLine
6
CONTINUOUS
62
5
10
207.050000
20
144.150019
11
209.549999
21
144.150019
0
LINE
5
4fa
100
AcDbEntity
8
1
100
AcDbLine
6
CONTINUOUS
62
5
10
209.549999
20
130.150021
11
207.050000
21
130.150021
0
ARC
5
4fb
100
AcDbEntity
8
1
100
AcDbCircle
6
CONTINUOUS
62
5
10
207.050000
20
130.650021
40
0.500000
100
AcDbArc
50
179.999998
51
-89.999999
0
LINE
5
4fc
100
AcDbEntity
8
1
100
AcDbLine
6
CONTINUOUS
62
5
10
206.550000
20
130.650021
11
206.550000
21
143.650019
0
ARC
5
4fd
100
AcDbEntity
8
1
100
AcDbCircle
6
CONTINUOUS
62
5
10
223.849998
20
133.941439
40
0.100000
100
AcDbArc
50
179.999998
51
-134.999938
0
POLYLINE
5
4fe
100
AcDbEntity
8
1
6
CONTINUOUS
62
5
100
AcDb2dPolyline
66
1
10
0.0
20
0.0
30
0.0
70
0
0
VERTEX
5
4ff
100
AcDbEntity
8
1
100
AcDbVertex
100
AcDb2dVertex
62
5
10
223.749998
20
133.941439
0
VERTEX
5
500
100
AcDbEntity
8
1
100
AcDbVertex
100
AcDb2dVertex
62
5
10
223.749998
20
170.400019
0
VERTEX
5
501
100
AcDbEntity
8
1
100
AcDbVertex
100
AcDb2dVertex
62
5
10
224.220709
20
170.870729
0
SEQEND
5
502
100
AcDbEntity
8
1
0
ARC
5
503
100
AcDbEntity
8
1
100
AcDbCircle
6
CONTINUOUS
62
5
10
224.149998
20
170.941440
40
0.100000
100
AcDbArc
50
-45.000000
51
0.000000
0
LINE
5
504
100
AcDbEntity
8
1
100
AcDbLine
6
CONTINUOUS
62
5
10
224.249998
20
170.941440
11
224.249998
21
172.800018
0
ARC
5
505
100
AcDbEntity
8
1
100
AcDbCircle
6
CONTINUOUS
62
5
10
224.349998
20
172.800018
40
0.100000
100
AcDbArc
50
89.999888
51
179.999998
0
LINE
5
506
100
AcDbEntity
8
1
100
AcDbLine
6
CONTINUOUS
62
5
10
224.349998
20
172.900018
11
224.349998
21
172.900018
0
LINE
5
507
100
AcDbEntity
8
1
100
AcDbLine
6
CONTINUOUS
62
5
10
213.549999
20
129.900020
11
213.549999
21
129.900019
0
ARC
5
508
100
AcDbEntity
8
1
100
AcDbCircle
6
CONTINUOUS
62
5
10
214.549999
20
129.900019
40
1.000000
100
AcDbArc
50
89.999999
51
179.999998
0
LINE
5
509
100
AcDbEntity
8
1
100
AcDbLine
6
CONTINUOUS
62
5
10
214.549999
20
130.900019
11
224.149998
21
130.900019
0
ARC
5
50a
100
AcDbEntity
8
1
100
AcDbCircle
6
CONTINUOUS
62
5
10
224.149998
20
131.000019
40
0.100000
100
AcDbArc
50
-89.999999
51
0.000000
0
LINE
5
50b
100
AcDbEntity
8
1
100
AcDbLine
6
CONTINUOUS
62
5
10
224.249998
20
131.000019
11
224.249998
21
133.358597
0
ARC
5
50c
100
AcDbEntity
8
1
100
AcDbCircle
6
CONTINUOUS
62
5
10
224.149998
20
133.358597
40
0.100000
100
AcDbArc
50
0.000000
51
45.000060
0
LINE
5
50d
100
AcDbEntity
8
1
100
AcDbLine
6
CONTINUOUS
62
5
10
224.220709
20
133.429308
11
223.779288
21
133.870729
0
LINE
5
50e
100
AcDbEntity
8
1
100
AcDbLine
6
CONTINUOUS
62
5
10
145.350000
20
178.150018
11
145.350000
21
177.850018
0
LINE
5
50f
100
AcDbEntity
8
1
100
AcDbLine
6
CONTINUOUS
62
5
10
145.349999
20
178.150018
11
145.349999
21
177.850018
0
ARC
5
510
100
AcDbEntity
8
1
100
AcDbCircle
6
CONTINUOUS
62
5
10
145.750000
20
177.350018
40
0.500000
100
AcDbArc
50
0.000000
51
89.999999
0
ARC
5
511
100
AcDbEntity
8
1
100
AcDbCircle
6
CONTINUOUS
62
5
10
145.750000
20
175.450018
40
0.500000
100
AcDbArc
50
-89.999999
51
0.000000
0
LINE
5
512
100
AcDbEntity
8
1
100
AcDbLine
6
CONTINUOUS
62
5
10
145.349999
20
174.950017
11
145.349999
21
173.800018
0
LINE
5
513
100
AcDbEntity
8
1
100
AcDbLine
6
CONTINUOUS
62
5
10
146.250000
20
177.350018
11
146.250000
21
175.450018
0
LINE
5
514
100
AcDbEntity
8
1
100
AcDbLine
6
CONTINUOUS
62
5
10
143.300000
20
172.532306
11
143.300000
21
172.400018
0
POLYLINE
5
515
100
AcDbEntity
8
1
6
CONTINUOUS
62
5
100
AcDb2dPolyline
66
1
10
0.0
20
0.0
30
0.0
70
0
0
VERTEX
5
516
100
AcDbEntity
8
1
100
AcDbVertex
100
AcDb2dVertex
62
5
10
143.300209
20
172.833213
0
VERTEX
5
517
100
AcDbEntity
8
1
100
AcDbVertex
100
AcDb2dVertex
62
5
10
143.300228
20
172.833486
0
VERTEX
5
518
100
AcDbEntity
8
1
100
AcDbVertex
100
AcDb2dVertex
62
5
10
143.300283
20
172.834268
0
VERTEX
5
519
100
AcDbEntity
8
1
100
AcDbVertex
100
AcDb2dVertex
62
5
10
143.300370
20
172.835498
0
VERTEX
5
51a
100
AcDbEntity
8
1
100
AcDbVertex
100
AcDb2dVertex
62
5
10
143.300483
20
172.837116
0
VERTEX
5
51b
100
AcDbEntity
8
1
100
AcDbVertex
100
AcDb2dVertex
62
5
10
143.300621
20
172.839064
0
VERTEX
5
51c
100
AcDbEntity
8
1
100
AcDbVertex
100
AcDb2dVertex
62
5
10
143.300777
20
172.841282
0
VERTEX
5
51d
100
AcDbEntity
8
1
100
AcDbVertex
100
AcDb2dVertex
62
5
10
143.300947
20
172.843709
0
VERTEX
5
51e
100
AcDbEntity
8
1
100
AcDbVertex
100
AcDb2dVertex
62
5
10
143.301129
20
172.846288
0
VERTEX
5
51f
100
AcDbEntity
8
1
100
AcDbVertex
100
AcDb2dVertex
62
5
10
143.301317
20
172.848957
0
VERTEX
5
520
100
AcDbEntity
8
1
100
AcDbVertex
100
AcDb2dVertex
62
5
10
143.301507
20
172.851658
0
VERTEX
5
521
100
AcDbEntity
8
1
100
AcDbVertex
100
AcDb2dVertex
62
5
10
143.301695
20
172.854330
0
VERTEX
5
522
100
AcDbEntity
8
1
100
AcDbVertex
100
AcDb2dVertex
62
5
10
143.301883
20
172.856983
0
VERTEX
5
523
100
AcDbEntity
8
1
100
AcDbVertex
100
AcDb2dVertex
62
5
10
143.302078
20
172.859557
0
VERTEX
5
524
100
AcDbEntity
8
1
100
AcDbVertex
100
AcDb2dVertex
62
5
10
143.302291
20
172.862064
0
VERTEX
5
525
100
AcDbEntity
8
1
100
AcDbVertex
100
AcDb2dVertex
62
5
10
143.302536
20
172.864518
0
VERTEX
5
526
100
AcDbEntity
8
1
100
AcDbVertex
100
AcDb2dVertex
62
5
10
143.302825
20
172.866931
0
VERTEX
5
527
100
AcDbEntity
8
1
100
AcDbVertex
100
AcDb2dVertex
62
5
10
143.303170
20
172.869316
0
VERTEX
5
528
100
AcDbEntity
8
1
100
AcDbVertex
100
AcDb2dVertex
62
5
10
143.303585
20
172.871685
0
VERTEX
5
529
100
AcDbEntity
8
1
100
AcDbVertex
100
AcDb2dVertex
62
5
10
143.304081
20
172.874051
0
VERTEX
5
52a
100
AcDbEntity
8
1
100
AcDbVertex
100
AcDb2dVertex
62
5
10
143.304671
20
172.876427
0
VERTEX
5
52b
100
AcDbEntity
8
1
100
AcDbVertex
100
AcDb2dVertex
62
5
10
143.305369
20
172.878824
0
VERTEX
5
52c
100
AcDbEntity
8
1
100
AcDbVertex
100
AcDb2dVertex
62
5
10
143.306186
20
172.881257
0
VERTEX
5
52d
100
AcDbEntity
8
1
100
AcDbVertex
100
AcDb2dVertex
62
5
10
143.307086
20
172.883626
0
VERTEX
5
52e
100
AcDbEntity
8
1
100
AcDbVertex
100
AcDb2dVertex
62
5
10
143.308073
20
172.885994
0
VERTEX
5
52f
100
AcDbEntity
8
1
100
AcDbVertex
100
AcDb2dVertex
62
5
10
143.309113
20
172.888317
0
VERTEX
5
530
100
AcDbEntity
8
1
100
AcDbVertex
100
AcDb2dVertex
62
5
10
143.310170
20
172.890552
0
VERTEX
5
531
100
AcDbEntity
8
1
100
AcDbVertex
100
AcDb2dVertex
62
5
10
143.311211
20
172.892654
0
VERTEX
5
532
100
AcDbEntity
8
1
100
AcDbVertex
100
AcDb2dVertex
62
5
10
143.312202
20
172.894578
0
VERTEX
5
533
100
AcDbEntity
8
1
100
AcDbVertex
100
AcDb2dVertex
62
5
10
143.313107
20
172.896281
0
VERTEX
5
534
100
AcDbEntity
8
1
100
AcDbVertex
100
AcDb2dVertex
62
5
10
143.313892
20
172.897719
0
VERTEX
5
535
100
AcDbEntity
8
1
100
AcDbVertex
100
AcDb2dVertex
62
5
10
143.314522
20
172.898847
0
VERTEX
5
536
100
AcDbEntity
8
1
100
AcDbVertex
100
AcDb2dVertex
62
5
10
143.314963
20
172.899621
0
VERTEX
5
537
100
AcDbEntity
8
1
100
AcDbVertex
100
AcDb2dVertex
62
5
10
143.315181
20
172.899997
0
VERTEX
5
538
100
AcDbEntity
8
1
100
AcDbVertex
100
AcDb2dVertex
62
5
10
143.315183
20
172.900000
0
VERTEX
5
539
100
AcDbEntity
8
1
100
AcDbVertex
100
AcDb2dVertex
62
5
10
143.315185
20
172.900004
0
VERTEX
5
53a
100
AcDbEntity
8
1
100
AcDbVertex
100
AcDb2dVertex
62
5
10
143.315187
20
172.900006
0
VERTEX
5
53b
100
AcDbEntity
8
1
100
AcDbVertex
100
AcDb2dVertex
62
5
10
143.315188
20
172.900009
0
VERTEX
5
53c
100
AcDbEntity
8
1
100
AcDbVertex
100
AcDb2dVertex
62
5
10
143.315190
20
172.900011
0
VERTEX
5
53d
100
AcDbEntity
8
1
100
AcDbVertex
100
AcDb2dVertex
62
5
10
143.315191
20
172.900013
0
VERTEX
5
53e
100
AcDbEntity
8
1
100
AcDbVertex
100
AcDb2dVertex
62
5
10
143.315192
20
172.900015
0
VERTEX
5
53f
100
AcDbEntity
8
1
100
AcDbVertex
100
AcDb2dVertex
62
5
10
143.315193
20
172.900016
0
VERTEX
5
540
100
AcDbEntity
8
1
100
AcDbVertex
100
AcDb2dVertex
62
5
10
143.315193
20
172.900017
0
VERTEX
5
541
100
AcDbEntity
8
1
100
AcDbVertex
100
AcDb2dVertex
62
5
10
143.315194
20
172.900018
0
VERTEX
5
542
100
AcDbEntity
8
1
100
AcDbVertex
100
AcDb2dVertex
62
5
10
143.315194
20
172.900018
0
SEQEND
5
543
100
AcDbEntity
8
1
0
POLYLINE
5
544
100
AcDbEntity
8
1
6
CONTINUOUS
62
5
100
AcDb2dPolyline
66
1
10
0.0
20
0.0
30
0.0
70
0
0
VERTEX
5
545
100
AcDbEntity
8
1
100
AcDbVertex
100
AcDb2dVertex
62
5
10
143.300000
20
172.824077
0
VERTEX
5
546
100
AcDbEntity
8
1
100
AcDbVertex
100
AcDb2dVertex
62
5
10
143.300000
20
172.824113
0
VERTEX
5
547
100
AcDbEntity
8
1
100
AcDbVertex
100
AcDb2dVertex
62
5
10
143.300000
20
172.824217
0
VERTEX
5
548
100
AcDbEntity
8
1
100
AcDbVertex
100
AcDb2dVertex
62
5
10
143.300000
20
172.824381
0
VERTEX
5
549
100
AcDbEntity
8
1
100
AcDbVertex
100
AcDb2dVertex
62
5
10
143.300000
20
172.824596
0
VERTEX
5
54a
100
AcDbEntity
8
1
100
AcDbVertex
100
AcDb2dVertex
62
5
10
143.300001
20
172.824854
0
VERTEX
5
54b
100
AcDbEntity
8
1
100
AcDbVertex
100
AcDb2dVertex
62
5
10
143.300002
20
172.825149
0
VERTEX
5
54c
100
AcDbEntity
8
1
100
AcDbVertex
100
AcDb2dVertex
62
5
10
143.300003
20
172.825470
0
VERTEX
5
54d
100
AcDbEntity
8
1
100
AcDbVertex
100
AcDb2dVertex
62
5
10
143.300004
20
172.825811
0
VERTEX
5
54e
100
AcDbEntity
8
1
100
AcDbVertex
100
AcDb2dVertex
62
5
10
143.300006
20
172.826164
0
VERTEX
5
54f
100
AcDbEntity
8
1
100
AcDbVertex
100
AcDb2dVertex
62
5
10
143.300009
20
172.826520
0
VERTEX
5
550
100
AcDbEntity
8
1
100
AcDbVertex
100
AcDb2dVertex
62
5
10
143.300011
20
172.826871
0
VERTEX
5
551
100
AcDbEntity
8
1
100
AcDbVertex
100
AcDb2dVertex
62
5
10
143.300015
20
172.827213
0
VERTEX
5
552
100
AcDbEntity
8
1
100
AcDbVertex
100
AcDb2dVertex
62
5
10
143.300019
20
172.827544
0
VERTEX
5
553
100
AcDbEntity
8
1
100
AcDbVertex
100
AcDb2dVertex
62
5
10
143.300024
20
172.827867
0
VERTEX
5
554
100
AcDbEntity
8
1
100
AcDbVertex
100
AcDb2dVertex
62
5
10
143.300029
20
172.828184
0
VERTEX
5
555
100
AcDbEntity
8
1
100
AcDbVertex
100
AcDb2dVertex
62
5
10
143.300036
20
172.828498
0
VERTEX
5
556
100
AcDbEntity
8
1
100
AcDbVertex
100
AcDb2dVertex
62
5
10
143.300043
20
172.828810
0
VERTEX
5
557
100
AcDbEntity
8
1
100
AcDbVertex
100
AcDb2dVertex
62
5
10
143.300051
20
172.829124
0
VERTEX
5
558
100
AcDbEntity
8
1
100
AcDbVertex
100
AcDb2dVertex
62
5
10
143.300060
20
172.829441
0
VERTEX
5
559
100
AcDbEntity
8
1
100
AcDbVertex
100
AcDb2dVertex
62
5
10
143.300070
20
172.829764
0
VERTEX
5
55a
100
AcDbEntity
8
1
100
AcDbVertex
100
AcDb2dVertex
62
5
10
143.300081
20
172.830095
0
VERTEX
5
55b
100
AcDbEntity
8
1
100
AcDbVertex
100
AcDb2dVertex
62
5
10
143.300093
20
172.830435
0
VERTEX
5
55c
100
AcDbEntity
8
1
100
AcDbVertex
100
AcDb2dVertex
62
5
10
143.300106
20
172.830785
0
VERTEX
5
55d
100
AcDbEntity
8
1
100
AcDbVertex
100
AcDb2dVertex
62
5
10
143.300120
20
172.831139
0
VERTEX
5
55e
100
AcDbEntity
8
1
100
AcDbVertex
100
AcDb2dVertex
62
5
10
143.300134
20
172.831490
0
VERTEX
5
55f
100
AcDbEntity
8
1
100
AcDbVertex
100
AcDb2dVertex
62
5
10
143.300148
20
172.831829
0
VERTEX
5
560
100
AcDbEntity
8
1
100
AcDbVertex
100
AcDb2dVertex
62
5
10
143.300162
20
172.832149
0
VERTEX
5
561
100
AcDbEntity
8
1
100
AcDbVertex
100
AcDb2dVertex
62
5
10
143.300174
20
172.832441
0
VERTEX
5
562
100
AcDbEntity
8
1
100
AcDbVertex
100
AcDb2dVertex
62
5
10
143.300186
20
172.832698
0
VERTEX
5
563
100
AcDbEntity
8
1
100
AcDbVertex
100
AcDb2dVertex
62
5
10
143.300195
20
172.832912
0
VERTEX
5
564
100
AcDbEntity
8
1
100
AcDbVertex
100
AcDb2dVertex
62
5
10
143.300202
20
172.833074
0
VERTEX
5
565
100
AcDbEntity
8
1
100
AcDbVertex
100
AcDb2dVertex
62
5
10
143.300207
20
172.833177
0
VERTEX
5
566
100
AcDbEntity
8
1
100
AcDbVertex
100
AcDb2dVertex
62
5
10
143.300209
20
172.833214
0
SEQEND
5
567
100
AcDbEntity
8
1
0
LINE
5
568
100
AcDbEntity
8
1
100
AcDbLine
6
CONTINUOUS
62
5
10
143.300000
20
172.532306
11
143.300000
21
172.824076
0
LINE
5
569
100
AcDbEntity
8
1
100
AcDbLine
6
CONTINUOUS
62
5
10
143.300000
20
164.400019
11
143.300000
21
163.400019
0
ARC
5
56a
100
AcDbEntity
8
1
100
AcDbCircle
6
CONTINUOUS
62
5
10
143.000000
20
163.200019
40
0.300000
100
AcDbArc
50
-89.999999
51
0.000000
0
LINE
5
56b
100
AcDbEntity
8
1
100
AcDbLine
6
CONTINUOUS
62
5
10
143.300000
20
163.200018
11
143.300000
21
163.400018
0
LINE
5
56c
100
AcDbEntity
8
1
100
AcDbLine
6
CONTINUOUS
62
5
10
143.300000
20
164.400018
11
143.300000
21
172.400017
0
POLYLINE
5
56d
100
AcDbEntity
8
1
6
CONTINUOUS
62
5
100
AcDb2dPolyline
66
1
10
0.0
20
0.0
30
0.0
70
0
0
VERTEX
5
56e
100
AcDbEntity
8
1
100
AcDbVertex
100
AcDb2dVertex
62
5
10
138.197083
20
179.472569
0
VERTEX
5
56f
100
AcDbEntity
8
1
100
AcDbVertex
100
AcDb2dVertex
62
5
10
138.196264
20
179.469941
0
VERTEX
5
570
100
AcDbEntity
8
1
100
AcDbVertex
100
AcDb2dVertex
62
5
10
138.195451
20
179.465353
0
VERTEX
5
571
100
AcDbEntity
8
1
100
AcDbVertex
100
AcDb2dVertex
62
5
10
138.194646
20
179.458823
0
VERTEX
5
572
100
AcDbEntity
8
1
100
AcDbVertex
100
AcDb2dVertex
62
5
10
138.193854
20
179.450377
0
VERTEX
5
573
100
AcDbEntity
8
1
100
AcDbVertex
100
AcDb2dVertex
62
5
10
138.193078
20
179.440047
0
VERTEX
5
574
100
AcDbEntity
8
1
100
AcDbVertex
100
AcDb2dVertex
62
5
10
138.192320
20
179.427876
0
VERTEX
5
575
100
AcDbEntity
8
1
100
AcDbVertex
100
AcDb2dVertex
62
5
10
138.191583
20
179.413910
0
VERTEX
5
576
100
AcDbEntity
8
1
100
AcDbVertex
100
AcDb2dVertex
62
5
10
138.190871
20
179.398205
0
VERTEX
5
577
100
AcDbEntity
8
1
100
AcDbVertex
100
AcDb2dVertex
62
5
10
138.190186
20
179.380823
0
VERTEX
5
578
100
AcDbEntity
8
1
100
AcDbVertex
100
AcDb2dVertex
62
5
10
138.189531
20
179.361833
0
VERTEX
5
579
100
AcDbEntity
8
1
100
AcDbVertex
100
AcDb2dVertex
62
5
10
138.188909
20
179.341309
0
VERTEX
5
57a
100
AcDbEntity
8
1
100
AcDbVertex
100
AcDb2dVertex
62
5
10
138.188322
20
179.319332
0
VERTEX
5
57b
100
AcDbEntity
8
1
100
AcDbVertex
100
AcDb2dVertex
62
5
10
138.187771
20
179.295990
0
VERTEX
5
57c
100
AcDbEntity
8
1
100
AcDbVertex
100
AcDb2dVertex
62
5
10
138.187261
20
179.271373
0
VERTEX
5
57d
100
AcDbEntity
8
1
100
AcDbVertex
100
AcDb2dVertex
62
5
10
138.186791
20
179.245581
0
VERTEX
5
57e
100
AcDbEntity
8
1
100
AcDbVertex
100
AcDb2dVertex
62
5
10
138.186365
20
179.218713
0
VERTEX
5
57f
100
AcDbEntity
8
1
100
AcDbVertex
100
AcDb2dVertex
62
5
10
138.186103
20
179.200001
0
SEQEND
5
580
100
AcDbEntity
8
1
0
LINE
5
581
100
AcDbEntity
8
1
100
AcDbLine
6
CONTINUOUS
62
5
10
138.197084
20
178.927433
11
138.350000
21
178.621389
0
POLYLINE
5
582
100
AcDbEntity
8
1
6
CONTINUOUS
62
5
100
AcDb2dPolyline
66
1
10
0.0
20
0.0
30
0.0
70
0
0
VERTEX
5
583
100
AcDbEntity
8
1
100
AcDbVertex
100
AcDb2dVertex
62
5
10
138.186103
20
179.200001
0
VERTEX
5
584
100
AcDbEntity
8
1
100
AcDbVertex
100
AcDb2dVertex
62
5
10
138.186499
20
179.172467
0
VERTEX
5
585
100
AcDbEntity
8
1
100
AcDbVertex
100
AcDb2dVertex
62
5
10
138.186939
20
179.145936
0
VERTEX
5
586
100
AcDbEntity
8
1
100
AcDbVertex
100
AcDb2dVertex
62
5
10
138.187422
20
179.120514
0
VERTEX
5
587
100
AcDbEntity
8
1
100
AcDbVertex
100
AcDb2dVertex
62
5
10
138.187946
20
179.096301
0
VERTEX
5
588
100
AcDbEntity
8
1
100
AcDbVertex
100
AcDb2dVertex
62
5
10
138.188508
20
179.073391
0
VERTEX
5
589
100
AcDbEntity
8
1
100
AcDbVertex
100
AcDb2dVertex
62
5
10
138.189107
20
179.051876
0
VERTEX
5
58a
100
AcDbEntity
8
1
100
AcDbVertex
100
AcDb2dVertex
62
5
10
138.189740
20
179.031841
0
VERTEX
5
58b
100
AcDbEntity
8
1
100
AcDbVertex
100
AcDb2dVertex
62
5
10
138.190405
20
179.013364
0
VERTEX
5
58c
100
AcDbEntity
8
1
100
AcDbVertex
100
AcDb2dVertex
62
5
10
138.191099
20
178.996518
0
VERTEX
5
58d
100
AcDbEntity
8
1
100
AcDbVertex
100
AcDb2dVertex
62
5
10
138.191820
20
178.981371
0
VERTEX
5
58e
100
AcDbEntity
8
1
100
AcDbVertex
100
AcDb2dVertex
62
5
10
138.192563
20
178.967981
0
VERTEX
5
58f
100
AcDbEntity
8
1
100
AcDbVertex
100
AcDb2dVertex
62
5
10
138.193328
20
178.956401
0
VERTEX
5
590
100
AcDbEntity
8
1
100
AcDbVertex
100
AcDb2dVertex
62
5
10
138.194110
20
178.946678
0
VERTEX
5
591
100
AcDbEntity
8
1
100
AcDbVertex
100
AcDb2dVertex
62
5
10
138.194906
20
178.938850
0
VERTEX
5
592
100
AcDbEntity
8
1
100
AcDbVertex
100
AcDb2dVertex
62
5
10
138.195713
20
178.932947
0
VERTEX
5
593
100
AcDbEntity
8
1
100
AcDbVertex
100
AcDb2dVertex
62
5
10
138.196529
20
178.928993
0
VERTEX
5
594
100
AcDbEntity
8
1
100
AcDbVertex
100
AcDb2dVertex
62
5
10
138.197083
20
178.927432
0
SEQEND
5
595
100
AcDbEntity
8
1
0
LINE
5
596
100
AcDbEntity
8
1
100
AcDbLine
6
CONTINUOUS
62
5
10
138.400000
20
176.150017
11
138.400000
21
176.318356
0
LINE
5
597
100
AcDbEntity
8
1
100
AcDbLine
6
CONTINUOUS
62
5
10
138.350000
20
176.150017
11
138.400000
21
176.150017
0
POLYLINE
5
598
100
AcDbEntity
8
1
6
CONTINUOUS
62
5
100
AcDb2dPolyline
66
1
10
0.0
20
0.0
30
0.0
70
0
0
VERTEX
5
599
100
AcDbEntity
8
1
100
AcDbVertex
100
AcDb2dVertex
62
5
10
138.400000
20
176.318356
0
VERTEX
5
59a
100
AcDbEntity
8
1
100
AcDbVertex
100
AcDb2dVertex
62
5
10
138.400000
20
176.319069
0
VERTEX
5
59b
100
AcDbEntity
8
1
100
AcDbVertex
100
AcDb2dVertex
62
5
10
138.400000
20
176.321097
0
VERTEX
5
59c
100
AcDbEntity
8
1
100
AcDbVertex
100
AcDb2dVertex
62
5
10
138.400000
20
176.324270
0
VERTEX
5
59d
100
AcDbEntity
8
1
100
AcDbVertex
100
AcDb2dVertex
62
5
10
138.400000
20
176.328417
0
VERTEX
5
59e
100
AcDbEntity
8
1
100
AcDbVertex
100
AcDb2dVertex
62
5
10
138.400000
20
176.333369
0
VERTEX
5
59f
100
AcDbEntity
8
1
100
AcDbVertex
100
AcDb2dVertex
62
5
10
138.400000
20
176.338956
0
VERTEX
5
5a0
100
AcDbEntity
8
1
100
AcDbVertex
100
AcDb2dVertex
62
5
10
138.400000
20
176.345008
0
VERTEX
5
5a1
100
AcDbEntity
8
1
100
AcDbVertex
100
AcDb2dVertex
62
5
10
138.400000
20
176.351355
0
VERTEX
5
5a2
100
AcDbEntity
8
1
100
AcDbVertex
100
AcDb2dVertex
62
5
10
138.400000
20
176.357828
0
VERTEX
5
5a3
100
AcDbEntity
8
1
100
AcDbVertex
100
AcDb2dVertex
62
5
10
138.400000
20
176.364257
0
VERTEX
5
5a4
100
AcDbEntity
8
1
100
AcDbVertex
100
AcDb2dVertex
62
5
10
138.400000
20
176.370472
0
VERTEX
5
5a5
100
AcDbEntity
8
1
100
AcDbVertex
100
AcDb2dVertex
62
5
10
138.400000
20
176.376127
0
VERTEX
5
5a6
100
AcDbEntity
8
1
100
AcDbVertex
100
AcDb2dVertex
62
5
10
138.400000
20
176.381481
0
VERTEX
5
5a7
100
AcDbEntity
8
1
100
AcDbVertex
100
AcDb2dVertex
62
5
10
138.400000
20
176.386587
0
VERTEX
5
5a8
100
AcDbEntity
8
1
100
AcDbVertex
100
AcDb2dVertex
62
5
10
138.400000
20
176.391499
0
VERTEX
5
5a9
100
AcDbEntity
8
1
100
AcDbVertex
100
AcDb2dVertex
62
5
10
138.400000
20
176.396271
0
VERTEX
5
5aa
100
AcDbEntity
8
1
100
AcDbVertex
100
AcDb2dVertex
62
5
10
138.400000
20
176.400957
0
VERTEX
5
5ab
100
AcDbEntity
8
1
100
AcDbVertex
100
AcDb2dVertex
62
5
10
138.400000
20
176.405611
0
VERTEX
5
5ac
100
AcDbEntity
8
1
100
AcDbVertex
100
AcDb2dVertex
62
5
10
138.400000
20
176.410286
0
VERTEX
5
5ad
100
AcDbEntity
8
1
100
AcDbVertex
100
AcDb2dVertex
62
5
10
138.400000
20
176.415037
0
VERTEX
5
5ae
100
AcDbEntity
8
1
100
AcDbVertex
100
AcDb2dVertex
62
5
10
138.400000
20
176.419918
0
VERTEX
5
5af
100
AcDbEntity
8
1
100
AcDbVertex
100
AcDb2dVertex
62
5
10
138.400000
20
176.424982
0
VERTEX
5
5b0
100
AcDbEntity
8
1
100
AcDbVertex
100
AcDb2dVertex
62
5
10
138.400000
20
176.435483
0
VERTEX
5
5b1
100
AcDbEntity
8
1
100
AcDbVertex
100
AcDb2dVertex
62
5
10
138.400000
20
176.446718
0
VERTEX
5
5b2
100
AcDbEntity
8
1
100
AcDbVertex
100
AcDb2dVertex
62
5
10
138.400000
20
176.458521
0
VERTEX
5
5b3
100
AcDbEntity
8
1
100
AcDbVertex
100
AcDb2dVertex
62
5
10
138.400000
20
176.470724
0
VERTEX
5
5b4
100
AcDbEntity
8
1
100
AcDbVertex
100
AcDb2dVertex
62
5
10
138.400000
20
176.483161
0
VERTEX
5
5b5
100
AcDbEntity
8
1
100
AcDbVertex
100
AcDb2dVertex
62
5
10
138.400000
20
176.495666
0
VERTEX
5
5b6
100
AcDbEntity
8
1
100
AcDbVertex
100
AcDb2dVertex
62
5
10
138.400000
20
176.508071
0
VERTEX
5
5b7
100
AcDbEntity
8
1
100
AcDbVertex
100
AcDb2dVertex
62
5
10
138.400000
20
176.520210
0
VERTEX
5
5b8
100
AcDbEntity
8
1
100
AcDbVertex
100
AcDb2dVertex
62
5
10
138.400000
20
176.531916
0
VERTEX
5
5b9
100
AcDbEntity
8
1
100
AcDbVertex
100
AcDb2dVertex
62
5
10
138.400000
20
176.543022
0
VERTEX
5
5ba
100
AcDbEntity
8
1
100
AcDbVertex
100
AcDb2dVertex
62
5
10
138.400000
20
176.553361
0
VERTEX
5
5bb
100
AcDbEntity
8
1
100
AcDbVertex
100
AcDb2dVertex
62
5
10
138.400000
20
176.558060
0
VERTEX
5
5bc
100
AcDbEntity
8
1
100
AcDbVertex
100
AcDb2dVertex
62
5
10
138.400000
20
176.562589
0
VERTEX
5
5bd
100
AcDbEntity
8
1
100
AcDbVertex
100
AcDb2dVertex
62
5
10
138.400000
20
176.567000
0
VERTEX
5
5be
100
AcDbEntity
8
1
100
AcDbVertex
100
AcDb2dVertex
62
5
10
138.400000
20
176.571342
0
VERTEX
5
5bf
100
AcDbEntity
8
1
100
AcDbVertex
100
AcDb2dVertex
62
5
10
138.400000
20
176.575666
0
VERTEX
5
5c0
100
AcDbEntity
8
1
100
AcDbVertex
100
AcDb2dVertex
62
5
10
138.400000
20
176.580022
0
VERTEX
5
5c1
100
AcDbEntity
8
1
100
AcDbVertex
100
AcDb2dVertex
62
5
10
138.400000
20
176.584460
0
VERTEX
5
5c2
100
AcDbEntity
8
1
100
AcDbVertex
100
AcDb2dVertex
62
5
10
138.400000
20
176.589030
0
VERTEX
5
5c3
100
AcDbEntity
8
1
100
AcDbVertex
100
AcDb2dVertex
62
5
10
138.400000
20
176.593784
0
VERTEX
5
5c4
100
AcDbEntity
8
1
100
AcDbVertex
100
AcDb2dVertex
62
5
10
138.400000
20
176.598770
0
VERTEX
5
5c5
100
AcDbEntity
8
1
100
AcDbVertex
100
AcDb2dVertex
62
5
10
138.400000
20
176.604039
0
VERTEX
5
5c6
100
AcDbEntity
8
1
100
AcDbVertex
100
AcDb2dVertex
62
5
10
138.400000
20
176.609550
0
VERTEX
5
5c7
100
AcDbEntity
8
1
100
AcDbVertex
100
AcDb2dVertex
62
5
10
138.400000
20
176.615238
0
VERTEX
5
5c8
100
AcDbEntity
8
1
100
AcDbVertex
100
AcDb2dVertex
62
5
10
138.400000
20
176.620957
0
VERTEX
5
5c9
100
AcDbEntity
8
1
100
AcDbVertex
100
AcDb2dVertex
62
5
10
138.400000
20
176.626558
0
VERTEX
5
5ca
100
AcDbEntity
8
1
100
AcDbVertex
100
AcDb2dVertex
62
5
10
138.400000
20
176.631893
0
VERTEX
5
5cb
100
AcDbEntity
8
1
100
AcDbVertex
100
AcDb2dVertex
62
5
10
138.400000
20
176.636814
0
VERTEX
5
5cc
100
AcDbEntity
8
1
100
AcDbVertex
100
AcDb2dVertex
62
5
10
138.400000
20
176.641172
0
VERTEX
5
5cd
100
AcDbEntity
8
1
100
AcDbVertex
100
AcDb2dVertex
62
5
10
138.400000
20
176.644820
0
VERTEX
5
5ce
100
AcDbEntity
8
1
100
AcDbVertex
100
AcDb2dVertex
62
5
10
138.400000
20
176.647609
0
VERTEX
5
5cf
100
AcDbEntity
8
1
100
AcDbVertex
100
AcDb2dVertex
62
5
10
138.400000
20
176.649391
0
VERTEX
5
5d0
100
AcDbEntity
8
1
100
AcDbVertex
100
AcDb2dVertex
62
5
10
138.400000
20
176.650018
0
SEQEND
5
5d1
100
AcDbEntity
8
1
0
LINE
5
5d2
100
AcDbEntity
8
1
100
AcDbLine
6
CONTINUOUS
62
5
10
138.350000
20
176.750018
11
138.349999
21
176.750018
0
ARC
5
5d3
100
AcDbEntity
8
1
100
AcDbCircle
6
CONTINUOUS
62
5
10
138.900000
20
176.650018
40
0.500000
100
AcDbArc
50
179.999998
51
-89.999999
0
LINE
5
5d4
100
AcDbEntity
8
1
100
AcDbLine
6
CONTINUOUS
62
5
10
138.350000
20
178.621389
11
138.350000
21
172.578428
0
POLYLINE
5
5d5
100
AcDbEntity
8
1
6
CONTINUOUS
62
5
100
AcDb2dPolyline
66
1
10
0.0
20
0.0
30
0.0
70
0
0
VERTEX
5
5d6
100
AcDbEntity
8
1
100
AcDbVertex
100
AcDb2dVertex
62
5
10
138.402372
20
168.921574
0
VERTEX
5
5d7
100
AcDbEntity
8
1
100
AcDbVertex
100
AcDb2dVertex
62
5
10
138.402268
20
169.047155
0
VERTEX
5
5d8
100
AcDbEntity
8
1
100
AcDbVertex
100
AcDb2dVertex
62
5
10
138.401959
20
169.172240
0
VERTEX
5
5d9
100
AcDbEntity
8
1
100
AcDbVertex
100
AcDb2dVertex
62
5
10
138.401444
20
169.296337
0
VERTEX
5
5da
100
AcDbEntity
8
1
100
AcDbVertex
100
AcDb2dVertex
62
5
10
138.400726
20
169.418954
0
VERTEX
5
5db
100
AcDbEntity
8
1
100
AcDbVertex
100
AcDb2dVertex
62
5
10
138.399809
20
169.539608
0
VERTEX
5
5dc
100
AcDbEntity
8
1
100
AcDbVertex
100
AcDb2dVertex
62
5
10
138.398694
20
169.657823
0
VERTEX
5
5dd
100
AcDbEntity
8
1
100
AcDbVertex
100
AcDb2dVertex
62
5
10
138.397387
20
169.773133
0
VERTEX
5
5de
100
AcDbEntity
8
1
100
AcDbVertex
100
AcDb2dVertex
62
5
10
138.395894
20
169.885081
0
VERTEX
5
5df
100
AcDbEntity
8
1
100
AcDbVertex
100
AcDb2dVertex
62
5
10
138.394219
20
169.993228
0
VERTEX
5
5e0
100
AcDbEntity
8
1
100
AcDbVertex
100
AcDb2dVertex
62
5
10
138.392370
20
170.097144
0
VERTEX
5
5e1
100
AcDbEntity
8
1
100
AcDbVertex
100
AcDb2dVertex
62
5
10
138.390353
20
170.196422
0
VERTEX
5
5e2
100
AcDbEntity
8
1
100
AcDbVertex
100
AcDb2dVertex
62
5
10
138.388177
20
170.290668
0
VERTEX
5
5e3
100
AcDbEntity
8
1
100
AcDbVertex
100
AcDb2dVertex
62
5
10
138.387032
20
170.335788
0
SEQEND
5
5e4
100
AcDbEntity
8
1
0
LINE
5
5e5
100
AcDbEntity
8
1
100
AcDbLine
6
CONTINUOUS
62
5
10
138.402371
20
167.569263
11
138.242516
21
167.249331
0
LINE
5
5e6
100
AcDbEntity
8
1
100
AcDbLine
6
CONTINUOUS
62
5
10
138.402371
20
168.921574
11
138.402371
21
167.569263
0
LINE
5
5e7
100
AcDbEntity
8
1
100
AcDbLine
6
CONTINUOUS
62
5
10
138.402371
20
168.921574
11
138.402371
21
167.569263
0
POLYLINE
5
5e8
100
AcDbEntity
8
1
6
CONTINUOUS
62
5
100
AcDb2dPolyline
66
1
10
0.0
20
0.0
30
0.0
70
0
0
VERTEX
5
5e9
100
AcDbEntity
8
1
100
AcDbVertex
100
AcDb2dVertex
62
5
10
138.242515
20
167.249331
0
VERTEX
5
5ea
100
AcDbEntity
8
1
100
AcDbVertex
100
AcDb2dVertex
62
5
10
138.239237
20
167.238818
0
VERTEX
5
5eb
100
AcDbEntity
8
1
100
AcDbVertex
100
AcDb2dVertex
62
5
10
138.235982
20
167.220463
0
VERTEX
5
5ec
100
AcDbEntity
8
1
100
AcDbVertex
100
AcDb2dVertex
62
5
10
138.232764
20
167.194341
0
VERTEX
5
5ed
100
AcDbEntity
8
1
100
AcDbVertex
100
AcDb2dVertex
62
5
10
138.229595
20
167.160553
0
VERTEX
5
5ee
100
AcDbEntity
8
1
100
AcDbVertex
100
AcDb2dVertex
62
5
10
138.226488
20
167.119233
0
VERTEX
5
5ef
100
AcDbEntity
8
1
100
AcDbVertex
100
AcDb2dVertex
62
5
10
138.223455
20
167.070544
0
VERTEX
5
5f0
100
AcDbEntity
8
1
100
AcDbVertex
100
AcDb2dVertex
62
5
10
138.220508
20
167.014679
0
VERTEX
5
5f1
100
AcDbEntity
8
1
100
AcDbVertex
100
AcDb2dVertex
62
5
10
138.217659
20
166.951857
0
VERTEX
5
5f2
100
AcDbEntity
8
1
100
AcDbVertex
100
AcDb2dVertex
62
5
10
138.214918
20
166.882328
0
VERTEX
5
5f3
100
AcDbEntity
8
1
100
AcDbVertex
100
AcDb2dVertex
62
5
10
138.212298
20
166.806364
0
VERTEX
5
5f4
100
AcDbEntity
8
1
100
AcDbVertex
100
AcDb2dVertex
62
5
10
138.209807
20
166.724266
0
VERTEX
5
5f5
100
AcDbEntity
8
1
100
AcDbVertex
100
AcDb2dVertex
62
5
10
138.207456
20
166.636358
0
VERTEX
5
5f6
100
AcDbEntity
8
1
100
AcDbVertex
100
AcDb2dVertex
62
5
10
138.205255
20
166.542987
0
VERTEX
5
5f7
100
AcDbEntity
8
1
100
AcDbVertex
100
AcDb2dVertex
62
5
10
138.203211
20
166.444522
0
VERTEX
5
5f8
100
AcDbEntity
8
1
100
AcDbVertex
100
AcDb2dVertex
62
5
10
138.201334
20
166.341350
0
VERTEX
5
5f9
100
AcDbEntity
8
1
100
AcDbVertex
100
AcDb2dVertex
62
5
10
138.199629
20
166.233880
0
VERTEX
5
5fa
100
AcDbEntity
8
1
100
AcDbVertex
100
AcDb2dVertex
62
5
10
138.198105
20
166.122534
0
VERTEX
5
5fb
100
AcDbEntity
8
1
100
AcDbVertex
100
AcDb2dVertex
62
5
10
138.196767
20
166.007754
0
VERTEX
5
5fc
100
AcDbEntity
8
1
100
AcDbVertex
100
AcDb2dVertex
62
5
10
138.195620
20
165.889991
0
VERTEX
5
5fd
100
AcDbEntity
8
1
100
AcDbVertex
100
AcDb2dVertex
62
5
10
138.194669
20
165.769710
0
VERTEX
5
5fe
100
AcDbEntity
8
1
100
AcDbVertex
100
AcDb2dVertex
62
5
10
138.193918
20
165.647387
0
VERTEX
5
5ff
100
AcDbEntity
8
1
100
AcDbVertex
100
AcDb2dVertex
62
5
10
138.193369
20
165.523503
0
VERTEX
5
600
100
AcDbEntity
8
1
100
AcDbVertex
100
AcDb2dVertex
62
5
10
138.193025
20
165.398549
0
VERTEX
5
601
100
AcDbEntity
8
1
100
AcDbVertex
100
AcDb2dVertex
62
5
10
138.192887
20
165.273016
0
VERTEX
5
602
100
AcDbEntity
8
1
100
AcDbVertex
100
AcDb2dVertex
62
5
10
138.192884
20
165.252072
0
SEQEND
5
603
100
AcDbEntity
8
1
0
POLYLINE
5
604
100
AcDbEntity
8
1
6
CONTINUOUS
62
5
100
AcDb2dPolyline
66
1
10
0.0
20
0.0
30
0.0
70
0
0
VERTEX
5
605
100
AcDbEntity
8
1
100
AcDbVertex
100
AcDb2dVertex
62
5
10
138.350000
20
172.578428
0
VERTEX
5
606
100
AcDbEntity
8
1
100
AcDbVertex
100
AcDb2dVertex
62
5
10
138.350103
20
172.452847
0
VERTEX
5
607
100
AcDbEntity
8
1
100
AcDbVertex
100
AcDb2dVertex
62
5
10
138.350413
20
172.327762
0
VERTEX
5
608
100
AcDbEntity
8
1
100
AcDbVertex
100
AcDb2dVertex
62
5
10
138.350928
20
172.203665
0
VERTEX
5
609
100
AcDbEntity
8
1
100
AcDbVertex
100
AcDb2dVertex
62
5
10
138.351645
20
172.081048
0
VERTEX
5
60a
100
AcDbEntity
8
1
100
AcDbVertex
100
AcDb2dVertex
62
5
10
138.352563
20
171.960394
0
VERTEX
5
60b
100
AcDbEntity
8
1
100
AcDbVertex
100
AcDb2dVertex
62
5
10
138.353678
20
171.842179
0
VERTEX
5
60c
100
AcDbEntity
8
1
100
AcDbVertex
100
AcDb2dVertex
62
5
10
138.354984
20
171.726870
0
VERTEX
5
60d
100
AcDbEntity
8
1
100
AcDbVertex
100
AcDb2dVertex
62
5
10
138.356478
20
171.614921
0
VERTEX
5
60e
100
AcDbEntity
8
1
100
AcDbVertex
100
AcDb2dVertex
62
5
10
138.358153
20
171.506775
0
VERTEX
5
60f
100
AcDbEntity
8
1
100
AcDbVertex
100
AcDb2dVertex
62
5
10
138.360002
20
171.402858
0
VERTEX
5
610
100
AcDbEntity
8
1
100
AcDbVertex
100
AcDb2dVertex
62
5
10
138.362019
20
171.303580
0
VERTEX
5
611
100
AcDbEntity
8
1
100
AcDbVertex
100
AcDb2dVertex
62
5
10
138.364194
20
171.209334
0
VERTEX
5
612
100
AcDbEntity
8
1
100
AcDbVertex
100
AcDb2dVertex
62
5
10
138.365339
20
171.164215
0
SEQEND
5
613
100
AcDbEntity
8
1
0
LINE
5
614
100
AcDbEntity
8
1
100
AcDbLine
6
CONTINUOUS
62
5
10
138.365339
20
171.164215
11
138.387033
21
170.335788
0
LINE
5
615
100
AcDbEntity
8
1
100
AcDbLine
6
CONTINUOUS
62
5
10
138.900000
20
176.150018
11
139.850000
21
176.150018
0
LINE
5
616
100
AcDbEntity
8
1
100
AcDbLine
6
CONTINUOUS
62
5
10
143.300000
20
172.400017
11
138.350209
21
172.400017
0
ARC
5
617
100
AcDbEntity
8
1
100
AcDbCircle
6
CONTINUOUS
62
5
10
139.850000
20
176.650018
40
0.500000
100
AcDbArc
50
-89.999999
51
0.000000
0
LINE
5
618
100
AcDbEntity
8
1
100
AcDbLine
6
CONTINUOUS
62
5
10
138.192884
20
164.400018
11
143.300000
21
164.400018
0
LINE
5
619
100
AcDbEntity
8
1
100
AcDbLine
6
CONTINUOUS
62
5
10
143.000001
20
162.900019
11
138.192884
21
162.900019
0
LINE
5
61a
100
AcDbEntity
8
1
100
AcDbLine
6
CONTINUOUS
62
5
10
143.300000
20
163.400018
11
138.192884
21
163.400018
0
ARC
5
61b
100
AcDbEntity
8
1
100
AcDbCircle
6
CONTINUOUS
62
5
10
143.650000
20
173.400017
40
0.500000
100
AcDbArc
50
-89.999999
51
0.000000
0
LINE
5
61c
100
AcDbEntity
8
1
100
AcDbLine
6
CONTINUOUS
62
5
10
144.150000
20
174.976814
11
144.150000
21
173.400017
0
LINE
5
61d
100
AcDbEntity
8
1
100
AcDbLine
6
CONTINUOUS
62
5
10
143.650001
20
172.900018
11
138.350000
21
172.900018
0
ARC
5
61e
100
AcDbEntity
8
1
100
AcDbCircle
6
CONTINUOUS
62
5
10
144.850000
20
178.150018
40
0.500000
100
AcDbArc
50
0.000000
51
89.999999
0
ARC
5
61f
100
AcDbEntity
8
1
100
AcDbCircle
6
CONTINUOUS
62
5
10
144.850000
20
173.800018
40
0.500000
100
AcDbArc
50
-89.999999
51
0.000000
0
LINE
5
620
100
AcDbEntity
8
1
100
AcDbLine
6
CONTINUOUS
62
5
10
144.150000
20
178.650018
11
144.850000
21
178.650018
0
LINE
5
621
100
AcDbEntity
8
1
100
AcDbLine
6
CONTINUOUS
62
5
10
144.150000
20
178.650018
11
144.850000
21
178.650018
0
LINE
5
622
100
AcDbEntity
8
1
100
AcDbLine
6
CONTINUOUS
62
5
10
144.150000
20
177.850018
11
145.750001
21
177.850018
0
LINE
5
623
100
AcDbEntity
8
1
100
AcDbLine
6
CONTINUOUS
62
5
10
145.750001
20
174.950017
11
144.150000
21
174.950017
0
LINE
5
624
100
AcDbEntity
8
1
100
AcDbLine
6
CONTINUOUS
62
5
10
144.850000
20
173.300018
11
144.139898
21
173.300018
0
ARC
5
625
100
AcDbEntity
8
1
100
AcDbCircle
6
CONTINUOUS
62
5
10
145.750000
20
144.850019
40
0.500000
100
AcDbArc
50
0.000000
51
89.999999
0
LINE
5
626
100
AcDbEntity
8
1
100
AcDbLine
6
CONTINUOUS
62
5
10
145.750001
20
145.350021
11
145.750001
21
145.350019
0
ARC
5
627
100
AcDbEntity
8
1
100
AcDbCircle
6
CONTINUOUS
62
5
10
145.750000
20
142.950020
40
0.500000
100
AcDbArc
50
-89.999999
51
0.000000
0
LINE
5
628
100
AcDbEntity
8
1
100
AcDbLine
6
CONTINUOUS
62
5
10
146.250000
20
144.850020
11
146.250000
21
142.950021
0
LINE
5
629
100
AcDbEntity
8
1
100
AcDbLine
6
CONTINUOUS
62
5
10
145.349999
20
142.450020
11
145.349999
21
142.150019
0
LINE
5
62a
100
AcDbEntity
8
1
100
AcDbLine
6
CONTINUOUS
62
5
10
145.349999
20
146.900021
11
145.349999
21
145.350021
0
LINE
5
62b
100
AcDbEntity
8
1
100
AcDbLine
6
CONTINUOUS
62
5
10
140.900001
20
140.650020
11
140.450000
21
140.650020
0
LINE
5
62c
100
AcDbEntity
8
1
100
AcDbLine
6
CONTINUOUS
62
5
10
138.242516
20
153.050672
11
138.402371
21
152.730740
0
POLYLINE
5
62d
100
AcDbEntity
8
1
6
CONTINUOUS
62
5
100
AcDb2dPolyline
66
1
10
0.0
20
0.0
30
0.0
70
0
0
VERTEX
5
62e
100
AcDbEntity
8
1
100
AcDbVertex
100
AcDb2dVertex
62
5
10
138.192884
20
155.047931
0
VERTEX
5
62f
100
AcDbEntity
8
1
100
AcDbVertex
100
AcDb2dVertex
62
5
10
138.192988
20
154.922350
0
VERTEX
5
630
100
AcDbEntity
8
1
100
AcDbVertex
100
AcDb2dVertex
62
5
10
138.193297
20
154.797264
0
VERTEX
5
631
100
AcDbEntity
8
1
100
AcDbVertex
100
AcDb2dVertex
62
5
10
138.193812
20
154.673168
0
VERTEX
5
632
100
AcDbEntity
8
1
100
AcDbVertex
100
AcDb2dVertex
62
5
10
138.194530
20
154.550551
0
VERTEX
5
633
100
AcDbEntity
8
1
100
AcDbVertex
100
AcDb2dVertex
62
5
10
138.195448
20
154.429897
0
VERTEX
5
634
100
AcDbEntity
8
1
100
AcDbVertex
100
AcDb2dVertex
62
5
10
138.196562
20
154.311682
0
VERTEX
5
635
100
AcDbEntity
8
1
100
AcDbVertex
100
AcDb2dVertex
62
5
10
138.197869
20
154.196372
0
VERTEX
5
636
100
AcDbEntity
8
1
100
AcDbVertex
100
AcDb2dVertex
62
5
10
138.199363
20
154.084424
0
VERTEX
5
637
100
AcDbEntity
8
1
100
AcDbVertex
100
AcDb2dVertex
62
5
10
138.201037
20
153.976277
0
VERTEX
5
638
100
AcDbEntity
8
1
100
AcDbVertex
100
AcDb2dVertex
62
5
10
138.202887
20
153.872360
0
VERTEX
5
639
100
AcDbEntity
8
1
100
AcDbVertex
100
AcDb2dVertex
62
5
10
138.204903
20
153.773083
0
VERTEX
5
63a
100
AcDbEntity
8
1
100
AcDbVertex
100
AcDb2dVertex
62
5
10
138.207079
20
153.678837
0
VERTEX
5
63b
100
AcDbEntity
8
1
100
AcDbVertex
100
AcDb2dVertex
62
5
10
138.209405
20
153.589994
0
VERTEX
5
63c
100
AcDbEntity
8
1
100
AcDbVertex
100
AcDb2dVertex
62
5
10
138.211873
20
153.506904
0
VERTEX
5
63d
100
AcDbEntity
8
1
100
AcDbVertex
100
AcDb2dVertex
62
5
10
138.214473
20
153.429897
0
VERTEX
5
63e
100
AcDbEntity
8
1
100
AcDbVertex
100
AcDb2dVertex
62
5
10
138.217194
20
153.359275
0
VERTEX
5
63f
100
AcDbEntity
8
1
100
AcDbVertex
100
AcDb2dVertex
62
5
10
138.220026
20
153.295318
0
VERTEX
5
640
100
AcDbEntity
8
1
100
AcDbVertex
100
AcDb2dVertex
62
5
10
138.222957
20
153.238277
0
VERTEX
5
641
100
AcDbEntity
8
1
100
AcDbVertex
100
AcDb2dVertex
62
5
10
138.225977
20
153.188378
0
VERTEX
5
642
100
AcDbEntity
8
1
100
AcDbVertex
100
AcDb2dVertex
62
5
10
138.229073
20
153.145818
0
VERTEX
5
643
100
AcDbEntity
8
1
100
AcDbVertex
100
AcDb2dVertex
62
5
10
138.232232
20
153.110765
0
VERTEX
5
644
100
AcDbEntity
8
1
100
AcDbVertex
100
AcDb2dVertex
62
5
10
138.235443
20
153.083356
0
VERTEX
5
645
100
AcDbEntity
8
1
100
AcDbVertex
100
AcDb2dVertex
62
5
10
138.238692
20
153.063702
0
VERTEX
5
646
100
AcDbEntity
8
1
100
AcDbVertex
100
AcDb2dVertex
62
5
10
138.241968
20
153.051878
0
VERTEX
5
647
100
AcDbEntity
8
1
100
AcDbVertex
100
AcDb2dVertex
62
5
10
138.242515
20
153.050672
0
SEQEND
5
648
100
AcDbEntity
8
1
0
POLYLINE
5
649
100
AcDbEntity
8
1
6
CONTINUOUS
62
5
100
AcDb2dPolyline
66
1
10
0.0
20
0.0
30
0.0
70
0
0
VERTEX
5
64a
100
AcDbEntity
8
1
100
AcDbVertex
100
AcDb2dVertex
62
5
10
138.387032
20
149.964216
0
VERTEX
5
64b
100
AcDbEntity
8
1
100
AcDbVertex
100
AcDb2dVertex
62
5
10
138.389285
20
150.055805
0
VERTEX
5
64c
100
AcDbEntity
8
1
100
AcDbVertex
100
AcDb2dVertex
62
5
10
138.391382
20
150.152615
0
VERTEX
5
64d
100
AcDbEntity
8
1
100
AcDbVertex
100
AcDb2dVertex
62
5
10
138.393316
20
150.254262
0
VERTEX
5
64e
100
AcDbEntity
8
1
100
AcDbVertex
100
AcDb2dVertex
62
5
10
138.395079
20
150.360346
0
VERTEX
5
64f
100
AcDbEntity
8
1
100
AcDbVertex
100
AcDb2dVertex
62
5
10
138.396664
20
150.470448
0
VERTEX
5
650
100
AcDbEntity
8
1
100
AcDbVertex
100
AcDb2dVertex
62
5
10
138.398064
20
150.584133
0
VERTEX
5
651
100
AcDbEntity
8
1
100
AcDbVertex
100
AcDb2dVertex
62
5
10
138.399276
20
150.700953
0
VERTEX
5
652
100
AcDbEntity
8
1
100
AcDbVertex
100
AcDb2dVertex
62
5
10
138.400292
20
150.820447
0
VERTEX
5
653
100
AcDbEntity
8
1
100
AcDbVertex
100
AcDb2dVertex
62
5
10
138.401111
20
150.942143
0
VERTEX
5
654
100
AcDbEntity
8
1
100
AcDbVertex
100
AcDb2dVertex
62
5
10
138.401727
20
151.065560
0
VERTEX
5
655
100
AcDbEntity
8
1
100
AcDbVertex
100
AcDb2dVertex
62
5
10
138.402139
20
151.190212
0
VERTEX
5
656
100
AcDbEntity
8
1
100
AcDbVertex
100
AcDb2dVertex
62
5
10
138.402346
20
151.315608
0
VERTEX
5
657
100
AcDbEntity
8
1
100
AcDbVertex
100
AcDb2dVertex
62
5
10
138.402372
20
151.378429
0
SEQEND
5
658
100
AcDbEntity
8
1
0
LINE
5
659
100
AcDbEntity
8
1
100
AcDbLine
6
CONTINUOUS
62
5
10
138.402371
20
152.730740
11
138.402371
21
151.378429
0
LINE
5
65a
100
AcDbEntity
8
1
100
AcDbLine
6
CONTINUOUS
62
5
10
138.387033
20
149.964215
11
138.365339
21
149.135788
0
POLYLINE
5
65b
100
AcDbEntity
8
1
6
CONTINUOUS
62
5
100
AcDb2dPolyline
66
1
10
0.0
20
0.0
30
0.0
70
0
0
VERTEX
5
65c
100
AcDbEntity
8
1
100
AcDbVertex
100
AcDb2dVertex
62
5
10
138.365339
20
149.135788
0
VERTEX
5
65d
100
AcDbEntity
8
1
100
AcDbVertex
100
AcDb2dVertex
62
5
10
138.363087
20
149.044199
0
VERTEX
5
65e
100
AcDbEntity
8
1
100
AcDbVertex
100
AcDb2dVertex
62
5
10
138.360990
20
148.947389
0
VERTEX
5
65f
100
AcDbEntity
8
1
100
AcDbVertex
100
AcDb2dVertex
62
5
10
138.359056
20
148.845742
0
VERTEX
5
660
100
AcDbEntity
8
1
100
AcDbVertex
100
AcDb2dVertex
62
5
10
138.357293
20
148.739658
0
VERTEX
5
661
100
AcDbEntity
8
1
100
AcDbVertex
100
AcDb2dVertex
62
5
10
138.355708
20
148.629556
0
VERTEX
5
662
100
AcDbEntity
8
1
100
AcDbVertex
100
AcDb2dVertex
62
5
10
138.354307
20
148.515871
0
VERTEX
5
663
100
AcDbEntity
8
1
100
AcDbVertex
100
AcDb2dVertex
62
5
10
138.353096
20
148.399051
0
VERTEX
5
664
100
AcDbEntity
8
1
100
AcDbVertex
100
AcDb2dVertex
62
5
10
138.352079
20
148.279557
0
VERTEX
5
665
100
AcDbEntity
8
1
100
AcDbVertex
100
AcDb2dVertex
62
5
10
138.351261
20
148.157861
0
VERTEX
5
666
100
AcDbEntity
8
1
100
AcDbVertex
100
AcDb2dVertex
62
5
10
138.350645
20
148.034444
0
VERTEX
5
667
100
AcDbEntity
8
1
100
AcDbVertex
100
AcDb2dVertex
62
5
10
138.350232
20
147.909792
0
VERTEX
5
668
100
AcDbEntity
8
1
100
AcDbVertex
100
AcDb2dVertex
62
5
10
138.350026
20
147.784396
0
VERTEX
5
669
100
AcDbEntity
8
1
100
AcDbVertex
100
AcDb2dVertex
62
5
10
138.350000
20
147.721575
0
SEQEND
5
66a
100
AcDbEntity
8
1
0
LINE
5
66b
100
AcDbEntity
8
1
100
AcDbLine
6
CONTINUOUS
62
5
10
138.310721
20
140.600003
11
138.400000
21
140.600003
0
LINE
5
66c
100
AcDbEntity
8
1
100
AcDbLine
6
CONTINUOUS
62
5
10
138.400000
20
140.650020
11
138.285730
21
140.650020
0
LINE
5
66d
100
AcDbEntity
8
1
100
AcDbLine
6
CONTINUOUS
62
5
10
138.197084
20
140.827434
11
138.310721
21
140.600003
0
POLYLINE
5
66e
100
AcDbEntity
8
1
6
CONTINUOUS
62
5
100
AcDb2dPolyline
66
1
10
0.0
20
0.0
30
0.0
70
0
0
VERTEX
5
66f
100
AcDbEntity
8
1
100
AcDbVertex
100
AcDb2dVertex
62
5
10
138.186103
20
141.100002
0
VERTEX
5
670
100
AcDbEntity
8
1
100
AcDbVertex
100
AcDb2dVertex
62
5
10
138.186499
20
141.072468
0
VERTEX
5
671
100
AcDbEntity
8
1
100
AcDbVertex
100
AcDb2dVertex
62
5
10
138.186939
20
141.045938
0
VERTEX
5
672
100
AcDbEntity
8
1
100
AcDbVertex
100
AcDb2dVertex
62
5
10
138.187422
20
141.020516
0
VERTEX
5
673
100
AcDbEntity
8
1
100
AcDbVertex
100
AcDb2dVertex
62
5
10
138.187946
20
140.996302
0
VERTEX
5
674
100
AcDbEntity
8
1
100
AcDbVertex
100
AcDb2dVertex
62
5
10
138.188508
20
140.973393
0
VERTEX
5
675
100
AcDbEntity
8
1
100
AcDbVertex
100
AcDb2dVertex
62
5
10
138.189107
20
140.951878
0
VERTEX
5
676
100
AcDbEntity
8
1
100
AcDbVertex
100
AcDb2dVertex
62
5
10
138.189740
20
140.931843
0
VERTEX
5
677
100
AcDbEntity
8
1
100
AcDbVertex
100
AcDb2dVertex
62
5
10
138.190405
20
140.913366
0
VERTEX
5
678
100
AcDbEntity
8
1
100
AcDbVertex
100
AcDb2dVertex
62
5
10
138.191099
20
140.896520
0
VERTEX
5
679
100
AcDbEntity
8
1
100
AcDbVertex
100
AcDb2dVertex
62
5
10
138.191820
20
140.881372
0
VERTEX
5
67a
100
AcDbEntity
8
1
100
AcDbVertex
100
AcDb2dVertex
62
5
10
138.192563
20
140.867983
0
VERTEX
5
67b
100
AcDbEntity
8
1
100
AcDbVertex
100
AcDb2dVertex
62
5
10
138.193328
20
140.856403
0
VERTEX
5
67c
100
AcDbEntity
8
1
100
AcDbVertex
100
AcDb2dVertex
62
5
10
138.194110
20
140.846680
0
VERTEX
5
67d
100
AcDbEntity
8
1
100
AcDbVertex
100
AcDb2dVertex
62
5
10
138.194906
20
140.838852
0
VERTEX
5
67e
100
AcDbEntity
8
1
100
AcDbVertex
100
AcDb2dVertex
62
5
10
138.195713
20
140.832949
0
VERTEX
5
67f
100
AcDbEntity
8
1
100
AcDbVertex
100
AcDb2dVertex
62
5
10
138.196529
20
140.828994
0
VERTEX
5
680
100
AcDbEntity
8
1
100
AcDbVertex
100
AcDb2dVertex
62
5
10
138.197083
20
140.827434
0
SEQEND
5
681
100
AcDbEntity
8
1
0
POLYLINE
5
682
100
AcDbEntity
8
1
6
CONTINUOUS
62
5
100
AcDb2dPolyline
66
1
10
0.0
20
0.0
30
0.0
70
0
0
VERTEX
5
683
100
AcDbEntity
8
1
100
AcDbVertex
100
AcDb2dVertex
62
5
10
138.197083
20
141.372571
0
VERTEX
5
684
100
AcDbEntity
8
1
100
AcDbVertex
100
AcDb2dVertex
62
5
10
138.196264
20
141.369943
0
VERTEX
5
685
100
AcDbEntity
8
1
100
AcDbVertex
100
AcDb2dVertex
62
5
10
138.195451
20
141.365355
0
VERTEX
5
686
100
AcDbEntity
8
1
100
AcDbVertex
100
AcDb2dVertex
62
5
10
138.194646
20
141.358825
0
VERTEX
5
687
100
AcDbEntity
8
1
100
AcDbVertex
100
AcDb2dVertex
62
5
10
138.193854
20
141.350379
0
VERTEX
5
688
100
AcDbEntity
8
1
100
AcDbVertex
100
AcDb2dVertex
62
5
10
138.193078
20
141.340049
0
VERTEX
5
689
100
AcDbEntity
8
1
100
AcDbVertex
100
AcDb2dVertex
62
5
10
138.192320
20
141.327877
0
VERTEX
5
68a
100
AcDbEntity
8
1
100
AcDbVertex
100
AcDb2dVertex
62
5
10
138.191583
20
141.313912
0
VERTEX
5
68b
100
AcDbEntity
8
1
100
AcDbVertex
100
AcDb2dVertex
62
5
10
138.190871
20
141.298207
0
VERTEX
5
68c
100
AcDbEntity
8
1
100
AcDbVertex
100
AcDb2dVertex
62
5
10
138.190186
20
141.280825
0
VERTEX
5
68d
100
AcDbEntity
8
1
100
AcDbVertex
100
AcDb2dVertex
62
5
10
138.189531
20
141.261834
0
VERTEX
5
68e
100
AcDbEntity
8
1
100
AcDbVertex
100
AcDb2dVertex
62
5
10
138.188909
20
141.241310
0
VERTEX
5
68f
100
AcDbEntity
8
1
100
AcDbVertex
100
AcDb2dVertex
62
5
10
138.188322
20
141.219334
0
VERTEX
5
690
100
AcDbEntity
8
1
100
AcDbVertex
100
AcDb2dVertex
62
5
10
138.187771
20
141.195991
0
VERTEX
5
691
100
AcDbEntity
8
1
100
AcDbVertex
100
AcDb2dVertex
62
5
10
138.187261
20
141.171375
0
VERTEX
5
692
100
AcDbEntity
8
1
100
AcDbVertex
100
AcDb2dVertex
62
5
10
138.186791
20
141.145583
0
VERTEX
5
693
100
AcDbEntity
8
1
100
AcDbVertex
100
AcDb2dVertex
62
5
10
138.186365
20
141.118715
0
VERTEX
5
694
100
AcDbEntity
8
1
100
AcDbVertex
100
AcDb2dVertex
62
5
10
138.186103
20
141.100002
0
SEQEND
5
695
100
AcDbEntity
8
1
0
LINE
5
696
100
AcDbEntity
8
1
100
AcDbLine
6
CONTINUOUS
62
5
10
138.197084
20
141.372570
11
138.350000
21
141.678614
0
LINE
5
697
100
AcDbEntity
8
1
100
AcDbLine
6
CONTINUOUS
62
5
10
138.350000
20
144.150019
11
138.400000
21
144.150019
0
LINE
5
698
100
AcDbEntity
8
1
100
AcDbLine
6
CONTINUOUS
62
5
10
138.900000
20
144.150019
11
138.900000
21
144.150019
0
ARC
5
699
100
AcDbEntity
8
1
100
AcDbCircle
6
CONTINUOUS
62
5
10
138.900000
20
143.650019
40
0.500000
100
AcDbArc
50
89.999999
51
179.999998
0
LINE
5
69a
100
AcDbEntity
8
1
100
AcDbLine
6
CONTINUOUS
62
5
10
138.350000
20
147.721575
11
138.350000
21
141.678614
0
LINE
5
69b
100
AcDbEntity
8
1
100
AcDbLine
6
CONTINUOUS
62
5
10
140.350000
20
143.650018
11
140.350001
21
143.650018
0
ARC
5
69c
100
AcDbEntity
8
1
100
AcDbCircle
6
CONTINUOUS
62
5
10
139.850000
20
143.650019
40
0.500000
100
AcDbArc
50
0.000000
51
89.999999
0
LINE
5
69d
100
AcDbEntity
8
1
100
AcDbLine
6
CONTINUOUS
62
5
10
138.900000
20
144.150019
11
139.850000
21
144.150019
0
POLYLINE
5
69e
100
AcDbEntity
8
1
6
CONTINUOUS
62
5
100
AcDb2dPolyline
66
1
10
0.0
20
0.0
30
0.0
70
0
0
VERTEX
5
69f
100
AcDbEntity
8
1
100
AcDbVertex
100
AcDb2dVertex
62
5
10
140.350000
20
140.650020
0
VERTEX
5
6a0
100
AcDbEntity
8
1
100
AcDbVertex
100
AcDb2dVertex
62
5
10
140.350085
20
140.650020
0
VERTEX
5
6a1
100
AcDbEntity
8
1
100
AcDbVertex
100
AcDb2dVertex
62
5
10
140.350331
20
140.650020
0
VERTEX
5
6a2
100
AcDbEntity
8
1
100
AcDbVertex
100
AcDb2dVertex
62
5
10
140.350727
20
140.650020
0
VERTEX
5
6a3
100
AcDbEntity
8
1
100
AcDbVertex
100
AcDb2dVertex
62
5
10
140.351261
20
140.650020
0
VERTEX
5
6a4
100
AcDbEntity
8
1
100
AcDbVertex
100
AcDb2dVertex
62
5
10
140.351920
20
140.650020
0
VERTEX
5
6a5
100
AcDbEntity
8
1
100
AcDbVertex
100
AcDb2dVertex
62
5
10
140.352692
20
140.650020
0
VERTEX
5
6a6
100
AcDbEntity
8
1
100
AcDbVertex
100
AcDb2dVertex
62
5
10
140.353566
20
140.650020
0
VERTEX
5
6a7
100
AcDbEntity
8
1
100
AcDbVertex
100
AcDb2dVertex
62
5
10
140.354530
20
140.650020
0
VERTEX
5
6a8
100
AcDbEntity
8
1
100
AcDbVertex
100
AcDb2dVertex
62
5
10
140.355571
20
140.650020
0
VERTEX
5
6a9
100
AcDbEntity
8
1
100
AcDbVertex
100
AcDb2dVertex
62
5
10
140.356677
20
140.650020
0
VERTEX
5
6aa
100
AcDbEntity
8
1
100
AcDbVertex
100
AcDb2dVertex
62
5
10
140.357836
20
140.650020
0
VERTEX
5
6ab
100
AcDbEntity
8
1
100
AcDbVertex
100
AcDb2dVertex
62
5
10
140.361332
20
140.650020
0
VERTEX
5
6ac
100
AcDbEntity
8
1
100
AcDbVertex
100
AcDb2dVertex
62
5
10
140.365105
20
140.650020
0
VERTEX
5
6ad
100
AcDbEntity
8
1
100
AcDbVertex
100
AcDb2dVertex
62
5
10
140.369103
20
140.650020
0
VERTEX
5
6ae
100
AcDbEntity
8
1
100
AcDbVertex
100
AcDb2dVertex
62
5
10
140.373275
20
140.650020
0
VERTEX
5
6af
100
AcDbEntity
8
1
100
AcDbVertex
100
AcDb2dVertex
62
5
10
140.377567
20
140.650020
0
VERTEX
5
6b0
100
AcDbEntity
8
1
100
AcDbVertex
100
AcDb2dVertex
62
5
10
140.381927
20
140.650020
0
VERTEX
5
6b1
100
AcDbEntity
8
1
100
AcDbVertex
100
AcDb2dVertex
62
5
10
140.386304
20
140.650020
0
VERTEX
5
6b2
100
AcDbEntity
8
1
100
AcDbVertex
100
AcDb2dVertex
62
5
10
140.390646
20
140.650020
0
VERTEX
5
6b3
100
AcDbEntity
8
1
100
AcDbVertex
100
AcDb2dVertex
62
5
10
140.394899
20
140.650020
0
VERTEX
5
6b4
100
AcDbEntity
8
1
100
AcDbVertex
100
AcDb2dVertex
62
5
10
140.399013
20
140.650020
0
VERTEX
5
6b5
100
AcDbEntity
8
1
100
AcDbVertex
100
AcDb2dVertex
62
5
10
140.402935
20
140.650020
0
VERTEX
5
6b6
100
AcDbEntity
8
1
100
AcDbVertex
100
AcDb2dVertex
62
5
10
140.405363
20
140.650020
0
VERTEX
5
6b7
100
AcDbEntity
8
1
100
AcDbVertex
100
AcDb2dVertex
62
5
10
140.407709
20
140.650020
0
VERTEX
5
6b8
100
AcDbEntity
8
1
100
AcDbVertex
100
AcDb2dVertex
62
5
10
140.409994
20
140.650020
0
VERTEX
5
6b9
100
AcDbEntity
8
1
100
AcDbVertex
100
AcDb2dVertex
62
5
10
140.412240
20
140.650020
0
VERTEX
5
6ba
100
AcDbEntity
8
1
100
AcDbVertex
100
AcDb2dVertex
62
5
10
140.414467
20
140.650020
0
VERTEX
5
6bb
100
AcDbEntity
8
1
100
AcDbVertex
100
AcDb2dVertex
62
5
10
140.416697
20
140.650020
0
VERTEX
5
6bc
100
AcDbEntity
8
1
100
AcDbVertex
100
AcDb2dVertex
62
5
10
140.418951
20
140.650020
0
VERTEX
5
6bd
100
AcDbEntity
8
1
100
AcDbVertex
100
AcDb2dVertex
62
5
10
140.421249
20
140.650020
0
VERTEX
5
6be
100
AcDbEntity
8
1
100
AcDbVertex
100
AcDb2dVertex
62
5
10
140.423615
20
140.650020
0
VERTEX
5
6bf
100
AcDbEntity
8
1
100
AcDbVertex
100
AcDb2dVertex
62
5
10
140.426067
20
140.650020
0
VERTEX
5
6c0
100
AcDbEntity
8
1
100
AcDbVertex
100
AcDb2dVertex
62
5
10
140.428629
20
140.650020
0
VERTEX
5
6c1
100
AcDbEntity
8
1
100
AcDbVertex
100
AcDb2dVertex
62
5
10
140.431251
20
140.650020
0
VERTEX
5
6c2
100
AcDbEntity
8
1
100
AcDbVertex
100
AcDb2dVertex
62
5
10
140.433934
20
140.650020
0
VERTEX
5
6c3
100
AcDbEntity
8
1
100
AcDbVertex
100
AcDb2dVertex
62
5
10
140.436610
20
140.650020
0
VERTEX
5
6c4
100
AcDbEntity
8
1
100
AcDbVertex
100
AcDb2dVertex
62
5
10
140.439216
20
140.650020
0
VERTEX
5
6c5
100
AcDbEntity
8
1
100
AcDbVertex
100
AcDb2dVertex
62
5
10
140.441686
20
140.650020
0
VERTEX
5
6c6
100
AcDbEntity
8
1
100
AcDbVertex
100
AcDb2dVertex
62
5
10
140.443955
20
140.650020
0
VERTEX
5
6c7
100
AcDbEntity
8
1
100
AcDbVertex
100
AcDb2dVertex
62
5
10
140.445957
20
140.650020
0
VERTEX
5
6c8
100
AcDbEntity
8
1
100
AcDbVertex
100
AcDb2dVertex
62
5
10
140.447628
20
140.650020
0
VERTEX
5
6c9
100
AcDbEntity
8
1
100
AcDbVertex
100
AcDb2dVertex
62
5
10
140.448902
20
140.650020
0
VERTEX
5
6ca
100
AcDbEntity
8
1
100
AcDbVertex
100
AcDb2dVertex
62
5
10
140.449715
20
140.650020
0
VERTEX
5
6cb
100
AcDbEntity
8
1
100
AcDbVertex
100
AcDb2dVertex
62
5
10
140.450000
20
140.650020
0
SEQEND
5
6cc
100
AcDbEntity
8
1
0
LINE
5
6cd
100
AcDbEntity
8
1
100
AcDbLine
6
CONTINUOUS
62
5
10
140.850000
20
140.650020
11
140.350000
21
140.650020
0
ARC
5
6ce
100
AcDbEntity
8
1
100
AcDbCircle
6
CONTINUOUS
62
5
10
143.650000
20
146.900019
40
0.500000
100
AcDbArc
50
0.000000
51
89.999999
0
LINE
5
6cf
100
AcDbEntity
8
1
100
AcDbLine
6
CONTINUOUS
62
5
10
144.150000
20
146.900021
11
144.150000
21
145.350021
0
LINE
5
6d0
100
AcDbEntity
8
1
100
AcDbLine
6
CONTINUOUS
62
5
10
143.650000
20
147.400018
11
138.350000
21
147.400018
0
ARC
5
6d1
100
AcDbEntity
8
1
100
AcDbCircle
6
CONTINUOUS
62
5
10
144.850000
20
146.900019
40
0.500000
100
AcDbArc
50
0.000000
51
89.999999
0
ARC
5
6d2
100
AcDbEntity
8
1
100
AcDbCircle
6
CONTINUOUS
62
5
10
144.850000
20
142.150020
40
0.500000
100
AcDbArc
50
-89.999999
51
0.000000
0
LINE
5
6d3
100
AcDbEntity
8
1
100
AcDbLine
6
CONTINUOUS
62
5
10
143.650001
20
147.400018
11
144.850000
21
147.400018
0
LINE
5
6d4
100
AcDbEntity
8
1
100
AcDbLine
6
CONTINUOUS
62
5
10
144.150000
20
141.650020
11
144.850000
21
141.650020
0
LINE
5
6d5
100
AcDbEntity
8
1
100
AcDbLine
6
CONTINUOUS
62
5
10
144.850000
20
141.650018
11
144.150000
21
141.650018
0
LINE
5
6d6
100
AcDbEntity
8
1
100
AcDbLine
6
CONTINUOUS
62
5
10
144.150000
20
145.350021
11
145.750001
21
145.350021
0
LINE
5
6d7
100
AcDbEntity
8
1
100
AcDbLine
6
CONTINUOUS
62
5
10
145.750001
20
142.450020
11
144.150000
21
142.450020
0
LINE
5
6d8
100
AcDbEntity
8
1
100
AcDbLine
6
CONTINUOUS
62
5
10
138.192884
20
165.252072
11
138.192884
21
155.047931
0
POLYLINE
5
6d9
100
AcDbEntity
8
1
6
CONTINUOUS
62
5
100
AcDb2dPolyline
66
1
10
0.0
20
0.0
30
0.0
70
0
0
VERTEX
5
6da
100
AcDbEntity
8
1
100
AcDbVertex
100
AcDb2dVertex
62
5
10
110.513898
20
179.200001
0
VERTEX
5
6db
100
AcDbEntity
8
1
100
AcDbVertex
100
AcDb2dVertex
62
5
10
110.513503
20
179.227535
0
VERTEX
5
6dc
100
AcDbEntity
8
1
100
AcDbVertex
100
AcDb2dVertex
62
5
10
110.513062
20
179.254065
0
VERTEX
5
6dd
100
AcDbEntity
8
1
100
AcDbVertex
100
AcDb2dVertex
62
5
10
110.512579
20
179.279487
0
VERTEX
5
6de
100
AcDbEntity
8
1
100
AcDbVertex
100
AcDb2dVertex
62
5
10
110.512056
20
179.303701
0
VERTEX
5
6df
100
AcDbEntity
8
1
100
AcDbVertex
100
AcDb2dVertex
62
5
10
110.511493
20
179.326610
0
VERTEX
5
6e0
100
AcDbEntity
8
1
100
AcDbVertex
100
AcDb2dVertex
62
5
10
110.510894
20
179.348125
0
VERTEX
5
6e1
100
AcDbEntity
8
1
100
AcDbVertex
100
AcDb2dVertex
62
5
10
110.510261
20
179.368161
0
VERTEX
5
6e2
100
AcDbEntity
8
1
100
AcDbVertex
100
AcDb2dVertex
62
5
10
110.509596
20
179.386638
0
VERTEX
5
6e3
100
AcDbEntity
8
1
100
AcDbVertex
100
AcDb2dVertex
62
5
10
110.508902
20
179.403483
0
VERTEX
5
6e4
100
AcDbEntity
8
1
100
AcDbVertex
100
AcDb2dVertex
62
5
10
110.508182
20
179.418631
0
VERTEX
5
6e5
100
AcDbEntity
8
1
100
AcDbVertex
100
AcDb2dVertex
62
5
10
110.507438
20
179.432021
0
VERTEX
5
6e6
100
AcDbEntity
8
1
100
AcDbVertex
100
AcDb2dVertex
62
5
10
110.506674
20
179.443600
0
VERTEX
5
6e7
100
AcDbEntity
8
1
100
AcDbVertex
100
AcDb2dVertex
62
5
10
110.505892
20
179.453323
0
VERTEX
5
6e8
100
AcDbEntity
8
1
100
AcDbVertex
100
AcDb2dVertex
62
5
10
110.505095
20
179.461152
0
VERTEX
5
6e9
100
AcDbEntity
8
1
100
AcDbVertex
100
AcDb2dVertex
62
5
10
110.504288
20
179.467055
0
VERTEX
5
6ea
100
AcDbEntity
8
1
100
AcDbVertex
100
AcDb2dVertex
62
5
10
110.503472
20
179.471009
0
VERTEX
5
6eb
100
AcDbEntity
8
1
100
AcDbVertex
100
AcDb2dVertex
62
5
10
110.502918
20
179.472569
0
SEQEND
5
6ec
100
AcDbEntity
8
1
0
POLYLINE
5
6ed
100
AcDbEntity
8
1
6
CONTINUOUS
62
5
100
AcDb2dPolyline
66
1
10
0.0
20
0.0
30
0.0
70
0
0
VERTEX
5
6ee
100
AcDbEntity
8
1
100
AcDbVertex
100
AcDb2dVertex
62
5
10
110.502918
20
178.927432
0
VERTEX
5
6ef
100
AcDbEntity
8
1
100
AcDbVertex
100
AcDb2dVertex
62
5
10
110.503737
20
178.930060
0
VERTEX
5
6f0
100
AcDbEntity
8
1
100
AcDbVertex
100
AcDb2dVertex
62
5
10
110.504551
20
178.934648
0
VERTEX
5
6f1
100
AcDbEntity
8
1
100
AcDbVertex
100
AcDb2dVertex
62
5
10
110.505355
20
178.941178
0
VERTEX
5
6f2
100
AcDbEntity
8
1
100
AcDbVertex
100
AcDb2dVertex
62
5
10
110.506147
20
178.949625
0
VERTEX
5
6f3
100
AcDbEntity
8
1
100
AcDbVertex
100
AcDb2dVertex
62
5
10
110.506923
20
178.959954
0
VERTEX
5
6f4
100
AcDbEntity
8
1
100
AcDbVertex
100
AcDb2dVertex
62
5
10
110.507681
20
178.972126
0
VERTEX
5
6f5
100
AcDbEntity
8
1
100
AcDbVertex
100
AcDb2dVertex
62
5
10
110.508418
20
178.986091
0
VERTEX
5
6f6
100
AcDbEntity
8
1
100
AcDbVertex
100
AcDb2dVertex
62
5
10
110.509130
20
179.001796
0
VERTEX
5
6f7
100
AcDbEntity
8
1
100
AcDbVertex
100
AcDb2dVertex
62
5
10
110.509815
20
179.019178
0
VERTEX
5
6f8
100
AcDbEntity
8
1
100
AcDbVertex
100
AcDb2dVertex
62
5
10
110.510470
20
179.038169
0
VERTEX
5
6f9
100
AcDbEntity
8
1
100
AcDbVertex
100
AcDb2dVertex
62
5
10
110.511092
20
179.058693
0
VERTEX
5
6fa
100
AcDbEntity
8
1
100
AcDbVertex
100
AcDb2dVertex
62
5
10
110.511680
20
179.080669
0
VERTEX
5
6fb
100
AcDbEntity
8
1
100
AcDbVertex
100
AcDb2dVertex
62
5
10
110.512230
20
179.104012
0
VERTEX
5
6fc
100
AcDbEntity
8
1
100
AcDbVertex
100
AcDb2dVertex
62
5
10
110.512741
20
179.128628
0
VERTEX
5
6fd
100
AcDbEntity
8
1
100
AcDbVertex
100
AcDb2dVertex
62
5
10
110.513210
20
179.154420
0
VERTEX
5
6fe
100
AcDbEntity
8
1
100
AcDbVertex
100
AcDb2dVertex
62
5
10
110.513636
20
179.181288
0
VERTEX
5
6ff
100
AcDbEntity
8
1
100
AcDbVertex
100
AcDb2dVertex
62
5
10
110.513898
20
179.200001
0
SEQEND
5
700
100
AcDbEntity
8
1
0
LINE
5
701
100
AcDbEntity
8
1
100
AcDbLine
6
CONTINUOUS
62
5
10
110.502917
20
178.927433
11
110.350001
21
178.621389
0
LINE
5
702
100
AcDbEntity
8
1
100
AcDbLine
6
CONTINUOUS
62
5
10
110.350001
20
172.578428
11
110.350001
21
178.621389
0
POLYLINE
5
703
100
AcDbEntity
8
1
6
CONTINUOUS
62
5
100
AcDb2dPolyline
66
1
10
0.0
20
0.0
30
0.0
70
0
0
VERTEX
5
704
100
AcDbEntity
8
1
100
AcDbVertex
100
AcDb2dVertex
62
5
10
110.507117
20
165.252072
0
VERTEX
5
705
100
AcDbEntity
8
1
100
AcDbVertex
100
AcDb2dVertex
62
5
10
110.507013
20
165.377653
0
VERTEX
5
706
100
AcDbEntity
8
1
100
AcDbVertex
100
AcDb2dVertex
62
5
10
110.506704
20
165.502739
0
VERTEX
5
707
100
AcDbEntity
8
1
100
AcDbVertex
100
AcDb2dVertex
62
5
10
110.506189
20
165.626835
0
VERTEX
5
708
100
AcDbEntity
8
1
100
AcDbVertex
100
AcDb2dVertex
62
5
10
110.505471
20
165.749452
0
VERTEX
5
709
100
AcDbEntity
8
1
100
AcDbVertex
100
AcDb2dVertex
62
5
10
110.504554
20
165.870106
0
VERTEX
5
70a
100
AcDbEntity
8
1
100
AcDbVertex
100
AcDb2dVertex
62
5
10
110.503439
20
165.988321
0
VERTEX
5
70b
100
AcDbEntity
8
1
100
AcDbVertex
100
AcDb2dVertex
62
5
10
110.502132
20
166.103631
0
VERTEX
5
70c
100
AcDbEntity
8
1
100
AcDbVertex
100
AcDb2dVertex
62
5
10
110.500639
20
166.215579
0
VERTEX
5
70d
100
AcDbEntity
8
1
100
AcDbVertex
100
AcDb2dVertex
62
5
10
110.498964
20
166.323726
0
VERTEX
5
70e
100
AcDbEntity
8
1
100
AcDbVertex
100
AcDb2dVertex
62
5
10
110.497115
20
166.427643
0
VERTEX
5
70f
100
AcDbEntity
8
1
100
AcDbVertex
100
AcDb2dVertex
62
5
10
110.495098
20
166.526920
0
VERTEX
5
710
100
AcDbEntity
8
1
100
AcDbVertex
100
AcDb2dVertex
62
5
10
110.492922
20
166.621166
0
VERTEX
5
711
100
AcDbEntity
8
1
100
AcDbVertex
100
AcDb2dVertex
62
5
10
110.490596
20
166.710009
0
VERTEX
5
712
100
AcDbEntity
8
1
100
AcDbVertex
100
AcDb2dVertex
62
5
10
110.488128
20
166.793099
0
VERTEX
5
713
100
AcDbEntity
8
1
100
AcDbVertex
100
AcDb2dVertex
62
5
10
110.485528
20
166.870106
0
VERTEX
5
714
100
AcDbEntity
8
1
100
AcDbVertex
100
AcDb2dVertex
62
5
10
110.482807
20
166.940728
0
VERTEX
5
715
100
AcDbEntity
8
1
100
AcDbVertex
100
AcDb2dVertex
62
5
10
110.479975
20
167.004685
0
VERTEX
5
716
100
AcDbEntity
8
1
100
AcDbVertex
100
AcDb2dVertex
62
5
10
110.477044
20
167.061726
0
VERTEX
5
717
100
AcDbEntity
8
1
100
AcDbVertex
100
AcDb2dVertex
62
5
10
110.474024
20
167.111625
0
VERTEX
5
718
100
AcDbEntity
8
1
100
AcDbVertex
100
AcDb2dVertex
62
5
10
110.470929
20
167.154185
0
VERTEX
5
719
100
AcDbEntity
8
1
100
AcDbVertex
100
AcDb2dVertex
62
5
10
110.467769
20
167.189238
0
VERTEX
5
71a
100
AcDbEntity
8
1
100
AcDbVertex
100
AcDb2dVertex
62
5
10
110.464558
20
167.216647
0
VERTEX
5
71b
100
AcDbEntity
8
1
100
AcDbVertex
100
AcDb2dVertex
62
5
10
110.461309
20
167.236301
0
VERTEX
5
71c
100
AcDbEntity
8
1
100
AcDbVertex
100
AcDb2dVertex
62
5
10
110.458033
20
167.248126
0
VERTEX
5
71d
100
AcDbEntity
8
1
100
AcDbVertex
100
AcDb2dVertex
62
5
10
110.457486
20
167.249331
0
SEQEND
5
71e
100
AcDbEntity
8
1
0
POLYLINE
5
71f
100
AcDbEntity
8
1
6
CONTINUOUS
62
5
100
AcDb2dPolyline
66
1
10
0.0
20
0.0
30
0.0
70
0
0
VERTEX
5
720
100
AcDbEntity
8
1
100
AcDbVertex
100
AcDb2dVertex
62
5
10
110.334662
20
171.164215
0
VERTEX
5
721
100
AcDbEntity
8
1
100
AcDbVertex
100
AcDb2dVertex
62
5
10
110.336914
20
171.255804
0
VERTEX
5
722
100
AcDbEntity
8
1
100
AcDbVertex
100
AcDb2dVertex
62
5
10
110.339011
20
171.352614
0
VERTEX
5
723
100
AcDbEntity
8
1
100
AcDbVertex
100
AcDb2dVertex
62
5
10
110.340945
20
171.454261
0
VERTEX
5
724
100
AcDbEntity
8
1
100
AcDbVertex
100
AcDb2dVertex
62
5
10
110.342708
20
171.560345
0
VERTEX
5
725
100
AcDbEntity
8
1
100
AcDbVertex
100
AcDb2dVertex
62
5
10
110.344293
20
171.670447
0
VERTEX
5
726
100
AcDbEntity
8
1
100
AcDbVertex
100
AcDb2dVertex
62
5
10
110.345694
20
171.784132
0
VERTEX
5
727
100
AcDbEntity
8
1
100
AcDbVertex
100
AcDb2dVertex
62
5
10
110.346905
20
171.900952
0
VERTEX
5
728
100
AcDbEntity
8
1
100
AcDbVertex
100
AcDb2dVertex
62
5
10
110.347922
20
172.020446
0
VERTEX
5
729
100
AcDbEntity
8
1
100
AcDbVertex
100
AcDb2dVertex
62
5
10
110.348740
20
172.142142
0
VERTEX
5
72a
100
AcDbEntity
8
1
100
AcDbVertex
100
AcDb2dVertex
62
5
10
110.349356
20
172.265559
0
VERTEX
5
72b
100
AcDbEntity
8
1
100
AcDbVertex
100
AcDb2dVertex
62
5
10
110.349769
20
172.390211
0
VERTEX
5
72c
100
AcDbEntity
8
1
100
AcDbVertex
100
AcDb2dVertex
62
5
10
110.349975
20
172.515607
0
VERTEX
5
72d
100
AcDbEntity
8
1
100
AcDbVertex
100
AcDb2dVertex
62
5
10
110.350001
20
172.578428
0
SEQEND
5
72e
100
AcDbEntity
8
1
0
LINE
5
72f
100
AcDbEntity
8
1
100
AcDbLine
6
CONTINUOUS
62
5
10
110.300001
20
176.150017
11
110.300001
21
176.318356
0
LINE
5
730
100
AcDbEntity
8
1
100
AcDbLine
6
CONTINUOUS
62
5
10
110.350001
20
176.150017
11
110.300001
21
176.150017
0
POLYLINE
5
731
100
AcDbEntity
8
1
6
CONTINUOUS
62
5
100
AcDb2dPolyline
66
1
10
0.0
20
0.0
30
0.0
70
0
0
VERTEX
5
732
100
AcDbEntity
8
1
100
AcDbVertex
100
AcDb2dVertex
62
5
10
110.300001
20
176.318356
0
VERTEX
5
733
100
AcDbEntity
8
1
100
AcDbVertex
100
AcDb2dVertex
62
5
10
110.300001
20
176.319069
0
VERTEX
5
734
100
AcDbEntity
8
1
100
AcDbVertex
100
AcDb2dVertex
62
5
10
110.300001
20
176.321097
0
VERTEX
5
735
100
AcDbEntity
8
1
100
AcDbVertex
100
AcDb2dVertex
62
5
10
110.300001
20
176.324270
0
VERTEX
5
736
100
AcDbEntity
8
1
100
AcDbVertex
100
AcDb2dVertex
62
5
10
110.300001
20
176.328417
0
VERTEX
5
737
100
AcDbEntity
8
1
100
AcDbVertex
100
AcDb2dVertex
62
5
10
110.300001
20
176.333369
0
VERTEX
5
738
100
AcDbEntity
8
1
100
AcDbVertex
100
AcDb2dVertex
62
5
10
110.300001
20
176.338956
0
VERTEX
5
739
100
AcDbEntity
8
1
100
AcDbVertex
100
AcDb2dVertex
62
5
10
110.300001
20
176.345008
0
VERTEX
5
73a
100
AcDbEntity
8
1
100
AcDbVertex
100
AcDb2dVertex
62
5
10
110.300001
20
176.351355
0
VERTEX
5
73b
100
AcDbEntity
8
1
100
AcDbVertex
100
AcDb2dVertex
62
5
10
110.300001
20
176.357828
0
VERTEX
5
73c
100
AcDbEntity
8
1
100
AcDbVertex
100
AcDb2dVertex
62
5
10
110.300001
20
176.364257
0
VERTEX
5
73d
100
AcDbEntity
8
1
100
AcDbVertex
100
AcDb2dVertex
62
5
10
110.300001
20
176.370472
0
VERTEX
5
73e
100
AcDbEntity
8
1
100
AcDbVertex
100
AcDb2dVertex
62
5
10
110.300001
20
176.376127
0
VERTEX
5
73f
100
AcDbEntity
8
1
100
AcDbVertex
100
AcDb2dVertex
62
5
10
110.300001
20
176.381481
0
VERTEX
5
740
100
AcDbEntity
8
1
100
AcDbVertex
100
AcDb2dVertex
62
5
10
110.300001
20
176.386587
0
VERTEX
5
741
100
AcDbEntity
8
1
100
AcDbVertex
100
AcDb2dVertex
62
5
10
110.300001
20
176.391499
0
VERTEX
5
742
100
AcDbEntity
8
1
100
AcDbVertex
100
AcDb2dVertex
62
5
10
110.300001
20
176.396271
0
VERTEX
5
743
100
AcDbEntity
8
1
100
AcDbVertex
100
AcDb2dVertex
62
5
10
110.300001
20
176.400957
0
VERTEX
5
744
100
AcDbEntity
8
1
100
AcDbVertex
100
AcDb2dVertex
62
5
10
110.300001
20
176.405611
0
VERTEX
5
745
100
AcDbEntity
8
1
100
AcDbVertex
100
AcDb2dVertex
62
5
10
110.300001
20
176.410286
0
VERTEX
5
746
100
AcDbEntity
8
1
100
AcDbVertex
100
AcDb2dVertex
62
5
10
110.300001
20
176.415037
0
VERTEX
5
747
100
AcDbEntity
8
1
100
AcDbVertex
100
AcDb2dVertex
62
5
10
110.300001
20
176.419918
0
VERTEX
5
748
100
AcDbEntity
8
1
100
AcDbVertex
100
AcDb2dVertex
62
5
10
110.300001
20
176.424982
0
VERTEX
5
749
100
AcDbEntity
8
1
100
AcDbVertex
100
AcDb2dVertex
62
5
10
110.300001
20
176.435483
0
VERTEX
5
74a
100
AcDbEntity
8
1
100
AcDbVertex
100
AcDb2dVertex
62
5
10
110.300001
20
176.446718
0
VERTEX
5
74b
100
AcDbEntity
8
1
100
AcDbVertex
100
AcDb2dVertex
62
5
10
110.300001
20
176.458521
0
VERTEX
5
74c
100
AcDbEntity
8
1
100
AcDbVertex
100
AcDb2dVertex
62
5
10
110.300001
20
176.470724
0
VERTEX
5
74d
100
AcDbEntity
8
1
100
AcDbVertex
100
AcDb2dVertex
62
5
10
110.300001
20
176.483161
0
VERTEX
5
74e
100
AcDbEntity
8
1
100
AcDbVertex
100
AcDb2dVertex
62
5
10
110.300001
20
176.495666
0
VERTEX
5
74f
100
AcDbEntity
8
1
100
AcDbVertex
100
AcDb2dVertex
62
5
10
110.300001
20
176.508071
0
VERTEX
5
750
100
AcDbEntity
8
1
100
AcDbVertex
100
AcDb2dVertex
62
5
10
110.300001
20
176.520210
0
VERTEX
5
751
100
AcDbEntity
8
1
100
AcDbVertex
100
AcDb2dVertex
62
5
10
110.300001
20
176.531916
0
VERTEX
5
752
100
AcDbEntity
8
1
100
AcDbVertex
100
AcDb2dVertex
62
5
10
110.300001
20
176.543022
0
VERTEX
5
753
100
AcDbEntity
8
1
100
AcDbVertex
100
AcDb2dVertex
62
5
10
110.300001
20
176.553361
0
VERTEX
5
754
100
AcDbEntity
8
1
100
AcDbVertex
100
AcDb2dVertex
62
5
10
110.300001
20
176.558060
0
VERTEX
5
755
100
AcDbEntity
8
1
100
AcDbVertex
100
AcDb2dVertex
62
5
10
110.300001
20
176.562589
0
VERTEX
5
756
100
AcDbEntity
8
1
100
AcDbVertex
100
AcDb2dVertex
62
5
10
110.300001
20
176.567000
0
VERTEX
5
757
100
AcDbEntity
8
1
100
AcDbVertex
100
AcDb2dVertex
62
5
10
110.300001
20
176.571342
0
VERTEX
5
758
100
AcDbEntity
8
1
100
AcDbVertex
100
AcDb2dVertex
62
5
10
110.300001
20
176.575666
0
VERTEX
5
759
100
AcDbEntity
8
1
100
AcDbVertex
100
AcDb2dVertex
62
5
10
110.300001
20
176.580022
0
VERTEX
5
75a
100
AcDbEntity
8
1
100
AcDbVertex
100
AcDb2dVertex
62
5
10
110.300001
20
176.584460
0
VERTEX
5
75b
100
AcDbEntity
8
1
100
AcDbVertex
100
AcDb2dVertex
62
5
10
110.300001
20
176.589030
0
VERTEX
5
75c
100
AcDbEntity
8
1
100
AcDbVertex
100
AcDb2dVertex
62
5
10
110.300001
20
176.593784
0
VERTEX
5
75d
100
AcDbEntity
8
1
100
AcDbVertex
100
AcDb2dVertex
62
5
10
110.300001
20
176.598770
0
VERTEX
5
75e
100
AcDbEntity
8
1
100
AcDbVertex
100
AcDb2dVertex
62
5
10
110.300001
20
176.604039
0
VERTEX
5
75f
100
AcDbEntity
8
1
100
AcDbVertex
100
AcDb2dVertex
62
5
10
110.300001
20
176.609550
0
VERTEX
5
760
100
AcDbEntity
8
1
100
AcDbVertex
100
AcDb2dVertex
62
5
10
110.300001
20
176.615238
0
VERTEX
5
761
100
AcDbEntity
8
1
100
AcDbVertex
100
AcDb2dVertex
62
5
10
110.300001
20
176.620957
0
VERTEX
5
762
100
AcDbEntity
8
1
100
AcDbVertex
100
AcDb2dVertex
62
5
10
110.300001
20
176.626558
0
VERTEX
5
763
100
AcDbEntity
8
1
100
AcDbVertex
100
AcDb2dVertex
62
5
10
110.300001
20
176.631893
0
VERTEX
5
764
100
AcDbEntity
8
1
100
AcDbVertex
100
AcDb2dVertex
62
5
10
110.300001
20
176.636814
0
VERTEX
5
765
100
AcDbEntity
8
1
100
AcDbVertex
100
AcDb2dVertex
62
5
10
110.300001
20
176.641172
0
VERTEX
5
766
100
AcDbEntity
8
1
100
AcDbVertex
100
AcDb2dVertex
62
5
10
110.300001
20
176.644820
0
VERTEX
5
767
100
AcDbEntity
8
1
100
AcDbVertex
100
AcDb2dVertex
62
5
10
110.300001
20
176.647609
0
VERTEX
5
768
100
AcDbEntity
8
1
100
AcDbVertex
100
AcDb2dVertex
62
5
10
110.300001
20
176.649391
0
VERTEX
5
769
100
AcDbEntity
8
1
100
AcDbVertex
100
AcDb2dVertex
62
5
10
110.300001
20
176.650018
0
SEQEND
5
76a
100
AcDbEntity
8
1
0
POLYLINE
5
76b
100
AcDbEntity
8
1
6
CONTINUOUS
62
5
100
AcDb2dPolyline
66
1
10
0.0
20
0.0
30
0.0
70
0
0
VERTEX
5
76c
100
AcDbEntity
8
1
100
AcDbVertex
100
AcDb2dVertex
62
5
10
110.312969
20
170.335788
0
VERTEX
5
76d
100
AcDbEntity
8
1
100
AcDbVertex
100
AcDb2dVertex
62
5
10
110.310717
20
170.244198
0
VERTEX
5
76e
100
AcDbEntity
8
1
100
AcDbVertex
100
AcDb2dVertex
62
5
10
110.308619
20
170.147388
0
VERTEX
5
76f
100
AcDbEntity
8
1
100
AcDbVertex
100
AcDb2dVertex
62
5
10
110.306686
20
170.045741
0
VERTEX
5
770
100
AcDbEntity
8
1
100
AcDbVertex
100
AcDb2dVertex
62
5
10
110.304923
20
169.939657
0
VERTEX
5
771
100
AcDbEntity
8
1
100
AcDbVertex
100
AcDb2dVertex
62
5
10
110.303338
20
169.829555
0
VERTEX
5
772
100
AcDbEntity
8
1
100
AcDbVertex
100
AcDb2dVertex
62
5
10
110.301937
20
169.715870
0
VERTEX
5
773
100
AcDbEntity
8
1
100
AcDbVertex
100
AcDb2dVertex
62
5
10
110.300726
20
169.599050
0
VERTEX
5
774
100
AcDbEntity
8
1
100
AcDbVertex
100
AcDb2dVertex
62
5
10
110.299709
20
169.479556
0
VERTEX
5
775
100
AcDbEntity
8
1
100
AcDbVertex
100
AcDb2dVertex
62
5
10
110.298891
20
169.357860
0
VERTEX
5
776
100
AcDbEntity
8
1
100
AcDbVertex
100
AcDb2dVertex
62
5
10
110.298274
20
169.234443
0
VERTEX
5
777
100
AcDbEntity
8
1
100
AcDbVertex
100
AcDb2dVertex
62
5
10
110.297862
20
169.109791
0
VERTEX
5
778
100
AcDbEntity
8
1
100
AcDbVertex
100
AcDb2dVertex
62
5
10
110.297655
20
168.984396
0
VERTEX
5
779
100
AcDbEntity
8
1
100
AcDbVertex
100
AcDb2dVertex
62
5
10
110.297629
20
168.921574
0
SEQEND
5
77a
100
AcDbEntity
8
1
0
LINE
5
77b
100
AcDbEntity
8
1
100
AcDbLine
6
CONTINUOUS
62
5
10
110.297630
20
167.569263
11
110.457486
21
167.249331
0
LINE
5
77c
100
AcDbEntity
8
1
100
AcDbLine
6
CONTINUOUS
62
5
10
110.297630
20
168.921574
11
110.297630
21
167.569263
0
LINE
5
77d
100
AcDbEntity
8
1
100
AcDbLine
6
CONTINUOUS
62
5
10
110.334662
20
171.164215
11
110.312969
21
170.335788
0
ARC
5
77e
100
AcDbEntity
8
1
100
AcDbCircle
6
CONTINUOUS
62
5
10
109.800001
20
176.650018
40
0.500000
100
AcDbArc
50
-89.999999
51
0.000000
0
ARC
5
77f
100
AcDbEntity
8
1
100
AcDbCircle
6
CONTINUOUS
62
5
10
108.850001
20
176.650018
40
0.500000
100
AcDbArc
50
179.999998
51
-89.999999
0
LINE
5
780
100
AcDbEntity
8
1
100
AcDbLine
6
CONTINUOUS
62
5
10
109.800001
20
176.150018
11
108.850001
21
176.150018
0
LINE
5
781
100
AcDbEntity
8
1
100
AcDbLine
6
CONTINUOUS
62
5
10
104.550002
20
178.650018
11
103.850001
21
178.650018
0
LINE
5
782
100
AcDbEntity
8
1
100
AcDbLine
6
CONTINUOUS
62
5
10
104.550002
20
178.650018
11
103.850002
21
178.650018
0
ARC
5
783
100
AcDbEntity
8
1
100
AcDbCircle
6
CONTINUOUS
62
5
10
103.850002
20
178.150018
40
0.500000
100
AcDbArc
50
89.999999
51
179.999998
0
LINE
5
784
100
AcDbEntity
8
1
100
AcDbLine
6
CONTINUOUS
62
5
10
103.350002
20
178.150018
11
103.350002
21
177.850018
0
LINE
5
785
100
AcDbEntity
8
1
100
AcDbLine
6
CONTINUOUS
62
5
10
103.350002
20
178.150018
11
103.350002
21
177.850018
0
LINE
5
786
100
AcDbEntity
8
1
100
AcDbLine
6
CONTINUOUS
62
5
10
104.550002
20
177.850018
11
102.950001
21
177.850018
0
ARC
5
787
100
AcDbEntity
8
1
100
AcDbCircle
6
CONTINUOUS
62
5
10
102.950002
20
177.350018
40
0.500000
100
AcDbArc
50
89.999999
51
179.999998
0
ARC
5
788
100
AcDbEntity
8
1
100
AcDbCircle
6
CONTINUOUS
62
5
10
102.950002
20
175.450018
40
0.500000
100
AcDbArc
50
179.999998
51
-89.999999
0
LINE
5
789
100
AcDbEntity
8
1
100
AcDbLine
6
CONTINUOUS
62
5
10
102.950001
20
174.950017
11
104.550002
21
174.950017
0
LINE
5
78a
100
AcDbEntity
8
1
100
AcDbLine
6
CONTINUOUS
62
5
10
103.850001
20
173.300018
11
104.560104
21
173.300018
0
ARC
5
78b
100
AcDbEntity
8
1
100
AcDbCircle
6
CONTINUOUS
62
5
10
105.050001
20
173.400018
40
0.500000
100
AcDbArc
50
179.999998
51
-89.999999
0
LINE
5
78c
100
AcDbEntity
8
1
100
AcDbLine
6
CONTINUOUS
62
5
10
104.550002
20
174.976814
11
104.550002
21
173.400018
0
LINE
5
78d
100
AcDbEntity
8
1
100
AcDbLine
6
CONTINUOUS
62
5
10
103.350002
20
174.950017
11
103.350002
21
173.800018
0
ARC
5
78e
100
AcDbEntity
8
1
100
AcDbCircle
6
CONTINUOUS
62
5
10
103.850002
20
173.800018
40
0.500000
100
AcDbArc
50
179.999998
51
-89.999999
0
LINE
5
78f
100
AcDbEntity
8
1
100
AcDbLine
6
CONTINUOUS
62
5
10
102.450002
20
177.350018
11
102.450002
21
175.450018
0
LINE
5
790
100
AcDbEntity
8
1
100
AcDbLine
6
CONTINUOUS
62
5
10
105.050001
20
172.900018
11
110.350001
21
172.900018
0
LINE
5
791
100
AcDbEntity
8
1
100
AcDbLine
6
CONTINUOUS
62
5
10
105.050001
20
172.900018
11
110.350001
21
172.900018
0
CIRCLE
5
792
100
AcDbEntity
8
1
100
AcDbCircle
6
CONTINUOUS
62
5
10
124.350001
20
137.150020
40
1.200000
0
POLYLINE
5
793
100
AcDbEntity
8
1
6
CONTINUOUS
62
5
100
AcDb2dPolyline
66
1
10
0.0
20
0.0
30
0.0
70
0
0
VERTEX
5
794
100
AcDbEntity
8
1
100
AcDbVertex
100
AcDb2dVertex
62
5
10
110.457486
20
153.050672
0
VERTEX
5
795
100
AcDbEntity
8
1
100
AcDbVertex
100
AcDb2dVertex
62
5
10
110.460764
20
153.061185
0
VERTEX
5
796
100
AcDbEntity
8
1
100
AcDbVertex
100
AcDb2dVertex
62
5
10
110.464019
20
153.079540
0
VERTEX
5
797
100
AcDbEntity
8
1
100
AcDbVertex
100
AcDb2dVertex
62
5
10
110.467237
20
153.105662
0
VERTEX
5
798
100
AcDbEntity
8
1
100
AcDbVertex
100
AcDb2dVertex
62
5
10
110.470406
20
153.139450
0
VERTEX
5
799
100
AcDbEntity
8
1
100
AcDbVertex
100
AcDb2dVertex
62
5
10
110.473513
20
153.180770
0
VERTEX
5
79a
100
AcDbEntity
8
1
100
AcDbVertex
100
AcDb2dVertex
62
5
10
110.476546
20
153.229459
0
VERTEX
5
79b
100
AcDbEntity
8
1
100
AcDbVertex
100
AcDb2dVertex
62
5
10
110.479493
20
153.285324
0
VERTEX
5
79c
100
AcDbEntity
8
1
100
AcDbVertex
100
AcDb2dVertex
62
5
10
110.482343
20
153.348146
0
VERTEX
5
79d
100
AcDbEntity
8
1
100
AcDbVertex
100
AcDb2dVertex
62
5
10
110.485083
20
153.417675
0
VERTEX
5
79e
100
AcDbEntity
8
1
100
AcDbVertex
100
AcDb2dVertex
62
5
10
110.487704
20
153.493639
0
VERTEX
5
79f
100
AcDbEntity
8
1
100
AcDbVertex
100
AcDb2dVertex
62
5
10
110.490194
20
153.575737
0
VERTEX
5
7a0
100
AcDbEntity
8
1
100
AcDbVertex
100
AcDb2dVertex
62
5
10
110.492545
20
153.663645
0
VERTEX
5
7a1
100
AcDbEntity
8
1
100
AcDbVertex
100
AcDb2dVertex
62
5
10
110.494746
20
153.757016
0
VERTEX
5
7a2
100
AcDbEntity
8
1
100
AcDbVertex
100
AcDb2dVertex
62
5
10
110.496790
20
153.855481
0
VERTEX
5
7a3
100
AcDbEntity
8
1
100
AcDbVertex
100
AcDb2dVertex
62
5
10
110.498668
20
153.958653
0
VERTEX
5
7a4
100
AcDbEntity
8
1
100
AcDbVertex
100
AcDb2dVertex
62
5
10
110.500372
20
154.066123
0
VERTEX
5
7a5
100
AcDbEntity
8
1
100
AcDbVertex
100
AcDb2dVertex
62
5
10
110.501896
20
154.177469
0
VERTEX
5
7a6
100
AcDbEntity
8
1
100
AcDbVertex
100
AcDb2dVertex
62
5
10
110.503234
20
154.292249
0
VERTEX
5
7a7
100
AcDbEntity
8
1
100
AcDbVertex
100
AcDb2dVertex
62
5
10
110.504381
20
154.410012
0
VERTEX
5
7a8
100
AcDbEntity
8
1
100
AcDbVertex
100
AcDb2dVertex
62
5
10
110.505332
20
154.530293
0
VERTEX
5
7a9
100
AcDbEntity
8
1
100
AcDbVertex
100
AcDb2dVertex
62
5
10
110.506084
20
154.652616
0
VERTEX
5
7aa
100
AcDbEntity
8
1
100
AcDbVertex
100
AcDb2dVertex
62
5
10
110.506632
20
154.776500
0
VERTEX
5
7ab
100
AcDbEntity
8
1
100
AcDbVertex
100
AcDb2dVertex
62
5
10
110.506976
20
154.901455
0
VERTEX
5
7ac
100
AcDbEntity
8
1
100
AcDbVertex
100
AcDb2dVertex
62
5
10
110.507114
20
155.026987
0
VERTEX
5
7ad
100
AcDbEntity
8
1
100
AcDbVertex
100
AcDb2dVertex
62
5
10
110.507117
20
155.047931
0
SEQEND
5
7ae
100
AcDbEntity
8
1
0
POLYLINE
5
7af
100
AcDbEntity
8
1
6
CONTINUOUS
62
5
100
AcDb2dPolyline
66
1
10
0.0
20
0.0
30
0.0
70
0
0
VERTEX
5
7b0
100
AcDbEntity
8
1
100
AcDbVertex
100
AcDb2dVertex
62
5
10
110.350001
20
147.721575
0
VERTEX
5
7b1
100
AcDbEntity
8
1
100
AcDbVertex
100
AcDb2dVertex
62
5
10
110.349898
20
147.847156
0
VERTEX
5
7b2
100
AcDbEntity
8
1
100
AcDbVertex
100
AcDb2dVertex
62
5
10
110.349588
20
147.972241
0
VERTEX
5
7b3
100
AcDbEntity
8
1
100
AcDbVertex
100
AcDb2dVertex
62
5
10
110.349074
20
148.096338
0
VERTEX
5
7b4
100
AcDbEntity
8
1
100
AcDbVertex
100
AcDb2dVertex
62
5
10
110.348356
20
148.218955
0
VERTEX
5
7b5
100
AcDbEntity
8
1
100
AcDbVertex
100
AcDb2dVertex
62
5
10
110.347438
20
148.339609
0
VERTEX
5
7b6
100
AcDbEntity
8
1
100
AcDbVertex
100
AcDb2dVertex
62
5
10
110.346324
20
148.457824
0
VERTEX
5
7b7
100
AcDbEntity
8
1
100
AcDbVertex
100
AcDb2dVertex
62
5
10
110.345017
20
148.573134
0
VERTEX
5
7b8
100
AcDbEntity
8
1
100
AcDbVertex
100
AcDb2dVertex
62
5
10
110.343523
20
148.685082
0
VERTEX
5
7b9
100
AcDbEntity
8
1
100
AcDbVertex
100
AcDb2dVertex
62
5
10
110.341848
20
148.793229
0
VERTEX
5
7ba
100
AcDbEntity
8
1
100
AcDbVertex
100
AcDb2dVertex
62
5
10
110.339999
20
148.897145
0
VERTEX
5
7bb
100
AcDbEntity
8
1
100
AcDbVertex
100
AcDb2dVertex
62
5
10
110.337983
20
148.996423
0
VERTEX
5
7bc
100
AcDbEntity
8
1
100
AcDbVertex
100
AcDb2dVertex
62
5
10
110.335807
20
149.090669
0
VERTEX
5
7bd
100
AcDbEntity
8
1
100
AcDbVertex
100
AcDb2dVertex
62
5
10
110.334662
20
149.135788
0
SEQEND
5
7be
100
AcDbEntity
8
1
0
LINE
5
7bf
100
AcDbEntity
8
1
100
AcDbLine
6
CONTINUOUS
62
5
10
110.389286
20
140.600014
11
110.502917
21
140.827434
0
LINE
5
7c0
100
AcDbEntity
8
1
100
AcDbLine
6
CONTINUOUS
62
5
10
110.502917
20
141.372570
11
110.350001
21
141.678614
0
POLYLINE
5
7c1
100
AcDbEntity
8
1
6
CONTINUOUS
62
5
100
AcDb2dPolyline
66
1
10
0.0
20
0.0
30
0.0
70
0
0
VERTEX
5
7c2
100
AcDbEntity
8
1
100
AcDbVertex
100
AcDb2dVertex
62
5
10
110.513898
20
141.100002
0
VERTEX
5
7c3
100
AcDbEntity
8
1
100
AcDbVertex
100
AcDb2dVertex
62
5
10
110.513503
20
141.127536
0
VERTEX
5
7c4
100
AcDbEntity
8
1
100
AcDbVertex
100
AcDb2dVertex
62
5
10
110.513062
20
141.154067
0
VERTEX
5
7c5
100
AcDbEntity
8
1
100
AcDbVertex
100
AcDb2dVertex
62
5
10
110.512579
20
141.179489
0
VERTEX
5
7c6
100
AcDbEntity
8
1
100
AcDbVertex
100
AcDb2dVertex
62
5
10
110.512056
20
141.203702
0
VERTEX
5
7c7
100
AcDbEntity
8
1
100
AcDbVertex
100
AcDb2dVertex
62
5
10
110.511493
20
141.226612
0
VERTEX
5
7c8
100
AcDbEntity
8
1
100
AcDbVertex
100
AcDb2dVertex
62
5
10
110.510894
20
141.248127
0
VERTEX
5
7c9
100
AcDbEntity
8
1
100
AcDbVertex
100
AcDb2dVertex
62
5
10
110.510261
20
141.268162
0
VERTEX
5
7ca
100
AcDbEntity
8
1
100
AcDbVertex
100
AcDb2dVertex
62
5
10
110.509596
20
141.286639
0
VERTEX
5
7cb
100
AcDbEntity
8
1
100
AcDbVertex
100
AcDb2dVertex
62
5
10
110.508902
20
141.303485
0
VERTEX
5
7cc
100
AcDbEntity
8
1
100
AcDbVertex
100
AcDb2dVertex
62
5
10
110.508182
20
141.318632
0
VERTEX
5
7cd
100
AcDbEntity
8
1
100
AcDbVertex
100
AcDb2dVertex
62
5
10
110.507438
20
141.332022
0
VERTEX
5
7ce
100
AcDbEntity
8
1
100
AcDbVertex
100
AcDb2dVertex
62
5
10
110.506674
20
141.343602
0
VERTEX
5
7cf
100
AcDbEntity
8
1
100
AcDbVertex
100
AcDb2dVertex
62
5
10
110.505892
20
141.353325
0
VERTEX
5
7d0
100
AcDbEntity
8
1
100
AcDbVertex
100
AcDb2dVertex
62
5
10
110.505095
20
141.361153
0
VERTEX
5
7d1
100
AcDbEntity
8
1
100
AcDbVertex
100
AcDb2dVertex
62
5
10
110.504288
20
141.367056
0
VERTEX
5
7d2
100
AcDbEntity
8
1
100
AcDbVertex
100
AcDb2dVertex
62
5
10
110.503472
20
141.371010
0
VERTEX
5
7d3
100
AcDbEntity
8
1
100
AcDbVertex
100
AcDb2dVertex
62
5
10
110.502918
20
141.372571
0
SEQEND
5
7d4
100
AcDbEntity
8
1
0
POLYLINE
5
7d5
100
AcDbEntity
8
1
6
CONTINUOUS
62
5
100
AcDb2dPolyline
66
1
10
0.0
20
0.0
30
0.0
70
0
0
VERTEX
5
7d6
100
AcDbEntity
8
1
100
AcDbVertex
100
AcDb2dVertex
62
5
10
110.502918
20
140.827434
0
VERTEX
5
7d7
100
AcDbEntity
8
1
100
AcDbVertex
100
AcDb2dVertex
62
5
10
110.503737
20
140.830062
0
VERTEX
5
7d8
100
AcDbEntity
8
1
100
AcDbVertex
100
AcDb2dVertex
62
5
10
110.504551
20
140.834650
0
VERTEX
5
7d9
100
AcDbEntity
8
1
100
AcDbVertex
100
AcDb2dVertex
62
5
10
110.505355
20
140.841180
0
VERTEX
5
7da
100
AcDbEntity
8
1
100
AcDbVertex
100
AcDb2dVertex
62
5
10
110.506147
20
140.849626
0
VERTEX
5
7db
100
AcDbEntity
8
1
100
AcDbVertex
100
AcDb2dVertex
62
5
10
110.506923
20
140.859956
0
VERTEX
5
7dc
100
AcDbEntity
8
1
100
AcDbVertex
100
AcDb2dVertex
62
5
10
110.507681
20
140.872127
0
VERTEX
5
7dd
100
AcDbEntity
8
1
100
AcDbVertex
100
AcDb2dVertex
62
5
10
110.508418
20
140.886093
0
VERTEX
5
7de
100
AcDbEntity
8
1
100
AcDbVertex
100
AcDb2dVertex
62
5
10
110.509130
20
140.901798
0
VERTEX
5
7df
100
AcDbEntity
8
1
100
AcDbVertex
100
AcDb2dVertex
62
5
10
110.509815
20
140.919180
0
VERTEX
5
7e0
100
AcDbEntity
8
1
100
AcDbVertex
100
AcDb2dVertex
62
5
10
110.510470
20
140.938171
0
VERTEX
5
7e1
100
AcDbEntity
8
1
100
AcDbVertex
100
AcDb2dVertex
62
5
10
110.511092
20
140.958695
0
VERTEX
5
7e2
100
AcDbEntity
8
1
100
AcDbVertex
100
AcDb2dVertex
62
5
10
110.511680
20
140.980671
0
VERTEX
5
7e3
100
AcDbEntity
8
1
100
AcDbVertex
100
AcDb2dVertex
62
5
10
110.512230
20
141.004013
0
VERTEX
5
7e4
100
AcDbEntity
8
1
100
AcDbVertex
100
AcDb2dVertex
62
5
10
110.512741
20
141.028630
0
VERTEX
5
7e5
100
AcDbEntity
8
1
100
AcDbVertex
100
AcDb2dVertex
62
5
10
110.513210
20
141.054422
0
VERTEX
5
7e6
100
AcDbEntity
8
1
100
AcDbVertex
100
AcDb2dVertex
62
5
10
110.513636
20
141.081290
0
VERTEX
5
7e7
100
AcDbEntity
8
1
100
AcDbVertex
100
AcDb2dVertex
62
5
10
110.513898
20
141.100002
0
SEQEND
5
7e8
100
AcDbEntity
8
1
0
LINE
5
7e9
100
AcDbEntity
8
1
100
AcDbLine
6
CONTINUOUS
62
5
10
110.350001
20
141.678614
11
110.350001
21
147.721575
0
LINE
5
7ea
100
AcDbEntity
8
1
100
AcDbLine
6
CONTINUOUS
62
5
10
110.457486
20
153.050672
11
110.297630
21
152.730740
0
POLYLINE
5
7eb
100
AcDbEntity
8
1
6
CONTINUOUS
62
5
100
AcDb2dPolyline
66
1
10
0.0
20
0.0
30
0.0
70
0
0
VERTEX
5
7ec
100
AcDbEntity
8
1
100
AcDbVertex
100
AcDb2dVertex
62
5
10
110.297629
20
151.378429
0
VERTEX
5
7ed
100
AcDbEntity
8
1
100
AcDbVertex
100
AcDb2dVertex
62
5
10
110.297733
20
151.252848
0
VERTEX
5
7ee
100
AcDbEntity
8
1
100
AcDbVertex
100
AcDb2dVertex
62
5
10
110.298042
20
151.127763
0
VERTEX
5
7ef
100
AcDbEntity
8
1
100
AcDbVertex
100
AcDb2dVertex
62
5
10
110.298557
20
151.003666
0
VERTEX
5
7f0
100
AcDbEntity
8
1
100
AcDbVertex
100
AcDb2dVertex
62
5
10
110.299275
20
150.881049
0
VERTEX
5
7f1
100
AcDbEntity
8
1
100
AcDbVertex
100
AcDb2dVertex
62
5
10
110.300193
20
150.760395
0
VERTEX
5
7f2
100
AcDbEntity
8
1
100
AcDbVertex
100
AcDb2dVertex
62
5
10
110.301307
20
150.642180
0
VERTEX
5
7f3
100
AcDbEntity
8
1
100
AcDbVertex
100
AcDb2dVertex
62
5
10
110.302614
20
150.526871
0
VERTEX
5
7f4
100
AcDbEntity
8
1
100
AcDbVertex
100
AcDb2dVertex
62
5
10
110.304107
20
150.414922
0
VERTEX
5
7f5
100
AcDbEntity
8
1
100
AcDbVertex
100
AcDb2dVertex
62
5
10
110.305782
20
150.306776
0
VERTEX
5
7f6
100
AcDbEntity
8
1
100
AcDbVertex
100
AcDb2dVertex
62
5
10
110.307632
20
150.202859
0
VERTEX
5
7f7
100
AcDbEntity
8
1
100
AcDbVertex
100
AcDb2dVertex
62
5
10
110.309648
20
150.103581
0
VERTEX
5
7f8
100
AcDbEntity
8
1
100
AcDbVertex
100
AcDb2dVertex
62
5
10
110.311824
20
150.009335
0
VERTEX
5
7f9
100
AcDbEntity
8
1
100
AcDbVertex
100
AcDb2dVertex
62
5
10
110.312969
20
149.964216
0
SEQEND
5
7fa
100
AcDbEntity
8
1
0
LINE
5
7fb
100
AcDbEntity
8
1
100
AcDbLine
6
CONTINUOUS
62
5
10
110.297630
20
152.730740
11
110.297630
21
151.378429
0
LINE
5
7fc
100
AcDbEntity
8
1
100
AcDbLine
6
CONTINUOUS
62
5
10
110.300001
20
143.650018
11
110.300001
21
143.650018
0
LINE
5
7fd
100
AcDbEntity
8
1
100
AcDbLine
6
CONTINUOUS
62
5
10
110.300001
20
143.650018
11
110.300001
21
143.650019
0
LINE
5
7fe
100
AcDbEntity
8
1
100
AcDbLine
6
CONTINUOUS
62
5
10
110.300001
20
143.650342
11
110.300001
21
143.650019
0
LINE
5
7ff
100
AcDbEntity
8
1
100
AcDbLine
6
CONTINUOUS
62
5
10
110.300001
20
140.650020
11
110.414271
21
140.650020
0
LINE
5
800
100
AcDbEntity
8
1
100
AcDbLine
6
CONTINUOUS
62
5
10
110.300001
20
140.600012
11
110.389286
21
140.600014
0
LINE
5
801
100
AcDbEntity
8
1
100
AcDbLine
6
CONTINUOUS
62
5
10
110.300001
20
140.600020
11
110.389289
21
140.600020
0
LINE
5
802
100
AcDbEntity
8
1
100
AcDbLine
6
CONTINUOUS
62
5
10
110.312969
20
149.964215
11
110.334662
21
149.135788
0
LINE
5
803
100
AcDbEntity
8
1
100
AcDbLine
6
CONTINUOUS
62
5
10
109.800001
20
144.150019
11
109.800001
21
144.150019
0
ARC
5
804
100
AcDbEntity
8
1
100
AcDbCircle
6
CONTINUOUS
62
5
10
109.800001
20
143.650019
40
0.500000
100
AcDbArc
50
0.000000
51
89.999999
0
LINE
5
805
100
AcDbEntity
8
1
100
AcDbLine
6
CONTINUOUS
62
5
10
109.800001
20
144.150019
11
110.350001
21
144.150019
0
LINE
5
806
100
AcDbEntity
8
1
100
AcDbLine
6
CONTINUOUS
62
5
10
108.350001
20
143.650018
11
108.350001
21
143.650018
0
ARC
5
807
100
AcDbEntity
8
1
100
AcDbCircle
6
CONTINUOUS
62
5
10
108.850001
20
143.650019
40
0.500000
100
AcDbArc
50
89.999999
51
179.999998
0
LINE
5
808
100
AcDbEntity
8
1
100
AcDbLine
6
CONTINUOUS
62
5
10
109.800001
20
144.150019
11
108.850001
21
144.150019
0
ARC
5
809
100
AcDbEntity
8
1
100
AcDbCircle
6
CONTINUOUS
62
5
10
105.050001
20
146.900019
40
0.500000
100
AcDbArc
50
89.999999
51
179.999998
0
LINE
5
80a
100
AcDbEntity
8
1
100
AcDbLine
6
CONTINUOUS
62
5
10
105.050001
20
147.400018
11
103.850001
21
147.400018
0
ARC
5
80b
100
AcDbEntity
8
1
100
AcDbCircle
6
CONTINUOUS
62
5
10
103.850002
20
146.900019
40
0.500000
100
AcDbArc
50
89.999999
51
179.999998
0
LINE
5
80c
100
AcDbEntity
8
1
100
AcDbLine
6
CONTINUOUS
62
5
10
102.950001
20
145.350021
11
102.950001
21
145.350019
0
LINE
5
80d
100
AcDbEntity
8
1
100
AcDbLine
6
CONTINUOUS
62
5
10
103.350002
20
142.450020
11
103.350002
21
142.150019
0
LINE
5
80e
100
AcDbEntity
8
1
100
AcDbLine
6
CONTINUOUS
62
5
10
104.550002
20
145.350021
11
102.950001
21
145.350021
0
LINE
5
80f
100
AcDbEntity
8
1
100
AcDbLine
6
CONTINUOUS
62
5
10
102.950001
20
142.450020
11
104.550002
21
142.450020
0
LINE
5
810
100
AcDbEntity
8
1
100
AcDbLine
6
CONTINUOUS
62
5
10
103.850001
20
141.650018
11
104.550002
21
141.650018
0
LINE
5
811
100
AcDbEntity
8
1
100
AcDbLine
6
CONTINUOUS
62
5
10
104.550002
20
141.650020
11
103.850002
21
141.650020
0
ARC
5
812
100
AcDbEntity
8
1
100
AcDbCircle
6
CONTINUOUS
62
5
10
103.850002
20
142.150020
40
0.500000
100
AcDbArc
50
179.999998
51
-89.999999
0
ARC
5
813
100
AcDbEntity
8
1
100
AcDbCircle
6
CONTINUOUS
62
5
10
102.950002
20
144.850019
40
0.500000
100
AcDbArc
50
89.999999
51
179.999998
0
ARC
5
814
100
AcDbEntity
8
1
100
AcDbCircle
6
CONTINUOUS
62
5
10
102.950002
20
142.950020
40
0.500000
100
AcDbArc
50
179.999998
51
-89.999999
0
LINE
5
815
100
AcDbEntity
8
1
100
AcDbLine
6
CONTINUOUS
62
5
10
102.450002
20
144.850020
11
102.450002
21
142.950021
0
LINE
5
816
100
AcDbEntity
8
1
100
AcDbLine
6
CONTINUOUS
62
5
10
104.550002
20
146.900021
11
104.550002
21
145.350021
0
LINE
5
817
100
AcDbEntity
8
1
100
AcDbLine
6
CONTINUOUS
62
5
10
103.350002
20
146.900021
11
103.350002
21
145.350021
0
LINE
5
818
100
AcDbEntity
8
1
100
AcDbLine
6
CONTINUOUS
62
5
10
110.350001
20
147.400018
11
103.850002
21
147.400018
0
LINE
5
819
100
AcDbEntity
8
1
100
AcDbLine
6
CONTINUOUS
62
5
10
110.507117
20
165.252072
11
110.507117
21
155.047931
0
ARC
5
81a
100
AcDbEntity
8
1
100
AcDbCircle
6
CONTINUOUS
62
5
10
145.600000
20
129.500020
40
0.500000
100
AcDbArc
50
-89.999999
51
0.000000
0
LINE
5
81b
100
AcDbEntity
8
1
100
AcDbLine
6
CONTINUOUS
62
5
10
146.099999
20
131.300022
11
146.099999
21
129.500018
0
LINE
5
81c
100
AcDbEntity
8
1
100
AcDbLine
6
CONTINUOUS
62
5
10
145.350000
20
127.150020
11
145.350000
21
128.950020
0
LINE
5
81d
100
AcDbEntity
8
1
100
AcDbLine
6
CONTINUOUS
62
5
10
145.349999
20
129.000017
11
145.349999
21
127.150023
0
ARC
5
81e
100
AcDbEntity
8
1
100
AcDbCircle
6
CONTINUOUS
62
5
10
145.600000
20
131.300020
40
0.500000
100
AcDbArc
50
0.000000
51
89.999999
0
LINE
5
81f
100
AcDbEntity
8
1
100
AcDbLine
6
CONTINUOUS
62
5
10
145.349999
20
132.150021
11
145.349999
21
131.800019
0
LINE
5
820
100
AcDbEntity
8
1
100
AcDbLine
6
CONTINUOUS
62
5
10
140.450000
20
133.650021
11
140.900001
21
133.650021
0
LINE
5
821
100
AcDbEntity
8
1
100
AcDbLine
6
CONTINUOUS
62
5
10
140.450000
20
133.650021
11
140.450000
21
133.650020
0
LINE
5
822
100
AcDbEntity
8
1
100
AcDbLine
6
CONTINUOUS
62
5
10
138.310721
20
133.700002
11
138.400000
21
133.700002
0
LINE
5
823
100
AcDbEntity
8
1
100
AcDbLine
6
CONTINUOUS
62
5
10
138.285747
20
133.650021
11
138.400000
21
133.650021
0
POLYLINE
5
824
100
AcDbEntity
8
1
6
CONTINUOUS
62
5
100
AcDb2dPolyline
66
1
10
0.0
20
0.0
30
0.0
70
0
0
VERTEX
5
825
100
AcDbEntity
8
1
100
AcDbVertex
100
AcDb2dVertex
62
5
10
138.197083
20
133.472571
0
VERTEX
5
826
100
AcDbEntity
8
1
100
AcDbVertex
100
AcDb2dVertex
62
5
10
138.196264
20
133.469943
0
VERTEX
5
827
100
AcDbEntity
8
1
100
AcDbVertex
100
AcDb2dVertex
62
5
10
138.195451
20
133.465355
0
VERTEX
5
828
100
AcDbEntity
8
1
100
AcDbVertex
100
AcDb2dVertex
62
5
10
138.194646
20
133.458825
0
VERTEX
5
829
100
AcDbEntity
8
1
100
AcDbVertex
100
AcDb2dVertex
62
5
10
138.193854
20
133.450379
0
VERTEX
5
82a
100
AcDbEntity
8
1
100
AcDbVertex
100
AcDb2dVertex
62
5
10
138.193078
20
133.440049
0
VERTEX
5
82b
100
AcDbEntity
8
1
100
AcDbVertex
100
AcDb2dVertex
62
5
10
138.192320
20
133.427878
0
VERTEX
5
82c
100
AcDbEntity
8
1
100
AcDbVertex
100
AcDb2dVertex
62
5
10
138.191583
20
133.413912
0
VERTEX
5
82d
100
AcDbEntity
8
1
100
AcDbVertex
100
AcDb2dVertex
62
5
10
138.190871
20
133.398207
0
VERTEX
5
82e
100
AcDbEntity
8
1
100
AcDbVertex
100
AcDb2dVertex
62
5
10
138.190186
20
133.380825
0
VERTEX
5
82f
100
AcDbEntity
8
1
100
AcDbVertex
100
AcDb2dVertex
62
5
10
138.189531
20
133.361835
0
VERTEX
5
830
100
AcDbEntity
8
1
100
AcDbVertex
100
AcDb2dVertex
62
5
10
138.188909
20
133.341311
0
VERTEX
5
831
100
AcDbEntity
8
1
100
AcDbVertex
100
AcDb2dVertex
62
5
10
138.188322
20
133.319334
0
VERTEX
5
832
100
AcDbEntity
8
1
100
AcDbVertex
100
AcDb2dVertex
62
5
10
138.187771
20
133.295992
0
VERTEX
5
833
100
AcDbEntity
8
1
100
AcDbVertex
100
AcDb2dVertex
62
5
10
138.187261
20
133.271376
0
VERTEX
5
834
100
AcDbEntity
8
1
100
AcDbVertex
100
AcDb2dVertex
62
5
10
138.186791
20
133.245583
0
VERTEX
5
835
100
AcDbEntity
8
1
100
AcDbVertex
100
AcDb2dVertex
62
5
10
138.186365
20
133.218716
0
VERTEX
5
836
100
AcDbEntity
8
1
100
AcDbVertex
100
AcDb2dVertex
62
5
10
138.186103
20
133.200003
0
SEQEND
5
837
100
AcDbEntity
8
1
0
LINE
5
838
100
AcDbEntity
8
1
100
AcDbLine
6
CONTINUOUS
62
5
10
138.197084
20
133.472571
11
138.310721
21
133.700002
0
POLYLINE
5
839
100
AcDbEntity
8
1
6
CONTINUOUS
62
5
100
AcDb2dPolyline
66
1
10
0.0
20
0.0
30
0.0
70
0
0
VERTEX
5
83a
100
AcDbEntity
8
1
100
AcDbVertex
100
AcDb2dVertex
62
5
10
138.186103
20
133.200003
0
VERTEX
5
83b
100
AcDbEntity
8
1
100
AcDbVertex
100
AcDb2dVertex
62
5
10
138.186499
20
133.172469
0
VERTEX
5
83c
100
AcDbEntity
8
1
100
AcDbVertex
100
AcDb2dVertex
62
5
10
138.186939
20
133.145938
0
VERTEX
5
83d
100
AcDbEntity
8
1
100
AcDbVertex
100
AcDb2dVertex
62
5
10
138.187422
20
133.120516
0
VERTEX
5
83e
100
AcDbEntity
8
1
100
AcDbVertex
100
AcDb2dVertex
62
5
10
138.187946
20
133.096303
0
VERTEX
5
83f
100
AcDbEntity
8
1
100
AcDbVertex
100
AcDb2dVertex
62
5
10
138.188508
20
133.073393
0
VERTEX
5
840
100
AcDbEntity
8
1
100
AcDbVertex
100
AcDb2dVertex
62
5
10
138.189107
20
133.051878
0
VERTEX
5
841
100
AcDbEntity
8
1
100
AcDbVertex
100
AcDb2dVertex
62
5
10
138.189740
20
133.031843
0
VERTEX
5
842
100
AcDbEntity
8
1
100
AcDbVertex
100
AcDb2dVertex
62
5
10
138.190405
20
133.013366
0
VERTEX
5
843
100
AcDbEntity
8
1
100
AcDbVertex
100
AcDb2dVertex
62
5
10
138.191099
20
132.996520
0
VERTEX
5
844
100
AcDbEntity
8
1
100
AcDbVertex
100
AcDb2dVertex
62
5
10
138.191820
20
132.981373
0
VERTEX
5
845
100
AcDbEntity
8
1
100
AcDbVertex
100
AcDb2dVertex
62
5
10
138.192563
20
132.967983
0
VERTEX
5
846
100
AcDbEntity
8
1
100
AcDbVertex
100
AcDb2dVertex
62
5
10
138.193328
20
132.956404
0
VERTEX
5
847
100
AcDbEntity
8
1
100
AcDbVertex
100
AcDb2dVertex
62
5
10
138.194110
20
132.946680
0
VERTEX
5
848
100
AcDbEntity
8
1
100
AcDbVertex
100
AcDb2dVertex
62
5
10
138.194906
20
132.938852
0
VERTEX
5
849
100
AcDbEntity
8
1
100
AcDbVertex
100
AcDb2dVertex
62
5
10
138.195713
20
132.932949
0
VERTEX
5
84a
100
AcDbEntity
8
1
100
AcDbVertex
100
AcDb2dVertex
62
5
10
138.196529
20
132.928995
0
VERTEX
5
84b
100
AcDbEntity
8
1
100
AcDbVertex
100
AcDb2dVertex
62
5
10
138.197083
20
132.927434
0
SEQEND
5
84c
100
AcDbEntity
8
1
0
LINE
5
84d
100
AcDbEntity
8
1
100
AcDbLine
6
CONTINUOUS
62
5
10
138.350000
20
132.621391
11
138.197084
21
132.927435
0
LINE
5
84e
100
AcDbEntity
8
1
100
AcDbLine
6
CONTINUOUS
62
5
10
138.400000
20
130.650018
11
138.400000
21
130.650018
0
LINE
5
84f
100
AcDbEntity
8
1
100
AcDbLine
6
CONTINUOUS
62
5
10
138.400000
20
130.250019
11
138.400000
21
130.650018
0
ARC
5
850
100
AcDbEntity
8
1
100
AcDbCircle
6
CONTINUOUS
62
5
10
138.300000
20
130.250020
40
0.100000
100
AcDbArc
50
-59.999714
51
0.000000
0
ARC
5
851
100
AcDbEntity
8
1
100
AcDbCircle
6
CONTINUOUS
62
5
10
138.900000
20
130.650020
40
0.500000
100
AcDbArc
50
179.999998
51
-89.999999
0
POLYLINE
5
852
100
AcDbEntity
8
1
6
CONTINUOUS
62
5
100
AcDb2dPolyline
66
1
10
0.0
20
0.0
30
0.0
70
1
0
VERTEX
5
853
100
AcDbEntity
8
1
100
AcDbVertex
100
AcDb2dVertex
62
5
10
133.282771
20
127.113890
0
VERTEX
5
854
100
AcDbEntity
8
1
100
AcDbVertex
100
AcDb2dVertex
62
5
10
135.576303
20
127.113907
0
VERTEX
5
855
100
AcDbEntity
8
1
100
AcDbVertex
100
AcDb2dVertex
62
5
10
135.576303
20
127.533349
0
VERTEX
5
856
100
AcDbEntity
8
1
100
AcDbVertex
100
AcDb2dVertex
62
5
10
134.664687
20
127.533332
0
VERTEX
5
857
100
AcDbEntity
8
1
100
AcDbVertex
100
AcDb2dVertex
62
5
10
134.664687
20
129.661730
0
VERTEX
5
858
100
AcDbEntity
8
1
100
AcDbVertex
100
AcDb2dVertex
62
5
10
134.210247
20
129.661730
0
VERTEX
5
859
100
AcDbEntity
8
1
100
AcDbVertex
100
AcDb2dVertex
62
5
10
134.210247
20
127.533332
0
VERTEX
5
85a
100
AcDbEntity
8
1
100
AcDbVertex
100
AcDb2dVertex
62
5
10
133.282771
20
127.533332
0
SEQEND
5
85b
100
AcDbEntity
8
1
0
POLYLINE
5
85c
100
AcDbEntity
8
1
6
CONTINUOUS
62
5
100
AcDb2dPolyline
66
1
10
0.0
20
0.0
30
0.0
70
0
0
VERTEX
5
85d
100
AcDbEntity
8
1
100
AcDbVertex
100
AcDb2dVertex
62
5
10
137.850057
20
125.800003
0
VERTEX
5
85e
100
AcDbEntity
8
1
100
AcDbVertex
100
AcDb2dVertex
62
5
10
137.881463
20
125.800990
0
VERTEX
5
85f
100
AcDbEntity
8
1
100
AcDbVertex
100
AcDb2dVertex
62
5
10
137.912743
20
125.803946
0
VERTEX
5
860
100
AcDbEntity
8
1
100
AcDbVertex
100
AcDb2dVertex
62
5
10
137.943776
20
125.808861
0
VERTEX
5
861
100
AcDbEntity
8
1
100
AcDbVertex
100
AcDb2dVertex
62
5
10
137.974437
20
125.815714
0
VERTEX
5
862
100
AcDbEntity
8
1
100
AcDbVertex
100
AcDb2dVertex
62
5
10
138.004607
20
125.824479
0
VERTEX
5
863
100
AcDbEntity
8
1
100
AcDbVertex
100
AcDb2dVertex
62
5
10
138.034166
20
125.835120
0
VERTEX
5
864
100
AcDbEntity
8
1
100
AcDbVertex
100
AcDb2dVertex
62
5
10
138.062998
20
125.847597
0
VERTEX
5
865
100
AcDbEntity
8
1
100
AcDbVertex
100
AcDb2dVertex
62
5
10
138.090988
20
125.861859
0
VERTEX
5
866
100
AcDbEntity
8
1
100
AcDbVertex
100
AcDb2dVertex
62
5
10
138.118027
20
125.877851
0
VERTEX
5
867
100
AcDbEntity
8
1
100
AcDbVertex
100
AcDb2dVertex
62
5
10
138.144007
20
125.895509
0
VERTEX
5
868
100
AcDbEntity
8
1
100
AcDbVertex
100
AcDb2dVertex
62
5
10
138.168826
20
125.914764
0
VERTEX
5
869
100
AcDbEntity
8
1
100
AcDbVertex
100
AcDb2dVertex
62
5
10
138.192386
20
125.935539
0
VERTEX
5
86a
100
AcDbEntity
8
1
100
AcDbVertex
100
AcDb2dVertex
62
5
10
138.214594
20
125.957754
0
VERTEX
5
86b
100
AcDbEntity
8
1
100
AcDbVertex
100
AcDb2dVertex
62
5
10
138.235363
20
125.981319
0
VERTEX
5
86c
100
AcDbEntity
8
1
100
AcDbVertex
100
AcDb2dVertex
62
5
10
138.254610
20
126.006142
0
VERTEX
5
86d
100
AcDbEntity
8
1
100
AcDbVertex
100
AcDb2dVertex
62
5
10
138.272260
20
126.032125
0
VERTEX
5
86e
100
AcDbEntity
8
1
100
AcDbVertex
100
AcDb2dVertex
62
5
10
138.288242
20
126.059166
0
VERTEX
5
86f
100
AcDbEntity
8
1
100
AcDbVertex
100
AcDb2dVertex
62
5
10
138.302494
20
126.087157
0
VERTEX
5
870
100
AcDbEntity
8
1
100
AcDbVertex
100
AcDb2dVertex
62
5
10
138.314960
20
126.115989
0
VERTEX
5
871
100
AcDbEntity
8
1
100
AcDbVertex
100
AcDb2dVertex
62
5
10
138.325590
20
126.145547
0
VERTEX
5
872
100
AcDbEntity
8
1
100
AcDbVertex
100
AcDb2dVertex
62
5
10
138.334343
20
126.175715
0
VERTEX
5
873
100
AcDbEntity
8
1
100
AcDbVertex
100
AcDb2dVertex
62
5
10
138.341183
20
126.206374
0
VERTEX
5
874
100
AcDbEntity
8
1
100
AcDbVertex
100
AcDb2dVertex
62
5
10
138.346085
20
126.237403
0
VERTEX
5
875
100
AcDbEntity
8
1
100
AcDbVertex
100
AcDb2dVertex
62
5
10
138.349027
20
126.268679
0
VERTEX
5
876
100
AcDbEntity
8
1
100
AcDbVertex
100
AcDb2dVertex
62
5
10
138.350000
20
126.299851
0
SEQEND
5
877
100
AcDbEntity
8
1
0
LINE
5
878
100
AcDbEntity
8
1
100
AcDbLine
6
CONTINUOUS
62
5
10
138.350000
20
132.621391
11
138.350000
21
126.299851
0
POLYLINE
5
879
100
AcDbEntity
8
1
6
CONTINUOUS
62
5
100
AcDb2dPolyline
66
1
10
0.0
20
0.0
30
0.0
70
0
0
VERTEX
5
87a
100
AcDbEntity
8
1
100
AcDbVertex
100
AcDb2dVertex
62
5
10
140.350000
20
133.650020
0
VERTEX
5
87b
100
AcDbEntity
8
1
100
AcDbVertex
100
AcDb2dVertex
62
5
10
140.350085
20
133.650020
0
VERTEX
5
87c
100
AcDbEntity
8
1
100
AcDbVertex
100
AcDb2dVertex
62
5
10
140.350331
20
133.650020
0
VERTEX
5
87d
100
AcDbEntity
8
1
100
AcDbVertex
100
AcDb2dVertex
62
5
10
140.350727
20
133.650020
0
VERTEX
5
87e
100
AcDbEntity
8
1
100
AcDbVertex
100
AcDb2dVertex
62
5
10
140.351261
20
133.650020
0
VERTEX
5
87f
100
AcDbEntity
8
1
100
AcDbVertex
100
AcDb2dVertex
62
5
10
140.351920
20
133.650020
0
VERTEX
5
880
100
AcDbEntity
8
1
100
AcDbVertex
100
AcDb2dVertex
62
5
10
140.352692
20
133.650020
0
VERTEX
5
881
100
AcDbEntity
8
1
100
AcDbVertex
100
AcDb2dVertex
62
5
10
140.353566
20
133.650020
0
VERTEX
5
882
100
AcDbEntity
8
1
100
AcDbVertex
100
AcDb2dVertex
62
5
10
140.354530
20
133.650020
0
VERTEX
5
883
100
AcDbEntity
8
1
100
AcDbVertex
100
AcDb2dVertex
62
5
10
140.355571
20
133.650020
0
VERTEX
5
884
100
AcDbEntity
8
1
100
AcDbVertex
100
AcDb2dVertex
62
5
10
140.356677
20
133.650020
0
VERTEX
5
885
100
AcDbEntity
8
1
100
AcDbVertex
100
AcDb2dVertex
62
5
10
140.357836
20
133.650020
0
VERTEX
5
886
100
AcDbEntity
8
1
100
AcDbVertex
100
AcDb2dVertex
62
5
10
140.361332
20
133.650020
0
VERTEX
5
887
100
AcDbEntity
8
1
100
AcDbVertex
100
AcDb2dVertex
62
5
10
140.365105
20
133.650020
0
VERTEX
5
888
100
AcDbEntity
8
1
100
AcDbVertex
100
AcDb2dVertex
62
5
10
140.369103
20
133.650020
0
VERTEX
5
889
100
AcDbEntity
8
1
100
AcDbVertex
100
AcDb2dVertex
62
5
10
140.373275
20
133.650020
0
VERTEX
5
88a
100
AcDbEntity
8
1
100
AcDbVertex
100
AcDb2dVertex
62
5
10
140.377567
20
133.650020
0
VERTEX
5
88b
100
AcDbEntity
8
1
100
AcDbVertex
100
AcDb2dVertex
62
5
10
140.381927
20
133.650020
0
VERTEX
5
88c
100
AcDbEntity
8
1
100
AcDbVertex
100
AcDb2dVertex
62
5
10
140.386304
20
133.650020
0
VERTEX
5
88d
100
AcDbEntity
8
1
100
AcDbVertex
100
AcDb2dVertex
62
5
10
140.390646
20
133.650020
0
VERTEX
5
88e
100
AcDbEntity
8
1
100
AcDbVertex
100
AcDb2dVertex
62
5
10
140.394899
20
133.650020
0
VERTEX
5
88f
100
AcDbEntity
8
1
100
AcDbVertex
100
AcDb2dVertex
62
5
10
140.399013
20
133.650020
0
VERTEX
5
890
100
AcDbEntity
8
1
100
AcDbVertex
100
AcDb2dVertex
62
5
10
140.402935
20
133.650020
0
VERTEX
5
891
100
AcDbEntity
8
1
100
AcDbVertex
100
AcDb2dVertex
62
5
10
140.405363
20
133.650020
0
VERTEX
5
892
100
AcDbEntity
8
1
100
AcDbVertex
100
AcDb2dVertex
62
5
10
140.407709
20
133.650020
0
VERTEX
5
893
100
AcDbEntity
8
1
100
AcDbVertex
100
AcDb2dVertex
62
5
10
140.409994
20
133.650020
0
VERTEX
5
894
100
AcDbEntity
8
1
100
AcDbVertex
100
AcDb2dVertex
62
5
10
140.412240
20
133.650020
0
VERTEX
5
895
100
AcDbEntity
8
1
100
AcDbVertex
100
AcDb2dVertex
62
5
10
140.414467
20
133.650020
0
VERTEX
5
896
100
AcDbEntity
8
1
100
AcDbVertex
100
AcDb2dVertex
62
5
10
140.416697
20
133.650020
0
VERTEX
5
897
100
AcDbEntity
8
1
100
AcDbVertex
100
AcDb2dVertex
62
5
10
140.418951
20
133.650020
0
VERTEX
5
898
100
AcDbEntity
8
1
100
AcDbVertex
100
AcDb2dVertex
62
5
10
140.421249
20
133.650020
0
VERTEX
5
899
100
AcDbEntity
8
1
100
AcDbVertex
100
AcDb2dVertex
62
5
10
140.423615
20
133.650020
0
VERTEX
5
89a
100
AcDbEntity
8
1
100
AcDbVertex
100
AcDb2dVertex
62
5
10
140.426067
20
133.650020
0
VERTEX
5
89b
100
AcDbEntity
8
1
100
AcDbVertex
100
AcDb2dVertex
62
5
10
140.428629
20
133.650020
0
VERTEX
5
89c
100
AcDbEntity
8
1
100
AcDbVertex
100
AcDb2dVertex
62
5
10
140.431251
20
133.650020
0
VERTEX
5
89d
100
AcDbEntity
8
1
100
AcDbVertex
100
AcDb2dVertex
62
5
10
140.433934
20
133.650020
0
VERTEX
5
89e
100
AcDbEntity
8
1
100
AcDbVertex
100
AcDb2dVertex
62
5
10
140.436610
20
133.650020
0
VERTEX
5
89f
100
AcDbEntity
8
1
100
AcDbVertex
100
AcDb2dVertex
62
5
10
140.439216
20
133.650020
0
VERTEX
5
8a0
100
AcDbEntity
8
1
100
AcDbVertex
100
AcDb2dVertex
62
5
10
140.441686
20
133.650020
0
VERTEX
5
8a1
100
AcDbEntity
8
1
100
AcDbVertex
100
AcDb2dVertex
62
5
10
140.443955
20
133.650020
0
VERTEX
5
8a2
100
AcDbEntity
8
1
100
AcDbVertex
100
AcDb2dVertex
62
5
10
140.445957
20
133.650020
0
VERTEX
5
8a3
100
AcDbEntity
8
1
100
AcDbVertex
100
AcDb2dVertex
62
5
10
140.447628
20
133.650020
0
VERTEX
5
8a4
100
AcDbEntity
8
1
100
AcDbVertex
100
AcDb2dVertex
62
5
10
140.448902
20
133.650020
0
VERTEX
5
8a5
100
AcDbEntity
8
1
100
AcDbVertex
100
AcDb2dVertex
62
5
10
140.449715
20
133.650020
0
VERTEX
5
8a6
100
AcDbEntity
8
1
100
AcDbVertex
100
AcDb2dVertex
62
5
10
140.450000
20
133.650020
0
SEQEND
5
8a7
100
AcDbEntity
8
1
0
LINE
5
8a8
100
AcDbEntity
8
1
100
AcDbLine
6
CONTINUOUS
62
5
10
140.350000
20
133.650020
11
140.850000
21
133.650020
0
LINE
5
8a9
100
AcDbEntity
8
1
100
AcDbLine
6
CONTINUOUS
62
5
10
140.350000
20
130.650018
11
140.350001
21
130.650018
0
ARC
5
8aa
100
AcDbEntity
8
1
100
AcDbCircle
6
CONTINUOUS
62
5
10
139.850000
20
130.650020
40
0.500000
100
AcDbArc
50
-89.999999
51
0.000000
0
LINE
5
8ab
100
AcDbEntity
8
1
100
AcDbLine
6
CONTINUOUS
62
5
10
138.900000
20
130.150020
11
139.850000
21
130.150020
0
POLYLINE
5
8ac
100
AcDbEntity
8
1
6
CONTINUOUS
62
5
100
AcDb2dPolyline
66
1
10
0.0
20
0.0
30
0.0
70
1
0
VERTEX
5
8ad
100
AcDbEntity
8
1
100
AcDbVertex
100
AcDb2dVertex
62
5
10
131.600630
20
129.186888
0
VERTEX
5
8ae
100
AcDbEntity
8
1
100
AcDbVertex
100
AcDb2dVertex
62
5
10
132.475059
20
127.113890
0
VERTEX
5
8af
100
AcDbEntity
8
1
100
AcDbVertex
100
AcDb2dVertex
62
5
10
132.940984
20
127.113890
0
VERTEX
5
8b0
100
AcDbEntity
8
1
100
AcDbVertex
100
AcDb2dVertex
62
5
10
131.813905
20
129.690715
0
VERTEX
5
8b1
100
AcDbEntity
8
1
100
AcDbVertex
100
AcDb2dVertex
62
5
10
131.387901
20
129.690715
0
VERTEX
5
8b2
100
AcDbEntity
8
1
100
AcDbVertex
100
AcDb2dVertex
62
5
10
130.256447
20
127.113890
0
VERTEX
5
8b3
100
AcDbEntity
8
1
100
AcDbVertex
100
AcDb2dVertex
62
5
10
130.726200
20
127.113890
0
SEQEND
5
8b4
100
AcDbEntity
8
1
0
LINE
5
8b5
100
AcDbEntity
8
1
100
AcDbLine
6
CONTINUOUS
62
5
10
143.650001
20
126.650022
11
143.650001
21
126.650020
0
ARC
5
8b6
100
AcDbEntity
8
1
100
AcDbCircle
6
CONTINUOUS
62
5
10
143.650000
20
127.150020
40
0.500000
100
AcDbArc
50
-89.999999
51
0.000000
0
LINE
5
8b7
100
AcDbEntity
8
1
100
AcDbLine
6
CONTINUOUS
62
5
10
144.150000
20
129.000017
11
144.150000
21
127.150023
0
ARC
5
8b8
100
AcDbEntity
8
1
100
AcDbCircle
6
CONTINUOUS
62
5
10
144.850000
20
127.150020
40
0.500000
100
AcDbArc
50
-89.999999
51
0.000000
0
ARC
5
8b9
100
AcDbEntity
8
1
100
AcDbCircle
6
CONTINUOUS
62
5
10
144.850000
20
132.150020
40
0.500000
100
AcDbArc
50
0.000000
51
89.999999
0
LINE
5
8ba
100
AcDbEntity
8
1
100
AcDbLine
6
CONTINUOUS
62
5
10
144.150000
20
132.650020
11
144.850000
21
132.650020
0
LINE
5
8bb
100
AcDbEntity
8
1
100
AcDbLine
6
CONTINUOUS
62
5
10
144.150000
20
132.650019
11
144.850000
21
132.650019
0
LINE
5
8bc
100
AcDbEntity
8
1
100
AcDbLine
6
CONTINUOUS
62
5
10
145.600000
20
129.000017
11
144.150000
21
129.000017
0
LINE
5
8bd
100
AcDbEntity
8
1
100
AcDbLine
6
CONTINUOUS
62
5
10
144.850000
20
126.650022
11
143.650001
21
126.650022
0
LINE
5
8be
100
AcDbEntity
8
1
100
AcDbLine
6
CONTINUOUS
62
5
10
144.150000
20
131.800019
11
145.600000
21
131.800019
0
LINE
5
8bf
100
AcDbEntity
8
1
100
AcDbLine
6
CONTINUOUS
62
5
10
144.850000
20
126.650020
11
138.350000
21
126.650020
0
LINE
5
8c0
100
AcDbEntity
8
1
100
AcDbLine
6
CONTINUOUS
62
5
10
110.389286
20
133.699991
11
110.502917
21
133.472571
0
POLYLINE
5
8c1
100
AcDbEntity
8
1
6
CONTINUOUS
62
5
100
AcDb2dPolyline
66
1
10
0.0
20
0.0
30
0.0
70
0
0
VERTEX
5
8c2
100
AcDbEntity
8
1
100
AcDbVertex
100
AcDb2dVertex
62
5
10
110.513898
20
133.200003
0
VERTEX
5
8c3
100
AcDbEntity
8
1
100
AcDbVertex
100
AcDb2dVertex
62
5
10
110.513503
20
133.227537
0
VERTEX
5
8c4
100
AcDbEntity
8
1
100
AcDbVertex
100
AcDb2dVertex
62
5
10
110.513062
20
133.254067
0
VERTEX
5
8c5
100
AcDbEntity
8
1
100
AcDbVertex
100
AcDb2dVertex
62
5
10
110.512579
20
133.279489
0
VERTEX
5
8c6
100
AcDbEntity
8
1
100
AcDbVertex
100
AcDb2dVertex
62
5
10
110.512056
20
133.303703
0
VERTEX
5
8c7
100
AcDbEntity
8
1
100
AcDbVertex
100
AcDb2dVertex
62
5
10
110.511493
20
133.326612
0
VERTEX
5
8c8
100
AcDbEntity
8
1
100
AcDbVertex
100
AcDb2dVertex
62
5
10
110.510894
20
133.348127
0
VERTEX
5
8c9
100
AcDbEntity
8
1
100
AcDbVertex
100
AcDb2dVertex
62
5
10
110.510261
20
133.368163
0
VERTEX
5
8ca
100
AcDbEntity
8
1
100
AcDbVertex
100
AcDb2dVertex
62
5
10
110.509596
20
133.386640
0
VERTEX
5
8cb
100
AcDbEntity
8
1
100
AcDbVertex
100
AcDb2dVertex
62
5
10
110.508902
20
133.403485
0
VERTEX
5
8cc
100
AcDbEntity
8
1
100
AcDbVertex
100
AcDb2dVertex
62
5
10
110.508182
20
133.418633
0
VERTEX
5
8cd
100
AcDbEntity
8
1
100
AcDbVertex
100
AcDb2dVertex
62
5
10
110.507438
20
133.432023
0
VERTEX
5
8ce
100
AcDbEntity
8
1
100
AcDbVertex
100
AcDb2dVertex
62
5
10
110.506674
20
133.443602
0
VERTEX
5
8cf
100
AcDbEntity
8
1
100
AcDbVertex
100
AcDb2dVertex
62
5
10
110.505892
20
133.453325
0
VERTEX
5
8d0
100
AcDbEntity
8
1
100
AcDbVertex
100
AcDb2dVertex
62
5
10
110.505095
20
133.461154
0
VERTEX
5
8d1
100
AcDbEntity
8
1
100
AcDbVertex
100
AcDb2dVertex
62
5
10
110.504288
20
133.467057
0
VERTEX
5
8d2
100
AcDbEntity
8
1
100
AcDbVertex
100
AcDb2dVertex
62
5
10
110.503472
20
133.471011
0
VERTEX
5
8d3
100
AcDbEntity
8
1
100
AcDbVertex
100
AcDb2dVertex
62
5
10
110.502918
20
133.472571
0
SEQEND
5
8d4
100
AcDbEntity
8
1
0
POLYLINE
5
8d5
100
AcDbEntity
8
1
6
CONTINUOUS
62
5
100
AcDb2dPolyline
66
1
10
0.0
20
0.0
30
0.0
70
0
0
VERTEX
5
8d6
100
AcDbEntity
8
1
100
AcDbVertex
100
AcDb2dVertex
62
5
10
110.502918
20
132.927434
0
VERTEX
5
8d7
100
AcDbEntity
8
1
100
AcDbVertex
100
AcDb2dVertex
62
5
10
110.503737
20
132.930062
0
VERTEX
5
8d8
100
AcDbEntity
8
1
100
AcDbVertex
100
AcDb2dVertex
62
5
10
110.504551
20
132.934650
0
VERTEX
5
8d9
100
AcDbEntity
8
1
100
AcDbVertex
100
AcDb2dVertex
62
5
10
110.505355
20
132.941180
0
VERTEX
5
8da
100
AcDbEntity
8
1
100
AcDbVertex
100
AcDb2dVertex
62
5
10
110.506147
20
132.949627
0
VERTEX
5
8db
100
AcDbEntity
8
1
100
AcDbVertex
100
AcDb2dVertex
62
5
10
110.506923
20
132.959956
0
VERTEX
5
8dc
100
AcDbEntity
8
1
100
AcDbVertex
100
AcDb2dVertex
62
5
10
110.507681
20
132.972128
0
VERTEX
5
8dd
100
AcDbEntity
8
1
100
AcDbVertex
100
AcDb2dVertex
62
5
10
110.508418
20
132.986093
0
VERTEX
5
8de
100
AcDbEntity
8
1
100
AcDbVertex
100
AcDb2dVertex
62
5
10
110.509130
20
133.001798
0
VERTEX
5
8df
100
AcDbEntity
8
1
100
AcDbVertex
100
AcDb2dVertex
62
5
10
110.509815
20
133.019180
0
VERTEX
5
8e0
100
AcDbEntity
8
1
100
AcDbVertex
100
AcDb2dVertex
62
5
10
110.510470
20
133.038171
0
VERTEX
5
8e1
100
AcDbEntity
8
1
100
AcDbVertex
100
AcDb2dVertex
62
5
10
110.511092
20
133.058695
0
VERTEX
5
8e2
100
AcDbEntity
8
1
100
AcDbVertex
100
AcDb2dVertex
62
5
10
110.511680
20
133.080671
0
VERTEX
5
8e3
100
AcDbEntity
8
1
100
AcDbVertex
100
AcDb2dVertex
62
5
10
110.512230
20
133.104014
0
VERTEX
5
8e4
100
AcDbEntity
8
1
100
AcDbVertex
100
AcDb2dVertex
62
5
10
110.512741
20
133.128630
0
VERTEX
5
8e5
100
AcDbEntity
8
1
100
AcDbVertex
100
AcDb2dVertex
62
5
10
110.513210
20
133.154423
0
VERTEX
5
8e6
100
AcDbEntity
8
1
100
AcDbVertex
100
AcDb2dVertex
62
5
10
110.513636
20
133.181290
0
VERTEX
5
8e7
100
AcDbEntity
8
1
100
AcDbVertex
100
AcDb2dVertex
62
5
10
110.513898
20
133.200003
0
SEQEND
5
8e8
100
AcDbEntity
8
1
0
LINE
5
8e9
100
AcDbEntity
8
1
100
AcDbLine
6
CONTINUOUS
62
5
10
110.350001
20
132.621391
11
110.502917
21
132.927435
0
POLYLINE
5
8ea
100
AcDbEntity
8
1
6
CONTINUOUS
62
5
100
AcDb2dPolyline
66
1
10
0.0
20
0.0
30
0.0
70
0
0
VERTEX
5
8eb
100
AcDbEntity
8
1
100
AcDbVertex
100
AcDb2dVertex
62
5
10
110.350001
20
126.299851
0
VERTEX
5
8ec
100
AcDbEntity
8
1
100
AcDbVertex
100
AcDb2dVertex
62
5
10
110.350988
20
126.268451
0
VERTEX
5
8ed
100
AcDbEntity
8
1
100
AcDbVertex
100
AcDb2dVertex
62
5
10
110.353945
20
126.237176
0
VERTEX
5
8ee
100
AcDbEntity
8
1
100
AcDbVertex
100
AcDb2dVertex
62
5
10
110.358861
20
126.206150
0
VERTEX
5
8ef
100
AcDbEntity
8
1
100
AcDbVertex
100
AcDb2dVertex
62
5
10
110.365715
20
126.175494
0
VERTEX
5
8f0
100
AcDbEntity
8
1
100
AcDbVertex
100
AcDb2dVertex
62
5
10
110.374481
20
126.145330
0
VERTEX
5
8f1
100
AcDbEntity
8
1
100
AcDbVertex
100
AcDb2dVertex
62
5
10
110.385125
20
126.115777
0
VERTEX
5
8f2
100
AcDbEntity
8
1
100
AcDbVertex
100
AcDb2dVertex
62
5
10
110.397604
20
126.086950
0
VERTEX
5
8f3
100
AcDbEntity
8
1
100
AcDbVertex
100
AcDb2dVertex
62
5
10
110.411869
20
126.058966
0
VERTEX
5
8f4
100
AcDbEntity
8
1
100
AcDbVertex
100
AcDb2dVertex
62
5
10
110.427864
20
126.031932
0
VERTEX
5
8f5
100
AcDbEntity
8
1
100
AcDbVertex
100
AcDb2dVertex
62
5
10
110.445525
20
126.005957
0
VERTEX
5
8f6
100
AcDbEntity
8
1
100
AcDbVertex
100
AcDb2dVertex
62
5
10
110.464784
20
125.981143
0
VERTEX
5
8f7
100
AcDbEntity
8
1
100
AcDbVertex
100
AcDb2dVertex
62
5
10
110.485563
20
125.957587
0
VERTEX
5
8f8
100
AcDbEntity
8
1
100
AcDbVertex
100
AcDb2dVertex
62
5
10
110.507782
20
125.935383
0
VERTEX
5
8f9
100
AcDbEntity
8
1
100
AcDbVertex
100
AcDb2dVertex
62
5
10
110.531351
20
125.914618
0
VERTEX
5
8fa
100
AcDbEntity
8
1
100
AcDbVertex
100
AcDb2dVertex
62
5
10
110.556179
20
125.895375
0
VERTEX
5
8fb
100
AcDbEntity
8
1
100
AcDbVertex
100
AcDb2dVertex
62
5
10
110.582167
20
125.877729
0
VERTEX
5
8fc
100
AcDbEntity
8
1
100
AcDbVertex
100
AcDb2dVertex
62
5
10
110.609213
20
125.861749
0
VERTEX
5
8fd
100
AcDbEntity
8
1
100
AcDbVertex
100
AcDb2dVertex
62
5
10
110.637210
20
125.847500
0
VERTEX
5
8fe
100
AcDbEntity
8
1
100
AcDbVertex
100
AcDb2dVertex
62
5
10
110.666047
20
125.835036
0
VERTEX
5
8ff
100
AcDbEntity
8
1
100
AcDbVertex
100
AcDb2dVertex
62
5
10
110.695611
20
125.824408
0
VERTEX
5
900
100
AcDbEntity
8
1
100
AcDbVertex
100
AcDb2dVertex
62
5
10
110.725785
20
125.815657
0
VERTEX
5
901
100
AcDbEntity
8
1
100
AcDbVertex
100
AcDb2dVertex
62
5
10
110.756450
20
125.808818
0
VERTEX
5
902
100
AcDbEntity
8
1
100
AcDbVertex
100
AcDb2dVertex
62
5
10
110.787485
20
125.803918
0
VERTEX
5
903
100
AcDbEntity
8
1
100
AcDbVertex
100
AcDb2dVertex
62
5
10
110.818767
20
125.800976
0
VERTEX
5
904
100
AcDbEntity
8
1
100
AcDbVertex
100
AcDb2dVertex
62
5
10
110.849944
20
125.800003
0
SEQEND
5
905
100
AcDbEntity
8
1
0
LINE
5
906
100
AcDbEntity
8
1
100
AcDbLine
6
CONTINUOUS
62
5
10
110.350001
20
126.299851
11
110.350001
21
132.621391
0
LINE
5
907
100
AcDbEntity
8
1
100
AcDbLine
6
CONTINUOUS
62
5
10
110.300001
20
133.699993
11
110.389286
21
133.699991
0
LINE
5
908
100
AcDbEntity
8
1
100
AcDbLine
6
CONTINUOUS
62
5
10
110.414254
20
133.650021
11
110.300001
21
133.650021
0
LINE
5
909
100
AcDbEntity
8
1
100
AcDbLine
6
CONTINUOUS
62
5
10
110.300001
20
130.650018
11
110.300001
21
130.650018
0
LINE
5
90a
100
AcDbEntity
8
1
100
AcDbLine
6
CONTINUOUS
62
5
10
110.300001
20
130.250019
11
110.300001
21
130.650018
0
ARC
5
90b
100
AcDbEntity
8
1
100
AcDbCircle
6
CONTINUOUS
62
5
10
110.400001
20
130.250020
40
0.100000
100
AcDbArc
50
179.999998
51
-120.000285
0
ARC
5
90c
100
AcDbEntity
8
1
100
AcDbCircle
6
CONTINUOUS
62
5
10
109.800001
20
130.650020
40
0.500000
100
AcDbArc
50
-89.999999
51
0.000000
0
ARC
5
90d
100
AcDbEntity
8
1
100
AcDbCircle
6
CONTINUOUS
62
5
10
108.850001
20
130.650020
40
0.500000
100
AcDbArc
50
179.999998
51
-89.999999
0
LINE
5
90e
100
AcDbEntity
8
1
100
AcDbLine
6
CONTINUOUS
62
5
10
109.800001
20
130.150020
11
108.850001
21
130.150020
0
LINE
5
90f
100
AcDbEntity
8
1
100
AcDbLine
6
CONTINUOUS
62
5
10
104.550002
20
132.650019
11
103.850001
21
132.650019
0
LINE
5
910
100
AcDbEntity
8
1
100
AcDbLine
6
CONTINUOUS
62
5
10
104.550002
20
132.650020
11
103.850002
21
132.650020
0
LINE
5
911
100
AcDbEntity
8
1
100
AcDbLine
6
CONTINUOUS
62
5
10
103.100001
20
129.000017
11
104.550002
21
129.000017
0
ARC
5
912
100
AcDbEntity
8
1
100
AcDbCircle
6
CONTINUOUS
62
5
10
103.100002
20
129.500017
40
0.500000
100
AcDbArc
50
179.999998
51
-89.999999
0
LINE
5
913
100
AcDbEntity
8
1
100
AcDbLine
6
CONTINUOUS
62
5
10
102.600002
20
131.302298
11
102.600002
21
129.500014
0
LINE
5
914
100
AcDbEntity
8
1
100
AcDbLine
6
CONTINUOUS
62
5
10
102.600002
20
131.300022
11
102.600002
21
129.500014
0
ARC
5
915
100
AcDbEntity
8
1
100
AcDbCircle
6
CONTINUOUS
62
5
10
103.850002
20
127.150020
40
0.500000
100
AcDbArc
50
179.999998
51
-89.999999
0
ARC
5
916
100
AcDbEntity
8
1
100
AcDbCircle
6
CONTINUOUS
62
5
10
105.050001
20
127.150020
40
0.500000
100
AcDbArc
50
179.999998
51
-89.999999
0
LINE
5
917
100
AcDbEntity
8
1
100
AcDbLine
6
CONTINUOUS
62
5
10
105.050001
20
126.650022
11
105.050001
21
126.650020
0
LINE
5
918
100
AcDbEntity
8
1
100
AcDbLine
6
CONTINUOUS
62
5
10
103.850001
20
126.650022
11
105.050001
21
126.650022
0
LINE
5
919
100
AcDbEntity
8
1
100
AcDbLine
6
CONTINUOUS
62
5
10
103.350002
20
129.000017
11
103.350002
21
127.150023
0
LINE
5
91a
100
AcDbEntity
8
1
100
AcDbLine
6
CONTINUOUS
62
5
10
104.550002
20
129.000017
11
104.550002
21
127.150023
0
LINE
5
91b
100
AcDbEntity
8
1
100
AcDbLine
6
CONTINUOUS
62
5
10
104.550002
20
131.800019
11
103.100001
21
131.800019
0
ARC
5
91c
100
AcDbEntity
8
1
100
AcDbCircle
6
CONTINUOUS
62
5
10
103.100002
20
131.300020
40
0.500000
100
AcDbArc
50
89.999999
51
179.999998
0
LINE
5
91d
100
AcDbEntity
8
1
100
AcDbLine
6
CONTINUOUS
62
5
10
103.350002
20
132.150021
11
103.350002
21
131.800019
0
ARC
5
91e
100
AcDbEntity
8
1
100
AcDbCircle
6
CONTINUOUS
62
5
10
103.850002
20
132.150020
40
0.500000
100
AcDbArc
50
89.999999
51
179.999998
0
LINE
5
91f
100
AcDbEntity
8
1
100
AcDbLine
6
CONTINUOUS
62
5
10
110.350001
20
126.650020
11
103.850002
21
126.650020
0
LINE
5
920
100
AcDbEntity
8
1
100
AcDbLine
6
CONTINUOUS
62
5
10
137.850057
20
125.800003
11
110.849944
21
125.800003
0
LINE
5
921
100
AcDbEntity
8
1
100
AcDbLine
6
CONTINUOUS
62
5
10
140.900001
20
133.650021
11
140.900001
21
140.650020
0
LINE
5
922
100
AcDbEntity
8
1
100
AcDbLine
6
CONTINUOUS
62
5
10
138.310721
20
133.700002
11
138.310721
21
140.600003
0
LINE
5
923
100
AcDbEntity
8
1
100
AcDbLine
6
CONTINUOUS
62
5
10
138.400000
20
130.650018
11
138.400000
21
143.650018
0
LINE
5
924
100
AcDbEntity
8
1
100
AcDbLine
6
CONTINUOUS
62
5
10
138.400000
20
130.650020
11
138.400000
21
144.150019
0
LINE
5
925
100
AcDbEntity
8
1
100
AcDbLine
6
CONTINUOUS
62
5
10
140.350001
20
143.650018
11
140.350001
21
130.650018
0
LINE
5
926
100
AcDbEntity
8
1
100
AcDbLine
6
CONTINUOUS
62
5
10
140.350000
20
130.650020
11
140.350000
21
143.650019
0
LINE
5
927
100
AcDbEntity
8
1
100
AcDbLine
6
CONTINUOUS
62
5
10
110.389286
20
133.699991
11
110.389286
21
140.600014
0
LINE
5
928
100
AcDbEntity
8
1
100
AcDbLine
6
CONTINUOUS
62
5
10
104.550002
20
131.800019
11
104.550002
21
142.450020
0
LINE
5
929
100
AcDbEntity
8
1
100
AcDbLine
6
CONTINUOUS
62
5
10
108.350001
20
143.650018
11
108.350001
21
130.650018
0
LINE
5
92a
100
AcDbEntity
8
1
100
AcDbLine
6
CONTINUOUS
62
5
10
108.350001
20
130.650020
11
108.350001
21
143.650019
0
LINE
5
92b
100
AcDbEntity
8
1
100
AcDbLine
6
CONTINUOUS
62
5
10
110.300001
20
130.650018
11
110.300001
21
143.650018
0
LINE
5
92c
100
AcDbEntity
8
1
100
AcDbLine
6
CONTINUOUS
62
5
10
110.300001
20
130.650020
11
110.300001
21
143.650019
0
CIRCLE
5
92d
100
AcDbEntity
8
1
100
AcDbCircle
6
CONTINUOUS
62
5
10
124.350001
20
137.150037
40
3.850000
0
CIRCLE
5
92e
100
AcDbEntity
8
1
100
AcDbCircle
6
CONTINUOUS
62
5
10
124.350001
20
137.150020
40
4.650000
0
CIRCLE
5
92f
100
AcDbEntity
8
1
100
AcDbCircle
6
CONTINUOUS
62
5
10
124.350001
20
137.150020
40
4.850000
0
CIRCLE
5
930
100
AcDbEntity
8
1
100
AcDbCircle
6
CONTINUOUS
62
5
10
124.350001
20
137.150020
40
8.000000
0
LINE
5
931
100
AcDbEntity
8
1
100
AcDbLine
6
CONTINUOUS
62
5
10
144.150000
20
131.800019
11
144.150000
21
142.450020
0
LINE
5
932
100
AcDbEntity
8
1
100
AcDbLine
6
CONTINUOUS
62
5
10
144.150000
20
142.450020
11
144.150000
21
131.850020
0
POLYLINE
5
933
100
AcDbEntity
8
1
6
DOT2
62
5
100
AcDb2dPolyline
66
1
10
0.0
20
0.0
30
0.0
70
0
0
VERTEX
5
934
100
AcDbEntity
8
1
100
AcDbVertex
100
AcDb2dVertex
62
5
10
72.762502
20
164.525002
0
VERTEX
5
935
100
AcDbEntity
8
1
100
AcDbVertex
100
AcDb2dVertex
62
5
10
72.762502
20
164.525002
0
VERTEX
5
936
100
AcDbEntity
8
1
100
AcDbVertex
100
AcDb2dVertex
62
5
10
73.075002
20
163.275002
0
VERTEX
5
937
100
AcDbEntity
8
1
100
AcDbVertex
100
AcDb2dVertex
62
5
10
73.075002
20
162.337502
0
VERTEX
5
938
100
AcDbEntity
8
1
100
AcDbVertex
100
AcDb2dVertex
62
5
10
72.762502
20
161.712502
0
VERTEX
5
939
100
AcDbEntity
8
1
100
AcDbVertex
100
AcDb2dVertex
62
5
10
71.825002
20
161.400002
0
VERTEX
5
93a
100
AcDbEntity
8
1
100
AcDbVertex
100
AcDb2dVertex
62
5
10
70.262502
20
161.400002
0
VERTEX
5
93b
100
AcDbEntity
8
1
100
AcDbVertex
100
AcDb2dVertex
62
5
10
69.325002
20
161.712502
0
VERTEX
5
93c
100
AcDbEntity
8
1
100
AcDbVertex
100
AcDb2dVertex
62
5
10
69.012502
20
162.025002
0
VERTEX
5
93d
100
AcDbEntity
8
1
100
AcDbVertex
100
AcDb2dVertex
62
5
10
68.700002
20
162.650002
0
VERTEX
5
93e
100
AcDbEntity
8
1
100
AcDbVertex
100
AcDb2dVertex
62
5
10
68.700002
20
163.275002
0
VERTEX
5
93f
100
AcDbEntity
8
1
100
AcDbVertex
100
AcDb2dVertex
62
5
10
69.012502
20
163.900002
0
VERTEX
5
940
100
AcDbEntity
8
1
100
AcDbVertex
100
AcDb2dVertex
62
5
10
69.325002
20
164.212502
0
VERTEX
5
941
100
AcDbEntity
8
1
100
AcDbVertex
100
AcDb2dVertex
62
5
10
70.262502
20
164.525002
0
VERTEX
5
942
100
AcDbEntity
8
1
100
AcDbVertex
100
AcDb2dVertex
62
5
10
73.700002
20
164.525002
0
VERTEX
5
943
100
AcDbEntity
8
1
100
AcDbVertex
100
AcDb2dVertex
62
5
10
75.262502
20
164.212502
0
VERTEX
5
944
100
AcDbEntity
8
1
100
AcDbVertex
100
AcDb2dVertex
62
5
10
75.887502
20
163.587502
0
VERTEX
5
945
100
AcDbEntity
8
1
100
AcDbVertex
100
AcDb2dVertex
62
5
10
76.200002
20
162.650002
0
VERTEX
5
946
100
AcDbEntity
8
1
100
AcDbVertex
100
AcDb2dVertex
62
5
10
76.200002
20
162.025002
0
SEQEND
5
947
100
AcDbEntity
8
1
0
POLYLINE
5
948
100
AcDbEntity
8
1
6
DOT2
62
5
100
AcDb2dPolyline
66
1
10
0.0
20
0.0
30
0.0
70
0
0
VERTEX
5
949
100
AcDbEntity
8
1
100
AcDbVertex
100
AcDb2dVertex
62
5
10
68.700002
20
158.900002
0
VERTEX
5
94a
100
AcDbEntity
8
1
100
AcDbVertex
100
AcDb2dVertex
62
5
10
68.700002
20
157.962502
0
VERTEX
5
94b
100
AcDbEntity
8
1
100
AcDbVertex
100
AcDb2dVertex
62
5
10
69.012502
20
157.025002
0
VERTEX
5
94c
100
AcDbEntity
8
1
100
AcDbVertex
100
AcDb2dVertex
62
5
10
70.262502
20
156.400002
0
VERTEX
5
94d
100
AcDbEntity
8
1
100
AcDbVertex
100
AcDb2dVertex
62
5
10
74.637502
20
156.400002
0
VERTEX
5
94e
100
AcDbEntity
8
1
100
AcDbVertex
100
AcDb2dVertex
62
5
10
75.575002
20
156.712502
0
VERTEX
5
94f
100
AcDbEntity
8
1
100
AcDbVertex
100
AcDb2dVertex
62
5
10
75.887502
20
157.025002
0
VERTEX
5
950
100
AcDbEntity
8
1
100
AcDbVertex
100
AcDb2dVertex
62
5
10
76.200002
20
157.650002
0
VERTEX
5
951
100
AcDbEntity
8
1
100
AcDbVertex
100
AcDb2dVertex
62
5
10
76.200002
20
158.275002
0
VERTEX
5
952
100
AcDbEntity
8
1
100
AcDbVertex
100
AcDb2dVertex
62
5
10
75.887502
20
158.900002
0
VERTEX
5
953
100
AcDbEntity
8
1
100
AcDbVertex
100
AcDb2dVertex
62
5
10
75.575002
20
159.212502
0
VERTEX
5
954
100
AcDbEntity
8
1
100
AcDbVertex
100
AcDb2dVertex
62
5
10
74.637502
20
159.525002
0
VERTEX
5
955
100
AcDbEntity
8
1
100
AcDbVertex
100
AcDb2dVertex
62
5
10
72.762502
20
159.525002
0
VERTEX
5
956
100
AcDbEntity
8
1
100
AcDbVertex
100
AcDb2dVertex
62
5
10
72.137502
20
159.212502
0
VERTEX
5
957
100
AcDbEntity
8
1
100
AcDbVertex
100
AcDb2dVertex
62
5
10
71.825002
20
158.587502
0
VERTEX
5
958
100
AcDbEntity
8
1
100
AcDbVertex
100
AcDb2dVertex
62
5
10
71.825002
20
157.337502
0
VERTEX
5
959
100
AcDbEntity
8
1
100
AcDbVertex
100
AcDb2dVertex
62
5
10
72.137502
20
156.400002
0
SEQEND
5
95a
100
AcDbEntity
8
1
0
LINE
5
95b
100
AcDbEntity
8
1
100
AcDbLine
6
CONTINUOUS
62
5
10
109.349944
20
194.500000
11
75.450002
21
194.500000
0
LINE
5
95c
100
AcDbEntity
8
1
100
AcDbLine
6
CONTINUOUS
62
5
10
109.349944
20
125.800003
11
75.450002
21
125.800003
0
POLYLINE
5
95d
100
AcDbEntity
8
1
6
CONTINUOUS
62
5
100
AcDb2dPolyline
66
1
10
0.0
20
0.0
30
0.0
70
0
0
VERTEX
5
95e
100
AcDbEntity
8
1
100
AcDbVertex
100
AcDb2dVertex
62
5
10
77.450002
20
160.150002
0
VERTEX
5
95f
100
AcDbEntity
8
1
100
AcDbVertex
100
AcDb2dVertex
62
5
10
77.450002
20
125.800003
0
VERTEX
5
960
100
AcDbEntity
8
1
100
AcDbVertex
100
AcDb2dVertex
62
5
10
76.450002
20
131.800003
0
VERTEX
5
961
100
AcDbEntity
8
1
100
AcDbVertex
100
AcDb2dVertex
62
5
10
78.450002
20
131.800003
0
VERTEX
5
962
100
AcDbEntity
8
1
100
AcDbVertex
100
AcDb2dVertex
62
5
10
77.450002
20
125.800003
0
VERTEX
5
963
100
AcDbEntity
8
1
100
AcDbVertex
100
AcDb2dVertex
62
5
10
76.950002
20
131.800003
0
VERTEX
5
964
100
AcDbEntity
8
1
100
AcDbVertex
100
AcDb2dVertex
62
5
10
77.950002
20
131.800003
0
VERTEX
5
965
100
AcDbEntity
8
1
100
AcDbVertex
100
AcDb2dVertex
62
5
10
77.450002
20
125.800003
0
SEQEND
5
966
100
AcDbEntity
8
1
0
POLYLINE
5
967
100
AcDbEntity
8
1
6
CONTINUOUS
62
5
100
AcDb2dPolyline
66
1
10
0.0
20
0.0
30
0.0
70
0
0
VERTEX
5
968
100
AcDbEntity
8
1
100
AcDbVertex
100
AcDb2dVertex
62
5
10
77.450002
20
160.150002
0
VERTEX
5
969
100
AcDbEntity
8
1
100
AcDbVertex
100
AcDb2dVertex
62
5
10
77.450002
20
194.500000
0
VERTEX
5
96a
100
AcDbEntity
8
1
100
AcDbVertex
100
AcDb2dVertex
62
5
10
78.450002
20
188.500000
0
VERTEX
5
96b
100
AcDbEntity
8
1
100
AcDbVertex
100
AcDb2dVertex
62
5
10
76.450002
20
188.500000
0
VERTEX
5
96c
100
AcDbEntity
8
1
100
AcDbVertex
100
AcDb2dVertex
62
5
10
77.450002
20
194.500000
0
VERTEX
5
96d
100
AcDbEntity
8
1
100
AcDbVertex
100
AcDb2dVertex
62
5
10
77.950002
20
188.500000
0
VERTEX
5
96e
100
AcDbEntity
8
1
100
AcDbVertex
100
AcDb2dVertex
62
5
10
76.950002
20
188.500000
0
VERTEX
5
96f
100
AcDbEntity
8
1
100
AcDbVertex
100
AcDb2dVertex
62
5
10
77.450002
20
194.500000
0
SEQEND
5
970
100
AcDbEntity
8
1
0
LINE
5
971
100
AcDbEntity
8
1
100
AcDbLine
6
CONTINUOUS
62
5
10
237.549998
20
179.630956
11
237.749998
21
179.630956
0
POLYLINE
5
972
100
AcDbEntity
8
1
6
CONTINUOUS
62
5
100
AcDb2dPolyline
66
1
10
0.0
20
0.0
30
0.0
70
0
0
VERTEX
5
973
100
AcDbEntity
8
1
100
AcDbVertex
100
AcDb2dVertex
62
5
10
237.549998
20
175.897360
0
VERTEX
5
974
100
AcDbEntity
8
1
100
AcDbVertex
100
AcDb2dVertex
62
5
10
237.749998
20
175.897360
0
VERTEX
5
975
100
AcDbEntity
8
1
100
AcDbVertex
100
AcDb2dVertex
62
5
10
237.749998
20
180.141717
0
VERTEX
5
976
100
AcDbEntity
8
1
100
AcDbVertex
100
AcDb2dVertex
62
5
10
237.549998
20
180.141717
0
SEQEND
5
977
100
AcDbEntity
8
1
0
LINE
5
978
100
AcDbEntity
8
1
100
AcDbLine
6
CONTINUOUS
62
5
10
209.550000
20
179.650018
11
209.549999
21
179.650018
0
LINE
5
979
100
AcDbEntity
8
1
100
AcDbLine
6
CONTINUOUS
62
5
10
209.549999
20
179.650018
11
209.550000
21
179.650018
0
LINE
5
97a
100
AcDbEntity
8
1
100
AcDbLine
6
CONTINUOUS
62
5
10
208.449999
20
186.457161
11
208.449999
21
179.842875
0
POLYLINE
5
97b
100
AcDbEntity
8
1
6
CONTINUOUS
62
5
100
AcDb2dPolyline
66
1
10
0.0
20
0.0
30
0.0
70
0
0
VERTEX
5
97c
100
AcDbEntity
8
1
100
AcDbVertex
100
AcDb2dVertex
62
5
10
209.549999
20
179.650035
0
VERTEX
5
97d
100
AcDbEntity
8
1
100
AcDbVertex
100
AcDb2dVertex
62
5
10
208.049999
20
179.650035
0
VERTEX
5
97e
100
AcDbEntity
8
1
100
AcDbVertex
100
AcDb2dVertex
62
5
10
208.049999
20
186.650034
0
VERTEX
5
97f
100
AcDbEntity
8
1
100
AcDbVertex
100
AcDb2dVertex
62
5
10
209.550000
20
186.650035
0
SEQEND
5
980
100
AcDbEntity
8
1
0
POLYLINE
5
981
100
AcDbEntity
8
1
6
CONTINUOUS
62
5
100
AcDb2dPolyline
66
1
10
0.0
20
0.0
30
0.0
70
0
0
VERTEX
5
982
100
AcDbEntity
8
1
100
AcDbVertex
100
AcDb2dVertex
62
5
10
208.049999
20
186.600018
0
VERTEX
5
983
100
AcDbEntity
8
1
100
AcDbVertex
100
AcDb2dVertex
62
5
10
209.449999
20
186.100017
0
VERTEX
5
984
100
AcDbEntity
8
1
100
AcDbVertex
100
AcDb2dVertex
62
5
10
209.449999
20
180.200018
0
VERTEX
5
985
100
AcDbEntity
8
1
100
AcDbVertex
100
AcDb2dVertex
62
5
10
208.050000
20
179.700017
0
SEQEND
5
986
100
AcDbEntity
8
1
0
ARC
5
987
100
AcDbEntity
8
1
100
AcDbCircle
6
CONTINUOUS
62
5
10
237.049998
20
173.400020
40
0.500000
100
AcDbArc
50
-89.999999
51
0.000000
0
LINE
5
988
100
AcDbEntity
8
1
100
AcDbLine
6
CONTINUOUS
62
5
10
237.549998
20
173.400020
11
237.549998
21
189.400017
0
ARC
5
989
100
AcDbEntity
8
1
100
AcDbCircle
6
CONTINUOUS
62
5
10
237.449998
20
189.400017
40
0.100000
100
AcDbArc
50
0.000000
51
89.999999
0
POLYLINE
5
98a
100
AcDbEntity
8
1
6
CONTINUOUS
62
5
100
AcDb2dPolyline
66
1
10
0.0
20
0.0
30
0.0
70
0
0
VERTEX
5
98b
100
AcDbEntity
8
1
100
AcDbVertex
100
AcDb2dVertex
62
5
10
237.449998
20
189.500017
0
VERTEX
5
98c
100
AcDbEntity
8
1
100
AcDbVertex
100
AcDb2dVertex
62
5
10
237.449998
20
189.500017
0
VERTEX
5
98d
100
AcDbEntity
8
1
100
AcDbVertex
100
AcDb2dVertex
62
5
10
237.435101
20
189.699457
0
VERTEX
5
98e
100
AcDbEntity
8
1
100
AcDbVertex
100
AcDb2dVertex
62
5
10
237.434915
20
189.701188
0
VERTEX
5
98f
100
AcDbEntity
8
1
100
AcDbVertex
100
AcDb2dVertex
62
5
10
237.434717
20
189.703016
0
VERTEX
5
990
100
AcDbEntity
8
1
100
AcDbVertex
100
AcDb2dVertex
62
5
10
237.434513
20
189.704916
0
VERTEX
5
991
100
AcDbEntity
8
1
100
AcDbVertex
100
AcDb2dVertex
62
5
10
237.433812
20
189.711391
0
VERTEX
5
992
100
AcDbEntity
8
1
100
AcDbVertex
100
AcDb2dVertex
62
5
10
237.433049
20
189.718331
0
VERTEX
5
993
100
AcDbEntity
8
1
100
AcDbVertex
100
AcDb2dVertex
62
5
10
237.432215
20
189.725676
0
VERTEX
5
994
100
AcDbEntity
8
1
100
AcDbVertex
100
AcDb2dVertex
62
5
10
237.431304
20
189.733365
0
VERTEX
5
995
100
AcDbEntity
8
1
100
AcDbVertex
100
AcDb2dVertex
62
5
10
237.430309
20
189.741339
0
VERTEX
5
996
100
AcDbEntity
8
1
100
AcDbVertex
100
AcDb2dVertex
62
5
10
237.429224
20
189.749539
0
VERTEX
5
997
100
AcDbEntity
8
1
100
AcDbVertex
100
AcDb2dVertex
62
5
10
237.428042
20
189.757903
0
VERTEX
5
998
100
AcDbEntity
8
1
100
AcDbVertex
100
AcDb2dVertex
62
5
10
237.426755
20
189.766372
0
VERTEX
5
999
100
AcDbEntity
8
1
100
AcDbVertex
100
AcDb2dVertex
62
5
10
237.425357
20
189.774887
0
VERTEX
5
99a
100
AcDbEntity
8
1
100
AcDbVertex
100
AcDb2dVertex
62
5
10
237.423841
20
189.783387
0
VERTEX
5
99b
100
AcDbEntity
8
1
100
AcDbVertex
100
AcDb2dVertex
62
5
10
237.422201
20
189.791812
0
VERTEX
5
99c
100
AcDbEntity
8
1
100
AcDbVertex
100
AcDb2dVertex
62
5
10
237.420131
20
189.801441
0
VERTEX
5
99d
100
AcDbEntity
8
1
100
AcDbVertex
100
AcDb2dVertex
62
5
10
237.417878
20
189.810896
0
VERTEX
5
99e
100
AcDbEntity
8
1
100
AcDbVertex
100
AcDb2dVertex
62
5
10
237.415435
20
189.820185
0
VERTEX
5
99f
100
AcDbEntity
8
1
100
AcDbVertex
100
AcDb2dVertex
62
5
10
237.412796
20
189.829313
0
VERTEX
5
9a0
100
AcDbEntity
8
1
100
AcDbVertex
100
AcDb2dVertex
62
5
10
237.409955
20
189.838290
0
VERTEX
5
9a1
100
AcDbEntity
8
1
100
AcDbVertex
100
AcDb2dVertex
62
5
10
237.406906
20
189.847122
0
VERTEX
5
9a2
100
AcDbEntity
8
1
100
AcDbVertex
100
AcDb2dVertex
62
5
10
237.403642
20
189.855817
0
VERTEX
5
9a3
100
AcDbEntity
8
1
100
AcDbVertex
100
AcDb2dVertex
62
5
10
237.401352
20
189.861444
0
VERTEX
5
9a4
100
AcDbEntity
8
1
100
AcDbVertex
100
AcDb2dVertex
62
5
10
237.396445
20
189.872825
0
VERTEX
5
9a5
100
AcDbEntity
8
1
100
AcDbVertex
100
AcDb2dVertex
62
5
10
237.392499
20
189.881152
0
VERTEX
5
9a6
100
AcDbEntity
8
1
100
AcDbVertex
100
AcDb2dVertex
62
5
10
237.388314
20
189.889371
0
VERTEX
5
9a7
100
AcDbEntity
8
1
100
AcDbVertex
100
AcDb2dVertex
62
5
10
237.383907
20
189.897447
0
VERTEX
5
9a8
100
AcDbEntity
8
1
100
AcDbVertex
100
AcDb2dVertex
62
5
10
237.379252
20
189.905405
0
VERTEX
5
9a9
100
AcDbEntity
8
1
100
AcDbVertex
100
AcDb2dVertex
62
5
10
237.374350
20
189.913227
0
VERTEX
5
9aa
100
AcDbEntity
8
1
100
AcDbVertex
100
AcDb2dVertex
62
5
10
237.369195
20
189.920894
0
VERTEX
5
9ab
100
AcDbEntity
8
1
100
AcDbVertex
100
AcDb2dVertex
62
5
10
237.363786
20
189.928390
0
VERTEX
5
9ac
100
AcDbEntity
8
1
100
AcDbVertex
100
AcDb2dVertex
62
5
10
237.358119
20
189.935694
0
VERTEX
5
9ad
100
AcDbEntity
8
1
100
AcDbVertex
100
AcDb2dVertex
62
5
10
237.352192
20
189.942790
0
VERTEX
5
9ae
100
AcDbEntity
8
1
100
AcDbVertex
100
AcDb2dVertex
62
5
10
237.346003
20
189.949658
0
VERTEX
5
9af
100
AcDbEntity
8
1
100
AcDbVertex
100
AcDb2dVertex
62
5
10
237.339548
20
189.956281
0
VERTEX
5
9b0
100
AcDbEntity
8
1
100
AcDbVertex
100
AcDb2dVertex
62
5
10
237.332824
20
189.962641
0
VERTEX
5
9b1
100
AcDbEntity
8
1
100
AcDbVertex
100
AcDb2dVertex
62
5
10
237.325829
20
189.968718
0
VERTEX
5
9b2
100
AcDbEntity
8
1
100
AcDbVertex
100
AcDb2dVertex
62
5
10
237.320280
20
189.973174
0
VERTEX
5
9b3
100
AcDbEntity
8
1
100
AcDbVertex
100
AcDb2dVertex
62
5
10
237.314590
20
189.977416
0
VERTEX
5
9b4
100
AcDbEntity
8
1
100
AcDbVertex
100
AcDb2dVertex
62
5
10
237.308780
20
189.981407
0
VERTEX
5
9b5
100
AcDbEntity
8
1
100
AcDbVertex
100
AcDb2dVertex
62
5
10
237.302870
20
189.985112
0
VERTEX
5
9b6
100
AcDbEntity
8
1
100
AcDbVertex
100
AcDb2dVertex
62
5
10
237.296880
20
189.988492
0
VERTEX
5
9b7
100
AcDbEntity
8
1
100
AcDbVertex
100
AcDb2dVertex
62
5
10
237.290832
20
189.991510
0
VERTEX
5
9b8
100
AcDbEntity
8
1
100
AcDbVertex
100
AcDb2dVertex
62
5
10
237.284746
20
189.994131
0
VERTEX
5
9b9
100
AcDbEntity
8
1
100
AcDbVertex
100
AcDb2dVertex
62
5
10
237.278643
20
189.996317
0
VERTEX
5
9ba
100
AcDbEntity
8
1
100
AcDbVertex
100
AcDb2dVertex
62
5
10
237.272542
20
189.998031
0
VERTEX
5
9bb
100
AcDbEntity
8
1
100
AcDbVertex
100
AcDb2dVertex
62
5
10
237.266464
20
189.999236
0
VERTEX
5
9bc
100
AcDbEntity
8
1
100
AcDbVertex
100
AcDb2dVertex
62
5
10
237.260431
20
189.999896
0
VERTEX
5
9bd
100
AcDbEntity
8
1
100
AcDbVertex
100
AcDb2dVertex
62
5
10
237.257748
20
190.000008
0
VERTEX
5
9be
100
AcDbEntity
8
1
100
AcDbVertex
100
AcDb2dVertex
62
5
10
234.457104
20
190.000017
0
VERTEX
5
9bf
100
AcDbEntity
8
1
100
AcDbVertex
100
AcDb2dVertex
62
5
10
234.103568
20
189.853586
0
VERTEX
5
9c0
100
AcDbEntity
8
1
100
AcDbVertex
100
AcDb2dVertex
62
5
10
233.837866
20
189.587885
0
VERTEX
5
9c1
100
AcDbEntity
8
1
100
AcDbVertex
100
AcDb2dVertex
62
5
10
233.625740
20
189.500017
0
VERTEX
5
9c2
100
AcDbEntity
8
1
100
AcDbVertex
100
AcDb2dVertex
62
5
10
215.656276
20
189.500017
0
SEQEND
5
9c3
100
AcDbEntity
8
1
0
ARC
5
9c4
100
AcDbEntity
8
1
100
AcDbCircle
6
CONTINUOUS
62
5
10
215.656276
20
190.500017
40
1.000000
100
AcDbArc
50
-156.551933
51
-89.999999
0
LINE
5
9c5
100
AcDbEntity
8
1
100
AcDbLine
6
CONTINUOUS
62
5
10
214.738855
20
190.102100
11
213.278342
21
193.469391
0
ARC
5
9c6
100
AcDbEntity
8
1
100
AcDbCircle
6
CONTINUOUS
62
5
10
213.003116
20
193.350016
40
0.300000
100
AcDbArc
50
23.448065
51
89.999999
0
LINE
5
9c7
100
AcDbEntity
8
1
100
AcDbLine
6
CONTINUOUS
62
5
10
213.003116
20
193.650016
11
211.449999
21
193.650017
0
LINE
5
9c8
100
AcDbEntity
8
1
100
AcDbLine
6
CONTINUOUS
62
5
10
209.549999
20
172.900020
11
237.049998
21
172.900020
0
ARC
5
9c9
100
AcDbEntity
8
1
100
AcDbCircle
6
CONTINUOUS
62
5
10
211.449999
20
193.550017
40
0.100000
100
AcDbArc
50
-0.000001
51
89.999999
0
LINE
5
9ca
100
AcDbEntity
8
1
100
AcDbLine
6
CONTINUOUS
62
5
10
211.449999
20
193.650017
11
209.550000
21
193.650017
0
POLYLINE
5
9cb
100
AcDbEntity
8
1
6
CONTINUOUS
62
5
100
AcDb2dPolyline
66
1
10
0.0
20
0.0
30
0.0
70
0
0
VERTEX
5
9cc
100
AcDbEntity
8
1
100
AcDbVertex
100
AcDb2dVertex
62
5
10
210.149982
20
171.150018
0
VERTEX
5
9cd
100
AcDbEntity
8
1
100
AcDbVertex
100
AcDb2dVertex
62
5
10
211.549999
20
171.150018
0
VERTEX
5
9ce
100
AcDbEntity
8
1
100
AcDbVertex
100
AcDb2dVertex
62
5
10
211.549999
20
193.550017
0
SEQEND
5
9cf
100
AcDbEntity
8
1
0
ARC
5
9d0
100
AcDbEntity
8
1
100
AcDbCircle
6
CONTINUOUS
62
5
10
203.500000
20
179.211254
40
0.250000
100
AcDbArc
50
92.999992
51
-179.999998
0
LINE
5
9d1
100
AcDbEntity
8
1
100
AcDbLine
6
CONTINUOUS
62
5
10
203.250000
20
179.211254
11
203.250000
21
179.188851
0
ARC
5
9d2
100
AcDbEntity
8
1
100
AcDbCircle
6
CONTINUOUS
62
5
10
203.500000
20
179.188851
40
0.250000
100
AcDbArc
50
179.999998
51
-93.000006
0
LINE
5
9d3
100
AcDbEntity
8
1
100
AcDbLine
6
CONTINUOUS
62
5
10
203.486916
20
178.939194
11
206.549999
21
178.778630
0
LINE
5
9d4
100
AcDbEntity
8
1
100
AcDbLine
6
CONTINUOUS
62
5
10
206.549999
20
179.621406
11
203.486916
21
179.460911
0
ARC
5
9d5
100
AcDbEntity
8
1
100
AcDbCircle
6
CONTINUOUS
62
5
10
207.050000
20
176.650036
40
0.500000
100
AcDbArc
50
179.999998
51
-89.999999
0
LINE
5
9d6
100
AcDbEntity
8
1
100
AcDbLine
6
CONTINUOUS
62
5
10
207.050000
20
176.150036
11
209.549999
21
176.150036
0
LINE
5
9d7
100
AcDbEntity
8
1
100
AcDbLine
6
CONTINUOUS
62
5
10
209.549999
20
190.150034
11
207.050000
21
190.150034
0
ARC
5
9d8
100
AcDbEntity
8
1
100
AcDbCircle
6
CONTINUOUS
62
5
10
207.050000
20
189.650034
40
0.500000
100
AcDbArc
50
89.999999
51
179.999998
0
LINE
5
9d9
100
AcDbEntity
8
1
100
AcDbLine
6
CONTINUOUS
62
5
10
206.550000
20
189.650034
11
206.550000
21
176.650036
0
ARC
5
9da
100
AcDbEntity
8
1
100
AcDbCircle
6
CONTINUOUS
62
5
10
202.050000
20
193.869026
40
0.500000
100
AcDbArc
50
90.999888
51
179.999998
0
POLYLINE
5
9db
100
AcDbEntity
8
1
6
CONTINUOUS
62
5
100
AcDb2dPolyline
66
1
10
0.0
20
0.0
30
0.0
70
0
0
VERTEX
5
9dc
100
AcDbEntity
8
1
100
AcDbVertex
100
AcDb2dVertex
62
5
10
202.041274
20
194.368950
0
VERTEX
5
9dd
100
AcDbEntity
8
1
100
AcDbVertex
100
AcDb2dVertex
62
5
10
209.550000
20
194.500000
0
VERTEX
5
9de
100
AcDbEntity
8
1
100
AcDbVertex
100
AcDb2dVertex
62
5
10
209.549999
20
172.578428
0
SEQEND
5
9df
100
AcDbEntity
8
1
0
ARC
5
9e0
100
AcDbEntity
8
1
100
AcDbCircle
6
CONTINUOUS
62
5
10
211.550001
20
172.578429
40
2.000002
100
AcDbArc
50
-179.999961
51
-135.000014
0
LINE
5
9e1
100
AcDbEntity
8
1
100
AcDbLine
6
CONTINUOUS
62
5
10
210.135786
20
171.164215
11
210.964213
21
170.335788
0
ARC
5
9e2
100
AcDbEntity
8
1
100
AcDbCircle
6
CONTINUOUS
62
5
10
209.549998
20
168.921574
40
2.000001
100
AcDbArc
50
0.000007
51
44.999980
0
LINE
5
9e3
100
AcDbEntity
8
1
100
AcDbLine
6
CONTINUOUS
62
5
10
211.549999
20
168.921574
11
211.550000
21
151.358747
0
ARC
5
9e4
100
AcDbEntity
8
1
100
AcDbCircle
6
CONTINUOUS
62
5
10
209.549657
20
151.378712
40
2.000442
100
AcDbArc
50
-44.998797
51
-0.571845
0
LINE
5
9e5
100
AcDbEntity
8
1
100
AcDbLine
6
CONTINUOUS
62
5
10
210.964213
20
149.964215
11
210.135786
21
149.135788
0
ARC
5
9e6
100
AcDbEntity
8
1
100
AcDbCircle
6
CONTINUOUS
62
5
10
211.549999
20
147.721574
40
2.000000
100
AcDbArc
50
134.999991
51
179.999977
0
POLYLINE
5
9e7
100
AcDbEntity
8
1
6
CONTINUOUS
62
5
100
AcDb2dPolyline
66
1
10
0.0
20
0.0
30
0.0
70
0
0
VERTEX
5
9e8
100
AcDbEntity
8
1
100
AcDbVertex
100
AcDb2dVertex
62
5
10
209.549999
20
147.721575
0
VERTEX
5
9e9
100
AcDbEntity
8
1
100
AcDbVertex
100
AcDb2dVertex
62
5
10
209.550000
20
125.800020
0
VERTEX
5
9ea
100
AcDbEntity
8
1
100
AcDbVertex
100
AcDb2dVertex
62
5
10
202.041273
20
125.931085
0
SEQEND
5
9eb
100
AcDbEntity
8
1
0
ARC
5
9ec
100
AcDbEntity
8
1
100
AcDbCircle
6
CONTINUOUS
62
5
10
202.050000
20
126.431009
40
0.500000
100
AcDbArc
50
179.999998
51
-90.999999
0
LINE
5
9ed
100
AcDbEntity
8
1
100
AcDbLine
6
CONTINUOUS
62
5
10
201.550000
20
126.431009
11
201.550000
21
193.869026
0
LINE
5
9ee
100
AcDbEntity
8
1
100
AcDbLine
6
CONTINUOUS
62
5
10
138.310721
20
179.700000
11
138.400000
21
179.700000
0
LINE
5
9ef
100
AcDbEntity
8
1
100
AcDbLine
6
CONTINUOUS
62
5
10
138.400000
20
179.700018
11
138.310721
21
179.700018
0
LINE
5
9f0
100
AcDbEntity
8
1
100
AcDbLine
6
CONTINUOUS
62
5
10
138.197084
20
179.472569
11
138.310721
21
179.700000
0
LINE
5
9f1
100
AcDbEntity
8
1
100
AcDbLine
6
CONTINUOUS
62
5
10
144.150000
20
188.526812
11
144.150000
21
177.850018
0
LINE
5
9f2
100
AcDbEntity
8
1
100
AcDbLine
6
CONTINUOUS
62
5
10
138.310721
20
186.600001
11
138.310721
21
179.700000
0
LINE
5
9f3
100
AcDbEntity
8
1
100
AcDbLine
6
CONTINUOUS
62
5
10
140.350001
20
189.650017
11
140.350001
21
176.650018
0
LINE
5
9f4
100
AcDbEntity
8
1
100
AcDbLine
6
CONTINUOUS
62
5
10
138.400000
20
176.650018
11
138.400000
21
189.650017
0
LINE
5
9f5
100
AcDbEntity
8
1
100
AcDbLine
6
CONTINUOUS
62
5
10
110.389286
20
179.699989
11
110.502917
21
179.472569
0
LINE
5
9f6
100
AcDbEntity
8
1
100
AcDbLine
6
CONTINUOUS
62
5
10
110.389286
20
186.600012
11
110.389286
21
179.699989
0
LINE
5
9f7
100
AcDbEntity
8
1
100
AcDbLine
6
CONTINUOUS
62
5
10
104.550002
20
188.526812
11
104.550002
21
177.850018
0
LINE
5
9f8
100
AcDbEntity
8
1
100
AcDbLine
6
CONTINUOUS
62
5
10
108.350001
20
189.650017
11
108.350001
21
176.650018
0
LINE
5
9f9
100
AcDbEntity
8
1
100
AcDbLine
6
CONTINUOUS
62
5
10
110.300001
20
179.699991
11
110.389286
21
179.699989
0
LINE
5
9fa
100
AcDbEntity
8
1
100
AcDbLine
6
CONTINUOUS
62
5
10
110.300001
20
176.650018
11
110.300001
21
189.650017
0
CIRCLE
5
9fb
100
AcDbEntity
8
1
100
AcDbCircle
6
CONTINUOUS
62
5
10
124.350001
20
183.150018
40
3.850000
0
CIRCLE
5
9fc
100
AcDbEntity
8
1
100
AcDbCircle
6
CONTINUOUS
62
5
10
124.350001
20
183.150018
40
4.650000
0
CIRCLE
5
9fd
100
AcDbEntity
8
1
100
AcDbCircle
6
CONTINUOUS
62
5
10
124.350001
20
183.150001
40
4.850000
0
CIRCLE
5
9fe
100
AcDbEntity
8
1
100
AcDbCircle
6
CONTINUOUS
62
5
10
124.350001
20
183.150018
40
8.000000
0
POLYLINE
5
9ff
100
AcDbEntity
8
1
6
CONTINUOUS
62
5
100
AcDb2dPolyline
66
1
10
0.0
20
0.0
30
0.0
70
1
0
VERTEX
5
a00
100
AcDbEntity
8
1
100
AcDbVertex
100
AcDb2dVertex
62
5
10
330.000000
20
350.000000
0
VERTEX
5
a01
100
AcDbEntity
8
1
100
AcDbVertex
100
AcDb2dVertex
62
5
10
10.000000
20
350.000000
0
VERTEX
5
a02
100
AcDbEntity
8
1
100
AcDbVertex
100
AcDb2dVertex
62
5
10
10.000000
20
10.000000
0
VERTEX
5
a03
100
AcDbEntity
8
1
100
AcDbVertex
100
AcDb2dVertex
62
5
10
330.000000
20
10.000000
0
SEQEND
5
a04
100
AcDbEntity
8
1
0
POLYLINE
5
a05
100
AcDbEntity
8
1
6
DOT2
62
5
100
AcDb2dPolyline
66
1
10
0.0
20
0.0
30
0.0
70
0
0
VERTEX
5
a06
100
AcDbEntity
8
1
100
AcDbVertex
100
AcDb2dVertex
62
5
10
340.000000
20
10.000000
0
VERTEX
5
a07
100
AcDbEntity
8
1
100
AcDbVertex
100
AcDb2dVertex
62
5
10
340.000000
20
0.000000
0
VERTEX
5
a08
100
AcDbEntity
8
1
100
AcDbVertex
100
AcDb2dVertex
62
5
10
330.000000
20
0.000000
0
SEQEND
5
a09
100
AcDbEntity
8
1
0
POLYLINE
5
a0a
100
AcDbEntity
8
1
6
DOT2
62
5
100
AcDb2dPolyline
66
1
10
0.0
20
0.0
30
0.0
70
0
0
VERTEX
5
a0b
100
AcDbEntity
8
1
100
AcDbVertex
100
AcDb2dVertex
62
5
10
10.000000
20
0.000000
0
VERTEX
5
a0c
100
AcDbEntity
8
1
100
AcDbVertex
100
AcDb2dVertex
62
5
10
0.000000
20
0.000000
0
VERTEX
5
a0d
100
AcDbEntity
8
1
100
AcDbVertex
100
AcDb2dVertex
62
5
10
0.000000
20
10.000000
0
SEQEND
5
a0e
100
AcDbEntity
8
1
0
POLYLINE
5
a0f
100
AcDbEntity
8
1
6
DOT2
62
5
100
AcDb2dPolyline
66
1
10
0.0
20
0.0
30
0.0
70
0
0
VERTEX
5
a10
100
AcDbEntity
8
1
100
AcDbVertex
100
AcDb2dVertex
62
5
10
0.000000
20
350.000000
0
VERTEX
5
a11
100
AcDbEntity
8
1
100
AcDbVertex
100
AcDb2dVertex
62
5
10
0.000000
20
360.000000
0
VERTEX
5
a12
100
AcDbEntity
8
1
100
AcDbVertex
100
AcDb2dVertex
62
5
10
10.000000
20
360.000000
0
SEQEND
5
a13
100
AcDbEntity
8
1
0
POLYLINE
5
a14
100
AcDbEntity
8
1
6
DOT2
62
5
100
AcDb2dPolyline
66
1
10
0.0
20
0.0
30
0.0
70
0
0
VERTEX
5
a15
100
AcDbEntity
8
1
100
AcDbVertex
100
AcDb2dVertex
62
5
10
330.000000
20
360.000000
0
VERTEX
5
a16
100
AcDbEntity
8
1
100
AcDbVertex
100
AcDb2dVertex
62
5
10
340.000000
20
360.000000
0
VERTEX
5
a17
100
AcDbEntity
8
1
100
AcDbVertex
100
AcDb2dVertex
62
5
10
340.000000
20
350.000000
0
SEQEND
5
a18
100
AcDbEntity
8
1
0
ENDSEC
0
SECTION
2
OBJECTS
0
DICTIONARY
5
a19
100
AcDbDictionary
3
ACAD_GROUP
350
a1a
3
ACAD_MLINESTYLE
350
a1b
0
DICTIONARY
5
a1a
102
{ACAD_REACTORS
330
a19
102
}
100
AcDbDictionary
0
DICTIONARY
5
a1b
102
{ACAD_REACTORS
330
a19
102
}
100
AcDbDictionary
3
STANDARD
350
a1c
0
MLINESTYLE
5
a1c
102
{ACAD_REACTORS
330
a1b
102
}
100
AcDbMlineStyle
2
STANDARD
70
0
3

62
0
51
90.0
52
90.0
71
2
49
0.5
62
256
6
BYLAYER
49
-0.5
62
256
6
BYLAYER
0
ENDSEC
0
EOF
