0
SECTION
2
HEADER
9
$ACADVER
1
AC1012
9
$EXTMIN
10
-0.010000
20
-0.010000
30
0.0
9
$EXTMAX
10
13.390000
20
14.180000
30
0.0
9
$LIMMIN
10
-0.254000
20
-0.254000
9
$LIMMAX
10
340.106000
20
360.172000
9
$DIMSCALE
40
1.000000
9
$PDMODE
70
2
9
$PDSIZE
40
0.0
  9
$HANDSEED
  5
480
0
ENDSEC
0
SECTION
2
CLASSES
0
ENDSEC
0
SECTION
2
TABLES
0
TABLE
2
LTYPE
5
1e
100
AcDbSymbolTable
70
12
0
LTYPE
5
1f
100
AcDbSymbolTableRecord
100
AcDbLinetypeTableRecord
2
BYBLOCK
70
0
3

72
65
73
0
40
0.0
0
LTYPE
5
20
100
AcDbSymbolTableRecord
100
AcDbLinetypeTableRecord
2
BYLAYER
70
0
3

72
65
73
0
40
0.0
0
LTYPE
5
21
100
AcDbSymbolTableRecord
100
AcDbLinetypeTableRecord
2
CONTINUOUS
70
64
3
Solid line
72
65
73
0
40
0.0
0
LTYPE
5
22
100
AcDbSymbolTableRecord
100
AcDbLinetypeTableRecord
2
DASHED
70
64
3
__ __ __ __ __ __ __ __ __ __ __ __ __ __ __
72
65
73
2
40
0.75
49
0.5
74
0
49
-0.25
74
0
0
LTYPE
5
23
100
AcDbSymbolTableRecord
100
AcDbLinetypeTableRecord
2
DOT
70
64
3
...............................................
72
65
73
2
40
0.25
49
0.0
74
0
49
-0.25
74
0
0
LTYPE
5
24
100
AcDbSymbolTableRecord
100
AcDbLinetypeTableRecord
2
DASHDOT
70
64
3
__ . __ . __ . __ . __ . __ . __ . __ . __ . --
72
65
73
4
40
1.0
49
0.5
74
0
49
-0.25
74
0
49
0.0
74
0
49
-0.25
74
0
0
LTYPE
5
25
100
AcDbSymbolTableRecord
100
AcDbLinetypeTableRecord
2
CENTER
70
64
3
____ _ ____ _ ____ _ ____ _ ____ _ ____ _ ____
72
65
73
4
40
2.0
49
1.25
74
0
49
-0.25
74
0
49
0.25
74
0
49
-0.25
74
0
0
LTYPE
5
26
100
AcDbSymbolTableRecord
100
AcDbLinetypeTableRecord
2
PHANTOM
70
64
3
_____ _ _ _____ _ _ _____ _ _ _____ _ _ ____
72
65
73
6
40
2.5
49
1.25
74
0
49
-0.25
74
0
49
0.25
74
0
49
-0.25
74
0
49
0.25
74
0
49
-0.25
74
0
0
LTYPE
5
27
100
AcDbSymbolTableRecord
100
AcDbLinetypeTableRecord
2
HIDDEN
70
64
3
_ _ _ _ _ _ _ _ _ _ _ _ _ _ _ _ _ _ _ _ _ _ _
72
65
73
2
40
0.375
49
0.25
74
0
49
-0.125
74
0
0
LTYPE
5
28
100
AcDbSymbolTableRecord
100
AcDbLinetypeTableRecord
2
BORDER
70
64
3
__ __ . __ __ . __ __ . __ __ . __ __ . __ __
72
65
73
6
40
1.75
49
0.5
74
0
49
-0.25
74
0
49
0.5
74
0
49
-0.25
74
0
49
0.0
74
0
49
-0.25
74
0
0
LTYPE
5
29
100
AcDbSymbolTableRecord
100
AcDbLinetypeTableRecord
2
DIVIDE
70
64
3
__ . . __ . . __ . . __ . . __ . . __ . . __
72
65
73
6
40
1.25
49
0.5
74
0
49
-0.25
74
0
49
0.0
74
0
49
-0.25
74
0
49
0.0
74
0
49
-0.25
74
0
0
LTYPE
5
2a
100
AcDbSymbolTableRecord
100
AcDbLinetypeTableRecord
2
DOT2
70
64
3
...............................................
72
65
73
2
40
0.125
49
0.0
74
0
49
-0.125
74
0
0
ENDTAB
0
TABLE
2
STYLE
5
2b
100
AcDbSymbolTable
70
1
0
STYLE
5
2c
100
AcDbSymbolTableRecord
100
AcDbTextStyleTableRecord
2
STANDARD
70
64
40
0.0
41
1.0
50
0.0
71
0
42
5.0
3
txt
4
bigfont
0
ENDTAB
0
TABLE
2
LAYER
5
2d
100
AcDbSymbolTable
70
3
0
LAYER
5
2e
100
AcDbSymbolTableRecord
100
AcDbLayerTableRecord
2
0
70
0
62
7
6
CONTINUOUS
0
LAYER
5
2f
100
AcDbSymbolTableRecord
100
AcDbLayerTableRecord
2
1
70
0
62
7
6
CONTINUOUS
0
LAYER
5
30
100
AcDbSymbolTableRecord
100
AcDbLayerTableRecord
2
0
70
0
62
7
6
CONTINUOUS
0
ENDTAB
0
TABLE
2
APPID
5
31
100
AcDbSymbolTable
70
1
0
APPID
5
32
100
AcDbSymbolTableRecord
100
AcDbRegAppTableRecord
2
ACAD
70
64
0
ENDTAB
0
TABLE
2
DIMSTYLE
5
33
100
AcDbSymbolTable
70
0
0
ENDTAB
0
TABLE
2
UCS
5
34
100
AcDbSymbolTable
70
0
0
ENDTAB
0
TABLE
2
VIEW
5
35
100
AcDbSymbolTable
70
0
0
ENDTAB
0
TABLE
2
VPORT
5
36
100
AcDbSymbolTable
70
0
0
ENDTAB
0
TABLE
2
BLOCK_RECORD
5
37
100
AcDbSymbolTable
70
0
0
BLOCK_RECORD
5
38
100
AcDbSymbolTableRecord
100
AcDbBlockTableRecord
2
*MODEL_SPACE
0
BLOCK_RECORD
5
39
100
AcDbSymbolTableRecord
100
AcDbBlockTableRecord
2
*PAPER_SPACE
0
BLOCK_RECORD
5
3a
100
AcDbSymbolTableRecord
100
AcDbBlockTableRecord
2
OPEN
0
BLOCK_RECORD
5
3b
100
AcDbSymbolTableRecord
100
AcDbBlockTableRecord
2
HALF
0
BLOCK_RECORD
5
3c
100
AcDbSymbolTableRecord
100
AcDbBlockTableRecord
2
CLOSEDBLANK
0
BLOCK_RECORD
5
3d
100
AcDbSymbolTableRecord
100
AcDbBlockTableRecord
2
HALFCLOSE_R
0
BLOCK_RECORD
5
3e
100
AcDbSymbolTableRecord
100
AcDbBlockTableRecord
2
DOT
0
BLOCK_RECORD
5
3f
100
AcDbSymbolTableRecord
100
AcDbBlockTableRecord
2
HALFOPEN_R
0
BLOCK_RECORD
5
40
100
AcDbSymbolTableRecord
100
AcDbBlockTableRecord
2
CLOSEDF
0
BLOCK_RECORD
5
41
100
AcDbSymbolTableRecord
100
AcDbBlockTableRecord
2
HALF_R
0
ENDTAB
0
ENDSEC
0
SECTION
2
BLOCKS
0
BLOCK
5
42
100
AcDbEntity
8
0
100
AcDbBlockBegin
2
*MODEL_SPACE
70
0
10
0.0
20
0.0
30
0.0
3
*MODEL_SPACE
1

0
ENDBLK
5
43
100
AcDbEntity
8
0
100
AcDbBlockEnd
0
BLOCK
5
44
100
AcDbEntity
67
1
8
0
100
AcDbBlockBegin
2
*PAPER_SPACE
70
0
10
0.0
20
0.0
30
0.0
3
*PAPER_SPACE
1

0
ENDBLK
5
45
100
AcDbEntity
67
1
8
0
100
AcDbBlockEnd
0
BLOCK
5
46
100
AcDbEntity
8
0
100
AcDbBlockBegin
2
OPEN
70
0
10
0.0
20
0.0
30
0.0
3
OPEN
1

0
LINE
5
47
100
AcDbEntity
8
0
6
BYBLOCK
62
0
100
AcDbLine
10
0.000000
20
0.000000
11
-1.000000
21
0.000000
0
LINE
5
48
100
AcDbEntity
8
0
6
BYBLOCK
62
0
100
AcDbLine
10
-1.000000
20
-0.166667
11
0.000000
21
0.000000
0
LINE
5
49
100
AcDbEntity
8
0
6
BYBLOCK
62
0
100
AcDbLine
10
-1.000000
20
0.166667
11
0.000000
21
0.000000
0
ENDBLK
5
4a
100
AcDbEntity
8
0
100
AcDbBlockEnd
0
BLOCK
5
4b
100
AcDbEntity
8
0
100
AcDbBlockBegin
2
HALF
70
0
10
0.0
20
0.0
30
0.0
3
HALF
1

0
SOLID
5
4c
100
AcDbEntity
8
0
6
BYBLOCK
62
0
100
AcDbTrace
10
-1.000000
20
0.166667
11
-1.000000
21
-0.166667
12
0.000000
22
0.000000
13
0.000000
23
0.000000
0
ENDBLK
5
4d
100
AcDbEntity
8
0
100
AcDbBlockEnd
0
BLOCK
5
4e
100
AcDbEntity
8
0
100
AcDbBlockBegin
2
CLOSEDBLANK
70
0
10
0.0
20
0.0
30
0.0
3
CLOSEDBLANK
1

0
LINE
5
4f
100
AcDbEntity
8
0
6
BYBLOCK
62
0
100
AcDbLine
10
-1.000000
20
0.166667
11
-1.000000
21
-0.166667
0
LINE
5
50
100
AcDbEntity
8
0
6
BYBLOCK
62
0
100
AcDbLine
10
0.000000
20
0.000000
11
-1.000000
21
-0.166667
0
LINE
5
51
100
AcDbEntity
8
0
6
BYBLOCK
62
0
100
AcDbLine
10
-1.000000
20
0.166667
11
0.000000
21
0.000000
0
ENDBLK
5
52
100
AcDbEntity
8
0
100
AcDbBlockEnd
0
BLOCK
5
53
100
AcDbEntity
8
0
100
AcDbBlockBegin
2
HALFCLOSE_R
70
0
10
0.0
20
0.0
30
0.0
3
HALFCLOSE_R
1

0
LINE
5
54
100
AcDbEntity
8
0
6
BYBLOCK
62
0
100
AcDbLine
10
-1.000000
20
-0.166667
11
-1.000000
21
0.000000
0
LINE
5
55
100
AcDbEntity
8
0
6
BYBLOCK
62
0
100
AcDbLine
10
-1.000000
20
-0.166667
11
0.000000
21
0.000000
0
LINE
5
56
100
AcDbEntity
8
0
6
BYBLOCK
62
0
100
AcDbLine
10
0.000000
20
0.000000
11
-1.000000
21
0.000000
0
ENDBLK
5
57
100
AcDbEntity
8
0
100
AcDbBlockEnd
0
BLOCK
5
58
100
AcDbEntity
8
0
100
AcDbBlockBegin
2
DOT
70
0
10
0.0
20
0.0
30
0.0
3
DOT
1

0
LINE
5
59
100
AcDbEntity
8
0
6
BYBLOCK
62
0
100
AcDbLine
10
0.000000
20
0.000000
11
-1.000000
21
0.000000
0
POLYLINE
5
5a
100
AcDbEntity
8
0
6
BYBLOCK
62
0
100
AcDb2dPolyline
66
1
10
0.0
20
0.0
30
0.0
70
1
40
0.166667
41
0.166667
0
VERTEX
5
5b
100
AcDbEntity
8
0
100
AcDbVertex
100
AcDb2dVertex
62
10
10
-0.083333
20
0.000000
42
1.000000
0
VERTEX
5
5c
100
AcDbEntity
8
0
100
AcDbVertex
100
AcDb2dVertex
62
10
10
0.083333
20
0.000000
42
1.000000
0
SEQEND
5
5d
100
AcDbEntity
8
0
0
ENDBLK
5
5e
100
AcDbEntity
8
0
100
AcDbBlockEnd
0
BLOCK
5
5f
100
AcDbEntity
8
0
100
AcDbBlockBegin
2
HALFOPEN_R
70
0
10
0.0
20
0.0
30
0.0
3
HALFOPEN_R
1

0
LINE
5
60
100
AcDbEntity
8
0
6
BYBLOCK
62
0
100
AcDbLine
10
-1.000000
20
-0.166667
11
0.000000
21
0.000000
0
LINE
5
61
100
AcDbEntity
8
0
6
BYBLOCK
62
0
100
AcDbLine
10
0.000000
20
0.000000
11
-1.000000
21
0.000000
0
ENDBLK
5
62
100
AcDbEntity
8
0
100
AcDbBlockEnd
0
BLOCK
5
63
100
AcDbEntity
8
0
100
AcDbBlockBegin
2
CLOSEDF
70
0
10
0.0
20
0.0
30
0.0
3
CLOSEDF
1

0
SOLID
5
64
100
AcDbEntity
8
0
6
BYBLOCK
62
0
100
AcDbTrace
10
-1.000000
20
0.166667
11
-1.000000
21
-0.166667
12
0.000000
22
0.000000
13
0.000000
23
0.000000
0
ENDBLK
5
65
100
AcDbEntity
8
0
100
AcDbBlockEnd
0
BLOCK
5
66
100
AcDbEntity
8
0
100
AcDbBlockBegin
2
HALF_R
70
0
10
0.0
20
0.0
30
0.0
3
HALF_R
1

0
SOLID
5
67
100
AcDbEntity
8
0
6
BYBLOCK
62
0
100
AcDbTrace
10
-1.000000
20
-0.166667
11
-1.000000
21
0.000000
12
0.000000
22
0.000000
13
0.000000
23
0.000000
0
ENDBLK
5
68
100
AcDbEntity
8
0
100
AcDbBlockEnd
0
ENDSEC
0
SECTION
2
ENTITIES
0
POLYLINE
5
69
100
AcDbEntity
8
1
6
CONTINUOUS
62
5
100
AcDb2dPolyline
66
1
10
0.0
20
0.0
30
0.0
70
0
0
VERTEX
5
6a
100
AcDbEntity
8
1
100
AcDbVertex
100
AcDb2dVertex
62
5
10
198.250000
20
324.937500
0
VERTEX
5
6b
100
AcDbEntity
8
1
100
AcDbVertex
100
AcDb2dVertex
62
5
10
198.500000
20
324.937500
0
VERTEX
5
6c
100
AcDbEntity
8
1
100
AcDbVertex
100
AcDb2dVertex
62
5
10
200.250000
20
323.687500
0
SEQEND
5
6d
100
AcDbEntity
8
1
0
LINE
5
6e
100
AcDbEntity
8
1
100
AcDbLine
6
CONTINUOUS
62
5
10
198.250000
20
327.750000
11
198.250000
21
320.250000
0
POLYLINE
5
6f
100
AcDbEntity
8
1
6
CONTINUOUS
62
5
100
AcDb2dPolyline
66
1
10
0.0
20
0.0
30
0.0
70
0
0
VERTEX
5
70
100
AcDbEntity
8
1
100
AcDbVertex
100
AcDb2dVertex
62
5
10
206.250000
20
328.375000
0
VERTEX
5
71
100
AcDbEntity
8
1
100
AcDbVertex
100
AcDb2dVertex
62
5
10
205.500000
20
327.125000
0
VERTEX
5
72
100
AcDbEntity
8
1
100
AcDbVertex
100
AcDb2dVertex
62
5
10
204.750000
20
326.187500
0
VERTEX
5
73
100
AcDbEntity
8
1
100
AcDbVertex
100
AcDb2dVertex
62
5
10
203.750000
20
325.250000
0
SEQEND
5
74
100
AcDbEntity
8
1
0
POLYLINE
5
75
100
AcDbEntity
8
1
6
CONTINUOUS
62
5
100
AcDb2dPolyline
66
1
10
0.0
20
0.0
30
0.0
70
0
0
VERTEX
5
76
100
AcDbEntity
8
1
100
AcDbVertex
100
AcDb2dVertex
62
5
10
206.000000
20
327.750000
0
VERTEX
5
77
100
AcDbEntity
8
1
100
AcDbVertex
100
AcDb2dVertex
62
5
10
208.250000
20
327.750000
0
VERTEX
5
78
100
AcDbEntity
8
1
100
AcDbVertex
100
AcDb2dVertex
62
5
10
207.000000
20
325.875000
0
SEQEND
5
79
100
AcDbEntity
8
1
0
POLYLINE
5
7a
100
AcDbEntity
8
1
6
CONTINUOUS
62
5
100
AcDb2dPolyline
66
1
10
0.0
20
0.0
30
0.0
70
0
0
VERTEX
5
7b
100
AcDbEntity
8
1
100
AcDbVertex
100
AcDb2dVertex
62
5
10
204.750000
20
325.875000
0
VERTEX
5
7c
100
AcDbEntity
8
1
100
AcDbVertex
100
AcDb2dVertex
62
5
10
209.250000
20
325.875000
0
VERTEX
5
7d
100
AcDbEntity
8
1
100
AcDbVertex
100
AcDb2dVertex
62
5
10
209.250000
20
323.062500
0
VERTEX
5
7e
100
AcDbEntity
8
1
100
AcDbVertex
100
AcDb2dVertex
62
5
10
204.750000
20
323.062500
0
SEQEND
5
7f
100
AcDbEntity
8
1
0
LINE
5
80
100
AcDbEntity
8
1
100
AcDbLine
6
CONTINUOUS
62
5
10
207.000000
20
325.875000
11
207.000000
21
323.062500
0
POLYLINE
5
81
100
AcDbEntity
8
1
6
CONTINUOUS
62
5
100
AcDb2dPolyline
66
1
10
0.0
20
0.0
30
0.0
70
0
0
VERTEX
5
82
100
AcDbEntity
8
1
100
AcDbVertex
100
AcDb2dVertex
62
5
10
204.750000
20
325.875000
0
VERTEX
5
83
100
AcDbEntity
8
1
100
AcDbVertex
100
AcDb2dVertex
62
5
10
204.750000
20
320.562500
0
VERTEX
5
84
100
AcDbEntity
8
1
100
AcDbVertex
100
AcDb2dVertex
62
5
10
205.250000
20
319.937500
0
VERTEX
5
85
100
AcDbEntity
8
1
100
AcDbVertex
100
AcDb2dVertex
62
5
10
210.250000
20
319.937500
0
VERTEX
5
86
100
AcDbEntity
8
1
100
AcDbVertex
100
AcDb2dVertex
62
5
10
210.250000
20
321.187500
0
SEQEND
5
87
100
AcDbEntity
8
1
0
LINE
5
88
100
AcDbEntity
8
1
100
AcDbLine
6
CONTINUOUS
62
5
10
172.250000
20
324.937500
11
177.250000
21
324.937500
0
POLYLINE
5
89
100
AcDbEntity
8
1
6
CONTINUOUS
62
5
100
AcDb2dPolyline
66
1
10
0.0
20
0.0
30
0.0
70
0
0
VERTEX
5
8a
100
AcDbEntity
8
1
100
AcDbVertex
100
AcDb2dVertex
62
5
10
174.750000
20
326.812500
0
VERTEX
5
8b
100
AcDbEntity
8
1
100
AcDbVertex
100
AcDb2dVertex
62
5
10
174.750000
20
320.562500
0
VERTEX
5
8c
100
AcDbEntity
8
1
100
AcDbVertex
100
AcDb2dVertex
62
5
10
174.250000
20
320.562500
0
SEQEND
5
8d
100
AcDbEntity
8
1
0
LINE
5
8e
100
AcDbEntity
8
1
100
AcDbLine
6
CONTINUOUS
62
5
10
173.500000
20
323.375000
11
172.250000
21
321.500000
0
LINE
5
8f
100
AcDbEntity
8
1
100
AcDbLine
6
CONTINUOUS
62
5
10
176.250000
20
323.375000
11
177.500000
21
321.812500
0
POLYLINE
5
90
100
AcDbEntity
8
1
6
CONTINUOUS
62
5
100
AcDb2dPolyline
66
1
10
0.0
20
0.0
30
0.0
70
0
0
VERTEX
5
91
100
AcDbEntity
8
1
100
AcDbVertex
100
AcDb2dVertex
62
5
10
180.750000
20
324.312500
0
VERTEX
5
92
100
AcDbEntity
8
1
100
AcDbVertex
100
AcDb2dVertex
62
5
10
180.750000
20
326.500000
0
VERTEX
5
93
100
AcDbEntity
8
1
100
AcDbVertex
100
AcDb2dVertex
62
5
10
184.750000
20
326.500000
0
VERTEX
5
94
100
AcDbEntity
8
1
100
AcDbVertex
100
AcDb2dVertex
62
5
10
184.750000
20
325.562500
0
VERTEX
5
95
100
AcDbEntity
8
1
100
AcDbVertex
100
AcDb2dVertex
62
5
10
184.500000
20
324.000000
0
VERTEX
5
96
100
AcDbEntity
8
1
100
AcDbVertex
100
AcDb2dVertex
62
5
10
184.000000
20
322.750000
0
VERTEX
5
97
100
AcDbEntity
8
1
100
AcDbVertex
100
AcDb2dVertex
62
5
10
183.500000
20
321.812500
0
VERTEX
5
98
100
AcDbEntity
8
1
100
AcDbVertex
100
AcDb2dVertex
62
5
10
182.500000
20
320.562500
0
SEQEND
5
99
100
AcDbEntity
8
1
0
POLYLINE
5
9a
100
AcDbEntity
8
1
6
CONTINUOUS
62
5
100
AcDb2dPolyline
66
1
10
0.0
20
0.0
30
0.0
70
0
0
VERTEX
5
9b
100
AcDbEntity
8
1
100
AcDbVertex
100
AcDb2dVertex
62
5
10
192.750000
20
327.437500
0
VERTEX
5
9c
100
AcDbEntity
8
1
100
AcDbVertex
100
AcDb2dVertex
62
5
10
190.750000
20
324.937500
0
VERTEX
5
9d
100
AcDbEntity
8
1
100
AcDbVertex
100
AcDb2dVertex
62
5
10
188.500000
20
323.375000
0
SEQEND
5
9e
100
AcDbEntity
8
1
0
LINE
5
9f
100
AcDbEntity
8
1
100
AcDbLine
6
CONTINUOUS
62
5
10
191.250000
20
325.562500
11
191.250000
21
320.250000
0
LINE
5
a0
100
AcDbEntity
8
1
100
AcDbLine
6
CONTINUOUS
62
5
10
181.250000
20
334.312500
11
182.000000
21
334.312500
0
LINE
5
a1
100
AcDbEntity
8
1
100
AcDbLine
6
CONTINUOUS
62
5
10
175.250000
20
335.562500
11
177.750000
21
335.562500
0
LINE
5
a2
100
AcDbEntity
8
1
100
AcDbLine
6
CONTINUOUS
62
5
10
176.750000
20
338.062500
11
176.750000
21
329.312500
0
POLYLINE
5
a3
100
AcDbEntity
8
1
6
CONTINUOUS
62
5
100
AcDb2dPolyline
66
1
10
0.0
20
0.0
30
0.0
70
0
0
VERTEX
5
a4
100
AcDbEntity
8
1
100
AcDbVertex
100
AcDb2dVertex
62
5
10
176.750000
20
335.562500
0
VERTEX
5
a5
100
AcDbEntity
8
1
100
AcDbVertex
100
AcDb2dVertex
62
5
10
176.000000
20
333.062500
0
VERTEX
5
a6
100
AcDbEntity
8
1
100
AcDbVertex
100
AcDb2dVertex
62
5
10
175.250000
20
331.500000
0
SEQEND
5
a7
100
AcDbEntity
8
1
0
LINE
5
a8
100
AcDbEntity
8
1
100
AcDbLine
6
CONTINUOUS
62
5
10
176.750000
20
334.937500
11
177.500000
21
333.062500
0
POLYLINE
5
a9
100
AcDbEntity
8
1
6
CONTINUOUS
62
5
100
AcDb2dPolyline
66
1
10
0.0
20
0.0
30
0.0
70
0
0
VERTEX
5
aa
100
AcDbEntity
8
1
100
AcDbVertex
100
AcDb2dVertex
62
5
10
178.000000
20
336.500000
0
VERTEX
5
ab
100
AcDbEntity
8
1
100
AcDbVertex
100
AcDb2dVertex
62
5
10
180.750000
20
336.500000
0
VERTEX
5
ac
100
AcDbEntity
8
1
100
AcDbVertex
100
AcDb2dVertex
62
5
10
180.750000
20
335.250000
0
VERTEX
5
ad
100
AcDbEntity
8
1
100
AcDbVertex
100
AcDb2dVertex
62
5
10
181.250000
20
334.312500
0
SEQEND
5
ae
100
AcDbEntity
8
1
0
POLYLINE
5
af
100
AcDbEntity
8
1
6
CONTINUOUS
62
5
100
AcDb2dPolyline
66
1
10
0.0
20
0.0
30
0.0
70
0
0
VERTEX
5
b0
100
AcDbEntity
8
1
100
AcDbVertex
100
AcDb2dVertex
62
5
10
179.500000
20
338.375000
0
VERTEX
5
b1
100
AcDbEntity
8
1
100
AcDbVertex
100
AcDb2dVertex
62
5
10
179.250000
20
335.875000
0
VERTEX
5
b2
100
AcDbEntity
8
1
100
AcDbVertex
100
AcDb2dVertex
62
5
10
178.750000
20
334.625000
0
VERTEX
5
b3
100
AcDbEntity
8
1
100
AcDbVertex
100
AcDb2dVertex
62
5
10
178.000000
20
334.000000
0
SEQEND
5
b4
100
AcDbEntity
8
1
0
POLYLINE
5
b5
100
AcDbEntity
8
1
6
CONTINUOUS
62
5
100
AcDb2dPolyline
66
1
10
0.0
20
0.0
30
0.0
70
0
0
VERTEX
5
b6
100
AcDbEntity
8
1
100
AcDbVertex
100
AcDb2dVertex
62
5
10
182.000000
20
334.312500
0
VERTEX
5
b7
100
AcDbEntity
8
1
100
AcDbVertex
100
AcDb2dVertex
62
5
10
182.250000
20
334.625000
0
VERTEX
5
b8
100
AcDbEntity
8
1
100
AcDbVertex
100
AcDb2dVertex
62
5
10
182.250000
20
335.875000
0
SEQEND
5
b9
100
AcDbEntity
8
1
0
LINE
5
ba
100
AcDbEntity
8
1
100
AcDbLine
6
CONTINUOUS
62
5
10
177.750000
20
332.437500
11
182.500000
21
332.437500
0
LINE
5
bb
100
AcDbEntity
8
1
100
AcDbLine
6
CONTINUOUS
62
5
10
180.000000
20
334.000000
11
180.000000
21
329.312500
0
POLYLINE
5
bc
100
AcDbEntity
8
1
6
CONTINUOUS
62
5
100
AcDb2dPolyline
66
1
10
0.0
20
0.0
30
0.0
70
0
0
VERTEX
5
bd
100
AcDbEntity
8
1
100
AcDbVertex
100
AcDb2dVertex
62
5
10
185.500000
20
338.062500
0
VERTEX
5
be
100
AcDbEntity
8
1
100
AcDbVertex
100
AcDb2dVertex
62
5
10
184.500000
20
335.250000
0
VERTEX
5
bf
100
AcDbEntity
8
1
100
AcDbVertex
100
AcDb2dVertex
62
5
10
183.250000
20
333.062500
0
SEQEND
5
c0
100
AcDbEntity
8
1
0
LINE
5
c1
100
AcDbEntity
8
1
100
AcDbLine
6
CONTINUOUS
62
5
10
184.500000
20
335.250000
11
184.500000
21
329.312500
0
LINE
5
c2
100
AcDbEntity
8
1
100
AcDbLine
6
CONTINUOUS
62
5
10
185.250000
20
335.250000
11
190.500000
21
335.250000
0
POLYLINE
5
c3
100
AcDbEntity
8
1
6
CONTINUOUS
62
5
100
AcDb2dPolyline
66
1
10
0.0
20
0.0
30
0.0
70
0
0
VERTEX
5
c4
100
AcDbEntity
8
1
100
AcDbVertex
100
AcDb2dVertex
62
5
10
188.750000
20
338.062500
0
VERTEX
5
c5
100
AcDbEntity
8
1
100
AcDbVertex
100
AcDb2dVertex
62
5
10
188.750000
20
329.625000
0
VERTEX
5
c6
100
AcDbEntity
8
1
100
AcDbVertex
100
AcDb2dVertex
62
5
10
187.250000
20
329.937500
0
SEQEND
5
c7
100
AcDbEntity
8
1
0
LINE
5
c8
100
AcDbEntity
8
1
100
AcDbLine
6
CONTINUOUS
62
5
10
186.250000
20
334.000000
11
187.250000
21
332.125000
0
POLYLINE
5
c9
100
AcDbEntity
8
0
6
DOT2
62
5
100
AcDb2dPolyline
66
1
10
0.0
20
0.0
30
0.0
70
0
0
VERTEX
5
ca
100
AcDbEntity
8
0
100
AcDbVertex
100
AcDb2dVertex
62
5
10
219.250000
20
244.250000
0
VERTEX
5
cb
100
AcDbEntity
8
0
100
AcDbVertex
100
AcDb2dVertex
62
5
10
216.437500
20
238.625000
0
VERTEX
5
cc
100
AcDbEntity
8
0
100
AcDbVertex
100
AcDb2dVertex
62
5
10
220.187500
20
238.625000
0
SEQEND
5
cd
100
AcDbEntity
8
0
0
LINE
5
ce
100
AcDbEntity
8
0
100
AcDbLine
6
DOT2
62
5
10
219.250000
20
244.250000
11
219.250000
21
236.750000
0
LINE
5
cf
100
AcDbEntity
8
0
100
AcDbLine
6
DOT2
62
5
10
218.625000
20
236.750000
11
219.875000
21
236.750000
0
POLYLINE
5
d0
100
AcDbEntity
8
0
6
DOT2
62
5
100
AcDb2dPolyline
66
1
10
0.0
20
0.0
30
0.0
70
0
0
VERTEX
5
d1
100
AcDbEntity
8
0
100
AcDbVertex
100
AcDb2dVertex
62
5
10
222.375000
20
243.625000
0
VERTEX
5
d2
100
AcDbEntity
8
0
100
AcDbVertex
100
AcDb2dVertex
62
5
10
223.312500
20
244.250000
0
VERTEX
5
d3
100
AcDbEntity
8
0
100
AcDbVertex
100
AcDb2dVertex
62
5
10
223.312500
20
236.750000
0
SEQEND
5
d4
100
AcDbEntity
8
0
0
LINE
5
d5
100
AcDbEntity
8
0
100
AcDbLine
6
DOT2
62
5
10
222.687500
20
236.750000
11
223.937500
21
236.750000
0
LINE
5
d6
100
AcDbEntity
8
0
100
AcDbLine
6
DOT2
62
5
10
227.375000
20
237.375000
11
226.750000
21
236.750000
0
POLYLINE
5
d7
100
AcDbEntity
8
0
6
DOT2
62
5
100
AcDb2dPolyline
66
1
10
0.0
20
0.0
30
0.0
70
0
0
VERTEX
5
d8
100
AcDbEntity
8
0
100
AcDbVertex
100
AcDb2dVertex
62
5
10
226.750000
20
237.375000
0
VERTEX
5
d9
100
AcDbEntity
8
0
100
AcDbVertex
100
AcDb2dVertex
62
5
10
227.375000
20
236.750000
0
VERTEX
5
da
100
AcDbEntity
8
0
100
AcDbVertex
100
AcDb2dVertex
62
5
10
226.750000
20
236.750000
0
VERTEX
5
db
100
AcDbEntity
8
0
100
AcDbVertex
100
AcDb2dVertex
62
5
10
226.750000
20
237.375000
0
VERTEX
5
dc
100
AcDbEntity
8
0
100
AcDbVertex
100
AcDb2dVertex
62
5
10
227.375000
20
237.375000
0
VERTEX
5
dd
100
AcDbEntity
8
0
100
AcDbVertex
100
AcDb2dVertex
62
5
10
227.375000
20
236.750000
0
SEQEND
5
de
100
AcDbEntity
8
0
0
LINE
5
df
100
AcDbEntity
8
0
100
AcDbLine
6
DOT2
62
5
10
231.750000
20
244.250000
11
234.562500
21
244.250000
0
POLYLINE
5
e0
100
AcDbEntity
8
0
6
DOT2
62
5
100
AcDb2dPolyline
66
1
10
0.0
20
0.0
30
0.0
70
0
0
VERTEX
5
e1
100
AcDbEntity
8
0
100
AcDbVertex
100
AcDb2dVertex
62
5
10
231.750000
20
244.250000
0
VERTEX
5
e2
100
AcDbEntity
8
0
100
AcDbVertex
100
AcDb2dVertex
62
5
10
231.750000
20
240.500000
0
VERTEX
5
e3
100
AcDbEntity
8
0
100
AcDbVertex
100
AcDb2dVertex
62
5
10
232.375000
20
241.125000
0
VERTEX
5
e4
100
AcDbEntity
8
0
100
AcDbVertex
100
AcDb2dVertex
62
5
10
233.000000
20
241.437500
0
VERTEX
5
e5
100
AcDbEntity
8
0
100
AcDbVertex
100
AcDb2dVertex
62
5
10
233.937500
20
241.437500
0
VERTEX
5
e6
100
AcDbEntity
8
0
100
AcDbVertex
100
AcDb2dVertex
62
5
10
234.562500
20
241.125000
0
VERTEX
5
e7
100
AcDbEntity
8
0
100
AcDbVertex
100
AcDb2dVertex
62
5
10
234.875000
20
240.187500
0
VERTEX
5
e8
100
AcDbEntity
8
0
100
AcDbVertex
100
AcDb2dVertex
62
5
10
234.875000
20
238.312500
0
VERTEX
5
e9
100
AcDbEntity
8
0
100
AcDbVertex
100
AcDb2dVertex
62
5
10
234.250000
20
237.375000
0
VERTEX
5
ea
100
AcDbEntity
8
0
100
AcDbVertex
100
AcDb2dVertex
62
5
10
233.312500
20
236.750000
0
VERTEX
5
eb
100
AcDbEntity
8
0
100
AcDbVertex
100
AcDb2dVertex
62
5
10
231.750000
20
236.750000
0
SEQEND
5
ec
100
AcDbEntity
8
0
0
LINE
5
ed
100
AcDbEntity
8
0
100
AcDbLine
6
CONTINUOUS
62
5
10
204.750000
20
203.880150
11
204.750000
21
237.500000
0
LINE
5
ee
100
AcDbEntity
8
0
100
AcDbLine
6
CONTINUOUS
62
5
10
246.250000
20
212.000000
11
246.250000
21
237.500000
0
POLYLINE
5
ef
100
AcDbEntity
8
0
6
CONTINUOUS
62
5
100
AcDb2dPolyline
66
1
10
0.0
20
0.0
30
0.0
70
0
0
VERTEX
5
f0
100
AcDbEntity
8
0
100
AcDbVertex
100
AcDb2dVertex
62
5
10
225.500000
20
235.500000
0
VERTEX
5
f1
100
AcDbEntity
8
0
100
AcDbVertex
100
AcDb2dVertex
62
5
10
204.750000
20
235.500000
0
VERTEX
5
f2
100
AcDbEntity
8
0
100
AcDbVertex
100
AcDb2dVertex
62
5
10
210.750000
20
236.500000
0
VERTEX
5
f3
100
AcDbEntity
8
0
100
AcDbVertex
100
AcDb2dVertex
62
5
10
210.750000
20
234.500000
0
VERTEX
5
f4
100
AcDbEntity
8
0
100
AcDbVertex
100
AcDb2dVertex
62
5
10
204.750000
20
235.500000
0
VERTEX
5
f5
100
AcDbEntity
8
0
100
AcDbVertex
100
AcDb2dVertex
62
5
10
210.750000
20
236.000000
0
VERTEX
5
f6
100
AcDbEntity
8
0
100
AcDbVertex
100
AcDb2dVertex
62
5
10
210.750000
20
235.000000
0
VERTEX
5
f7
100
AcDbEntity
8
0
100
AcDbVertex
100
AcDb2dVertex
62
5
10
204.750000
20
235.500000
0
SEQEND
5
f8
100
AcDbEntity
8
0
0
POLYLINE
5
f9
100
AcDbEntity
8
0
6
CONTINUOUS
62
5
100
AcDb2dPolyline
66
1
10
0.0
20
0.0
30
0.0
70
0
0
VERTEX
5
fa
100
AcDbEntity
8
0
100
AcDbVertex
100
AcDb2dVertex
62
5
10
225.500000
20
235.500000
0
VERTEX
5
fb
100
AcDbEntity
8
0
100
AcDbVertex
100
AcDb2dVertex
62
5
10
246.250000
20
235.500000
0
VERTEX
5
fc
100
AcDbEntity
8
0
100
AcDbVertex
100
AcDb2dVertex
62
5
10
240.250000
20
234.500000
0
VERTEX
5
fd
100
AcDbEntity
8
0
100
AcDbVertex
100
AcDb2dVertex
62
5
10
240.250000
20
236.500000
0
VERTEX
5
fe
100
AcDbEntity
8
0
100
AcDbVertex
100
AcDb2dVertex
62
5
10
246.250000
20
235.500000
0
VERTEX
5
ff
100
AcDbEntity
8
0
100
AcDbVertex
100
AcDb2dVertex
62
5
10
240.250000
20
235.000000
0
VERTEX
5
100
100
AcDbEntity
8
0
100
AcDbVertex
100
AcDb2dVertex
62
5
10
240.250000
20
236.000000
0
VERTEX
5
101
100
AcDbEntity
8
0
100
AcDbVertex
100
AcDb2dVertex
62
5
10
246.250000
20
235.500000
0
SEQEND
5
102
100
AcDbEntity
8
0
0
POLYLINE
5
103
100
AcDbEntity
8
1
6
CONTINUOUS
62
5
100
AcDb2dPolyline
66
1
10
0.0
20
0.0
30
0.0
70
0
0
VERTEX
5
104
100
AcDbEntity
8
1
100
AcDbVertex
100
AcDb2dVertex
62
5
10
157.500000
20
324.312500
0
VERTEX
5
105
100
AcDbEntity
8
1
100
AcDbVertex
100
AcDb2dVertex
62
5
10
159.500000
20
324.312500
0
VERTEX
5
106
100
AcDbEntity
8
1
100
AcDbVertex
100
AcDb2dVertex
62
5
10
159.250000
20
321.187500
0
SEQEND
5
107
100
AcDbEntity
8
1
0
LINE
5
108
100
AcDbEntity
8
1
100
AcDbLine
6
CONTINUOUS
62
5
10
156.750000
20
321.187500
11
161.000000
21
321.187500
0
POLYLINE
5
109
100
AcDbEntity
8
1
6
CONTINUOUS
62
5
100
AcDb2dPolyline
66
1
10
0.0
20
0.0
30
0.0
70
0
0
VERTEX
5
10a
100
AcDbEntity
8
1
100
AcDbVertex
100
AcDb2dVertex
62
5
10
164.000000
20
326.187500
0
VERTEX
5
10b
100
AcDbEntity
8
1
100
AcDbVertex
100
AcDb2dVertex
62
5
10
169.250000
20
326.187500
0
VERTEX
5
10c
100
AcDbEntity
8
1
100
AcDbVertex
100
AcDb2dVertex
62
5
10
169.250000
20
325.875000
0
VERTEX
5
10d
100
AcDbEntity
8
1
100
AcDbVertex
100
AcDb2dVertex
62
5
10
167.500000
20
324.000000
0
VERTEX
5
10e
100
AcDbEntity
8
1
100
AcDbVertex
100
AcDb2dVertex
62
5
10
166.750000
20
324.000000
0
SEQEND
5
10f
100
AcDbEntity
8
1
0
POLYLINE
5
110
100
AcDbEntity
8
1
6
CONTINUOUS
62
5
100
AcDb2dPolyline
66
1
10
0.0
20
0.0
30
0.0
70
0
0
VERTEX
5
111
100
AcDbEntity
8
1
100
AcDbVertex
100
AcDb2dVertex
62
5
10
166.750000
20
324.937500
0
VERTEX
5
112
100
AcDbEntity
8
1
100
AcDbVertex
100
AcDb2dVertex
62
5
10
166.750000
20
323.375000
0
VERTEX
5
113
100
AcDbEntity
8
1
100
AcDbVertex
100
AcDb2dVertex
62
5
10
166.000000
20
321.500000
0
VERTEX
5
114
100
AcDbEntity
8
1
100
AcDbVertex
100
AcDb2dVertex
62
5
10
165.000000
20
320.250000
0
SEQEND
5
115
100
AcDbEntity
8
1
0
POLYLINE
5
116
100
AcDbEntity
8
1
6
CONTINUOUS
62
5
100
AcDb2dPolyline
66
1
10
0.0
20
0.0
30
0.0
70
1
0
VERTEX
5
117
100
AcDbEntity
8
1
100
AcDbVertex
100
AcDb2dVertex
62
5
10
136.250000
20
330.250000
0
VERTEX
5
118
100
AcDbEntity
8
1
100
AcDbVertex
100
AcDb2dVertex
62
5
10
141.500000
20
330.250000
0
VERTEX
5
119
100
AcDbEntity
8
1
100
AcDbVertex
100
AcDb2dVertex
62
5
10
141.500000
20
336.500000
0
VERTEX
5
11a
100
AcDbEntity
8
1
100
AcDbVertex
100
AcDb2dVertex
62
5
10
136.250000
20
336.500000
0
VERTEX
5
11b
100
AcDbEntity
8
1
100
AcDbVertex
100
AcDb2dVertex
62
5
10
136.250000
20
330.250000
0
SEQEND
5
11c
100
AcDbEntity
8
1
0
LINE
5
11d
100
AcDbEntity
8
1
100
AcDbLine
6
CONTINUOUS
62
5
10
133.250000
20
325.875000
11
136.000000
21
326.500000
0
LINE
5
11e
100
AcDbEntity
8
1
100
AcDbLine
6
CONTINUOUS
62
5
10
133.250000
20
324.000000
11
136.750000
21
324.937500
0
POLYLINE
5
11f
100
AcDbEntity
8
1
6
CONTINUOUS
62
5
100
AcDb2dPolyline
66
1
10
0.0
20
0.0
30
0.0
70
0
0
VERTEX
5
120
100
AcDbEntity
8
1
100
AcDbVertex
100
AcDb2dVertex
62
5
10
134.250000
20
327.437500
0
VERTEX
5
121
100
AcDbEntity
8
1
100
AcDbVertex
100
AcDb2dVertex
62
5
10
136.500000
20
322.437500
0
VERTEX
5
122
100
AcDbEntity
8
1
100
AcDbVertex
100
AcDb2dVertex
62
5
10
136.000000
20
322.437500
0
VERTEX
5
123
100
AcDbEntity
8
1
100
AcDbVertex
100
AcDb2dVertex
62
5
10
134.500000
20
323.062500
0
VERTEX
5
124
100
AcDbEntity
8
1
100
AcDbVertex
100
AcDb2dVertex
62
5
10
133.750000
20
323.062500
0
VERTEX
5
125
100
AcDbEntity
8
1
100
AcDbVertex
100
AcDb2dVertex
62
5
10
132.750000
20
322.125000
0
VERTEX
5
126
100
AcDbEntity
8
1
100
AcDbVertex
100
AcDb2dVertex
62
5
10
132.750000
20
321.500000
0
VERTEX
5
127
100
AcDbEntity
8
1
100
AcDbVertex
100
AcDb2dVertex
62
5
10
133.250000
20
320.875000
0
VERTEX
5
128
100
AcDbEntity
8
1
100
AcDbVertex
100
AcDb2dVertex
62
5
10
133.750000
20
320.562500
0
VERTEX
5
129
100
AcDbEntity
8
1
100
AcDbVertex
100
AcDb2dVertex
62
5
10
135.250000
20
320.562500
0
SEQEND
5
12a
100
AcDbEntity
8
1
0
POLYLINE
5
12b
100
AcDbEntity
8
1
6
CONTINUOUS
62
5
100
AcDb2dPolyline
66
1
10
0.0
20
0.0
30
0.0
70
0
0
VERTEX
5
12c
100
AcDbEntity
8
1
100
AcDbVertex
100
AcDb2dVertex
62
5
10
148.750000
20
326.500000
0
VERTEX
5
12d
100
AcDbEntity
8
1
100
AcDbVertex
100
AcDb2dVertex
62
5
10
148.750000
20
321.187500
0
VERTEX
5
12e
100
AcDbEntity
8
1
100
AcDbVertex
100
AcDb2dVertex
62
5
10
149.250000
20
320.562500
0
VERTEX
5
12f
100
AcDbEntity
8
1
100
AcDbVertex
100
AcDb2dVertex
62
5
10
152.750000
20
320.562500
0
SEQEND
5
130
100
AcDbEntity
8
1
0
LINE
5
131
100
AcDbEntity
8
1
100
AcDbLine
6
CONTINUOUS
62
5
10
152.250000
20
324.625000
11
148.750000
21
323.687500
0
POLYLINE
5
132
100
AcDbEntity
8
1
6
CONTINUOUS
62
5
100
AcDb2dPolyline
66
1
10
0.0
20
0.0
30
0.0
70
1
0
VERTEX
5
133
100
AcDbEntity
8
1
100
AcDbVertex
100
AcDb2dVertex
62
5
10
152.250000
20
326.500000
0
VERTEX
5
134
100
AcDbEntity
8
1
100
AcDbVertex
100
AcDb2dVertex
62
5
10
152.750000
20
327.125000
0
VERTEX
5
135
100
AcDbEntity
8
1
100
AcDbVertex
100
AcDb2dVertex
62
5
10
153.000000
20
327.125000
0
VERTEX
5
136
100
AcDbEntity
8
1
100
AcDbVertex
100
AcDb2dVertex
62
5
10
153.500000
20
326.500000
0
VERTEX
5
137
100
AcDbEntity
8
1
100
AcDbVertex
100
AcDb2dVertex
62
5
10
153.500000
20
326.187500
0
VERTEX
5
138
100
AcDbEntity
8
1
100
AcDbVertex
100
AcDb2dVertex
62
5
10
153.000000
20
325.562500
0
VERTEX
5
139
100
AcDbEntity
8
1
100
AcDbVertex
100
AcDb2dVertex
62
5
10
152.750000
20
325.562500
0
VERTEX
5
13a
100
AcDbEntity
8
1
100
AcDbVertex
100
AcDb2dVertex
62
5
10
152.250000
20
326.187500
0
VERTEX
5
13b
100
AcDbEntity
8
1
100
AcDbVertex
100
AcDb2dVertex
62
5
10
152.250000
20
326.500000
0
SEQEND
5
13c
100
AcDbEntity
8
1
0
POLYLINE
5
13d
100
AcDbEntity
8
1
6
CONTINUOUS
62
5
100
AcDb2dPolyline
66
1
10
0.0
20
0.0
30
0.0
70
0
0
VERTEX
5
13e
100
AcDbEntity
8
1
100
AcDbVertex
100
AcDb2dVertex
62
5
10
132.000000
20
335.875000
0
VERTEX
5
13f
100
AcDbEntity
8
1
100
AcDbVertex
100
AcDb2dVertex
62
5
10
132.250000
20
337.125000
0
VERTEX
5
140
100
AcDbEntity
8
1
100
AcDbVertex
100
AcDb2dVertex
62
5
10
132.750000
20
337.750000
0
VERTEX
5
141
100
AcDbEntity
8
1
100
AcDbVertex
100
AcDb2dVertex
62
5
10
133.500000
20
337.750000
0
VERTEX
5
142
100
AcDbEntity
8
1
100
AcDbVertex
100
AcDb2dVertex
62
5
10
134.000000
20
337.437500
0
VERTEX
5
143
100
AcDbEntity
8
1
100
AcDbVertex
100
AcDb2dVertex
62
5
10
134.250000
20
336.500000
0
VERTEX
5
144
100
AcDbEntity
8
1
100
AcDbVertex
100
AcDb2dVertex
62
5
10
134.250000
20
335.250000
0
VERTEX
5
145
100
AcDbEntity
8
1
100
AcDbVertex
100
AcDb2dVertex
62
5
10
134.000000
20
334.625000
0
VERTEX
5
146
100
AcDbEntity
8
1
100
AcDbVertex
100
AcDb2dVertex
62
5
10
133.500000
20
334.000000
0
VERTEX
5
147
100
AcDbEntity
8
1
100
AcDbVertex
100
AcDb2dVertex
62
5
10
132.750000
20
334.000000
0
SEQEND
5
148
100
AcDbEntity
8
1
0
POLYLINE
5
149
100
AcDbEntity
8
1
6
CONTINUOUS
62
5
100
AcDb2dPolyline
66
1
10
0.0
20
0.0
30
0.0
70
0
0
VERTEX
5
14a
100
AcDbEntity
8
1
100
AcDbVertex
100
AcDb2dVertex
62
5
10
133.500000
20
334.000000
0
VERTEX
5
14b
100
AcDbEntity
8
1
100
AcDbVertex
100
AcDb2dVertex
62
5
10
134.250000
20
333.375000
0
VERTEX
5
14c
100
AcDbEntity
8
1
100
AcDbVertex
100
AcDb2dVertex
62
5
10
134.500000
20
332.437500
0
VERTEX
5
14d
100
AcDbEntity
8
1
100
AcDbVertex
100
AcDb2dVertex
62
5
10
134.500000
20
331.500000
0
VERTEX
5
14e
100
AcDbEntity
8
1
100
AcDbVertex
100
AcDb2dVertex
62
5
10
134.250000
20
330.875000
0
VERTEX
5
14f
100
AcDbEntity
8
1
100
AcDbVertex
100
AcDb2dVertex
62
5
10
133.500000
20
330.250000
0
VERTEX
5
150
100
AcDbEntity
8
1
100
AcDbVertex
100
AcDb2dVertex
62
5
10
132.750000
20
330.250000
0
VERTEX
5
151
100
AcDbEntity
8
1
100
AcDbVertex
100
AcDb2dVertex
62
5
10
132.250000
20
330.562500
0
VERTEX
5
152
100
AcDbEntity
8
1
100
AcDbVertex
100
AcDb2dVertex
62
5
10
131.750000
20
331.500000
0
SEQEND
5
153
100
AcDbEntity
8
1
0
POLYLINE
5
154
100
AcDbEntity
8
1
6
CONTINUOUS
62
5
100
AcDb2dPolyline
66
1
10
0.0
20
0.0
30
0.0
70
0
0
VERTEX
5
155
100
AcDbEntity
8
1
100
AcDbVertex
100
AcDb2dVertex
62
5
10
144.500000
20
337.750000
0
VERTEX
5
156
100
AcDbEntity
8
1
100
AcDbVertex
100
AcDb2dVertex
62
5
10
144.500000
20
332.125000
0
VERTEX
5
157
100
AcDbEntity
8
1
100
AcDbVertex
100
AcDb2dVertex
62
5
10
144.000000
20
330.875000
0
VERTEX
5
158
100
AcDbEntity
8
1
100
AcDbVertex
100
AcDb2dVertex
62
5
10
143.500000
20
329.937500
0
SEQEND
5
159
100
AcDbEntity
8
1
0
POLYLINE
5
15a
100
AcDbEntity
8
1
6
CONTINUOUS
62
5
100
AcDb2dPolyline
66
1
10
0.0
20
0.0
30
0.0
70
0
0
VERTEX
5
15b
100
AcDbEntity
8
1
100
AcDbVertex
100
AcDb2dVertex
62
5
10
148.500000
20
330.250000
0
VERTEX
5
15c
100
AcDbEntity
8
1
100
AcDbVertex
100
AcDb2dVertex
62
5
10
149.500000
20
329.625000
0
VERTEX
5
15d
100
AcDbEntity
8
1
100
AcDbVertex
100
AcDb2dVertex
62
5
10
149.500000
20
337.750000
0
VERTEX
5
15e
100
AcDbEntity
8
1
100
AcDbVertex
100
AcDb2dVertex
62
5
10
144.500000
20
337.750000
0
SEQEND
5
15f
100
AcDbEntity
8
1
0
LINE
5
160
100
AcDbEntity
8
1
100
AcDbLine
6
CONTINUOUS
62
5
10
144.500000
20
335.250000
11
149.500000
21
335.250000
0
LINE
5
161
100
AcDbEntity
8
1
100
AcDbLine
6
CONTINUOUS
62
5
10
147.000000
20
337.750000
11
147.000000
21
329.625000
0
LINE
5
162
100
AcDbEntity
8
1
100
AcDbLine
6
CONTINUOUS
62
5
10
144.500000
20
332.750000
11
149.500000
21
332.750000
0
LINE
5
163
100
AcDbEntity
8
1
100
AcDbLine
6
CONTINUOUS
62
5
10
159.500000
20
337.750000
11
163.250000
21
337.750000
0
LINE
5
164
100
AcDbEntity
8
1
100
AcDbLine
6
CONTINUOUS
62
5
10
160.250000
20
337.750000
11
160.250000
21
331.187500
0
LINE
5
165
100
AcDbEntity
8
1
100
AcDbLine
6
CONTINUOUS
62
5
10
162.250000
20
337.750000
11
162.250000
21
329.625000
0
LINE
5
166
100
AcDbEntity
8
1
100
AcDbLine
6
CONTINUOUS
62
5
10
160.250000
20
335.562500
11
162.250000
21
335.562500
0
LINE
5
167
100
AcDbEntity
8
1
100
AcDbLine
6
CONTINUOUS
62
5
10
160.250000
20
333.687500
11
162.250000
21
333.687500
0
LINE
5
168
100
AcDbEntity
8
1
100
AcDbLine
6
CONTINUOUS
62
5
10
159.250000
20
330.875000
11
162.250000
21
331.812500
0
POLYLINE
5
169
100
AcDbEntity
8
1
6
CONTINUOUS
62
5
100
AcDb2dPolyline
66
1
10
0.0
20
0.0
30
0.0
70
0
0
VERTEX
5
16a
100
AcDbEntity
8
1
100
AcDbVertex
100
AcDb2dVertex
62
5
10
163.000000
20
336.187500
0
VERTEX
5
16b
100
AcDbEntity
8
1
100
AcDbVertex
100
AcDb2dVertex
62
5
10
166.250000
20
336.187500
0
VERTEX
5
16c
100
AcDbEntity
8
1
100
AcDbVertex
100
AcDb2dVertex
62
5
10
165.750000
20
334.000000
0
VERTEX
5
16d
100
AcDbEntity
8
1
100
AcDbVertex
100
AcDb2dVertex
62
5
10
165.250000
20
332.750000
0
VERTEX
5
16e
100
AcDbEntity
8
1
100
AcDbVertex
100
AcDb2dVertex
62
5
10
164.250000
20
330.875000
0
VERTEX
5
16f
100
AcDbEntity
8
1
100
AcDbVertex
100
AcDb2dVertex
62
5
10
163.000000
20
329.625000
0
SEQEND
5
170
100
AcDbEntity
8
1
0
POLYLINE
5
171
100
AcDbEntity
8
1
6
CONTINUOUS
62
5
100
AcDb2dPolyline
66
1
10
0.0
20
0.0
30
0.0
70
0
0
VERTEX
5
172
100
AcDbEntity
8
1
100
AcDbVertex
100
AcDb2dVertex
62
5
10
163.250000
20
334.937500
0
VERTEX
5
173
100
AcDbEntity
8
1
100
AcDbVertex
100
AcDb2dVertex
62
5
10
164.000000
20
333.062500
0
VERTEX
5
174
100
AcDbEntity
8
1
100
AcDbVertex
100
AcDb2dVertex
62
5
10
165.000000
20
331.187500
0
VERTEX
5
175
100
AcDbEntity
8
1
100
AcDbVertex
100
AcDb2dVertex
62
5
10
166.500000
20
329.625000
0
SEQEND
5
176
100
AcDbEntity
8
1
0
POLYLINE
5
177
100
AcDbEntity
8
1
6
CONTINUOUS
62
5
100
AcDb2dPolyline
66
1
10
0.0
20
0.0
30
0.0
70
0
0
VERTEX
5
178
100
AcDbEntity
8
1
100
AcDbVertex
100
AcDb2dVertex
62
5
10
108.750000
20
334.000000
0
VERTEX
5
179
100
AcDbEntity
8
1
100
AcDbVertex
100
AcDb2dVertex
62
5
10
109.750000
20
335.250000
0
VERTEX
5
17a
100
AcDbEntity
8
1
100
AcDbVertex
100
AcDb2dVertex
62
5
10
110.250000
20
336.187500
0
VERTEX
5
17b
100
AcDbEntity
8
1
100
AcDbVertex
100
AcDb2dVertex
62
5
10
112.750000
20
336.187500
0
VERTEX
5
17c
100
AcDbEntity
8
1
100
AcDbVertex
100
AcDb2dVertex
62
5
10
112.750000
20
335.875000
0
VERTEX
5
17d
100
AcDbEntity
8
1
100
AcDbVertex
100
AcDb2dVertex
62
5
10
112.000000
20
334.000000
0
VERTEX
5
17e
100
AcDbEntity
8
1
100
AcDbVertex
100
AcDb2dVertex
62
5
10
110.750000
20
332.125000
0
VERTEX
5
17f
100
AcDbEntity
8
1
100
AcDbVertex
100
AcDb2dVertex
62
5
10
109.250000
20
330.562500
0
SEQEND
5
180
100
AcDbEntity
8
1
0
POLYLINE
5
181
100
AcDbEntity
8
1
6
CONTINUOUS
62
5
100
AcDb2dPolyline
66
1
10
0.0
20
0.0
30
0.0
70
0
0
VERTEX
5
182
100
AcDbEntity
8
1
100
AcDbVertex
100
AcDb2dVertex
62
5
10
117.000000
20
335.875000
0
VERTEX
5
183
100
AcDbEntity
8
1
100
AcDbVertex
100
AcDb2dVertex
62
5
10
120.250000
20
335.875000
0
VERTEX
5
184
100
AcDbEntity
8
1
100
AcDbVertex
100
AcDb2dVertex
62
5
10
120.250000
20
335.562500
0
VERTEX
5
185
100
AcDbEntity
8
1
100
AcDbVertex
100
AcDb2dVertex
62
5
10
119.750000
20
334.312500
0
VERTEX
5
186
100
AcDbEntity
8
1
100
AcDbVertex
100
AcDb2dVertex
62
5
10
119.250000
20
333.375000
0
VERTEX
5
187
100
AcDbEntity
8
1
100
AcDbVertex
100
AcDb2dVertex
62
5
10
118.250000
20
332.125000
0
VERTEX
5
188
100
AcDbEntity
8
1
100
AcDbVertex
100
AcDb2dVertex
62
5
10
116.500000
20
330.562500
0
SEQEND
5
189
100
AcDbEntity
8
1
0
LINE
5
18a
100
AcDbEntity
8
1
100
AcDbLine
6
CONTINUOUS
62
5
10
119.250000
20
333.375000
11
121.250000
21
330.562500
0
POLYLINE
5
18b
100
AcDbEntity
8
1
6
CONTINUOUS
62
5
100
AcDb2dPolyline
66
1
10
0.0
20
0.0
30
0.0
70
0
0
VERTEX
5
18c
100
AcDbEntity
8
1
100
AcDbVertex
100
AcDb2dVertex
62
5
10
110.250000
20
328.062500
0
VERTEX
5
18d
100
AcDbEntity
8
1
100
AcDbVertex
100
AcDb2dVertex
62
5
10
109.000000
20
327.437500
0
VERTEX
5
18e
100
AcDbEntity
8
1
100
AcDbVertex
100
AcDb2dVertex
62
5
10
107.750000
20
327.125000
0
VERTEX
5
18f
100
AcDbEntity
8
1
100
AcDbVertex
100
AcDb2dVertex
62
5
10
107.750000
20
319.625000
0
SEQEND
5
190
100
AcDbEntity
8
1
0
LINE
5
191
100
AcDbEntity
8
1
100
AcDbLine
6
CONTINUOUS
62
5
10
107.750000
20
324.625000
11
110.500000
21
324.625000
0
LINE
5
192
100
AcDbEntity
8
1
100
AcDbLine
6
CONTINUOUS
62
5
10
107.750000
20
321.500000
11
110.500000
21
321.500000
0
POLYLINE
5
193
100
AcDbEntity
8
1
6
CONTINUOUS
62
5
100
AcDb2dPolyline
66
1
10
0.0
20
0.0
30
0.0
70
0
0
VERTEX
5
194
100
AcDbEntity
8
1
100
AcDbVertex
100
AcDb2dVertex
62
5
10
111.500000
20
319.625000
0
VERTEX
5
195
100
AcDbEntity
8
1
100
AcDbVertex
100
AcDb2dVertex
62
5
10
111.500000
20
327.750000
0
VERTEX
5
196
100
AcDbEntity
8
1
100
AcDbVertex
100
AcDb2dVertex
62
5
10
114.250000
20
327.750000
0
VERTEX
5
197
100
AcDbEntity
8
1
100
AcDbVertex
100
AcDb2dVertex
62
5
10
114.250000
20
320.875000
0
VERTEX
5
198
100
AcDbEntity
8
1
100
AcDbVertex
100
AcDb2dVertex
62
5
10
113.250000
20
320.875000
0
SEQEND
5
199
100
AcDbEntity
8
1
0
POLYLINE
5
19a
100
AcDbEntity
8
1
6
CONTINUOUS
62
5
100
AcDb2dPolyline
66
1
10
0.0
20
0.0
30
0.0
70
0
0
VERTEX
5
19b
100
AcDbEntity
8
1
100
AcDbVertex
100
AcDb2dVertex
62
5
10
115.500000
20
320.250000
0
VERTEX
5
19c
100
AcDbEntity
8
1
100
AcDbVertex
100
AcDb2dVertex
62
5
10
116.000000
20
321.812500
0
VERTEX
5
19d
100
AcDbEntity
8
1
100
AcDbVertex
100
AcDb2dVertex
62
5
10
116.250000
20
324.000000
0
VERTEX
5
19e
100
AcDbEntity
8
1
100
AcDbVertex
100
AcDb2dVertex
62
5
10
116.250000
20
325.875000
0
VERTEX
5
19f
100
AcDbEntity
8
1
100
AcDbVertex
100
AcDb2dVertex
62
5
10
116.250000
20
327.750000
0
VERTEX
5
1a0
100
AcDbEntity
8
1
100
AcDbVertex
100
AcDb2dVertex
62
5
10
119.500000
20
327.750000
0
VERTEX
5
1a1
100
AcDbEntity
8
1
100
AcDbVertex
100
AcDb2dVertex
62
5
10
119.500000
20
325.875000
0
VERTEX
5
1a2
100
AcDbEntity
8
1
100
AcDbVertex
100
AcDb2dVertex
62
5
10
116.250000
20
325.875000
0
SEQEND
5
1a3
100
AcDbEntity
8
1
0
POLYLINE
5
1a4
100
AcDbEntity
8
1
6
CONTINUOUS
62
5
100
AcDb2dPolyline
66
1
10
0.0
20
0.0
30
0.0
70
0
0
VERTEX
5
1a5
100
AcDbEntity
8
1
100
AcDbVertex
100
AcDb2dVertex
62
5
10
116.500000
20
320.562500
0
VERTEX
5
1a6
100
AcDbEntity
8
1
100
AcDbVertex
100
AcDb2dVertex
62
5
10
116.500000
20
324.000000
0
VERTEX
5
1a7
100
AcDbEntity
8
1
100
AcDbVertex
100
AcDb2dVertex
62
5
10
119.500000
20
324.000000
0
VERTEX
5
1a8
100
AcDbEntity
8
1
100
AcDbVertex
100
AcDb2dVertex
62
5
10
119.500000
20
321.187500
0
VERTEX
5
1a9
100
AcDbEntity
8
1
100
AcDbVertex
100
AcDb2dVertex
62
5
10
119.250000
20
320.562500
0
VERTEX
5
1aa
100
AcDbEntity
8
1
100
AcDbVertex
100
AcDb2dVertex
62
5
10
118.750000
20
320.562500
0
SEQEND
5
1ab
100
AcDbEntity
8
1
0
LINE
5
1ac
100
AcDbEntity
8
1
100
AcDbLine
6
CONTINUOUS
62
5
10
118.000000
20
325.250000
11
118.000000
21
319.625000
0
LINE
5
1ad
100
AcDbEntity
8
1
100
AcDbLine
6
CONTINUOUS
62
5
10
120.500000
20
321.812500
11
120.500000
21
327.437500
0
POLYLINE
5
1ae
100
AcDbEntity
8
1
6
CONTINUOUS
62
5
100
AcDb2dPolyline
66
1
10
0.0
20
0.0
30
0.0
70
0
0
VERTEX
5
1af
100
AcDbEntity
8
1
100
AcDbVertex
100
AcDb2dVertex
62
5
10
122.250000
20
328.062500
0
VERTEX
5
1b0
100
AcDbEntity
8
1
100
AcDbVertex
100
AcDb2dVertex
62
5
10
122.250000
20
320.562500
0
VERTEX
5
1b1
100
AcDbEntity
8
1
100
AcDbVertex
100
AcDb2dVertex
62
5
10
121.750000
20
319.625000
0
VERTEX
5
1b2
100
AcDbEntity
8
1
100
AcDbVertex
100
AcDb2dVertex
62
5
10
121.000000
20
319.625000
0
SEQEND
5
1b3
100
AcDbEntity
8
1
0
LINE
5
1b4
100
AcDbEntity
8
1
100
AcDbLine
6
CONTINUOUS
62
5
10
101.250000
20
334.312500
11
101.500000
21
333.062500
0
LINE
5
1b5
100
AcDbEntity
8
1
100
AcDbLine
6
CONTINUOUS
62
5
10
102.750000
20
334.625000
11
103.000000
21
333.375000
0
POLYLINE
5
1b6
100
AcDbEntity
8
1
6
CONTINUOUS
62
5
100
AcDb2dPolyline
66
1
10
0.0
20
0.0
30
0.0
70
0
0
VERTEX
5
1b7
100
AcDbEntity
8
1
100
AcDbVertex
100
AcDb2dVertex
62
5
10
104.750000
20
334.625000
0
VERTEX
5
1b8
100
AcDbEntity
8
1
100
AcDbVertex
100
AcDb2dVertex
62
5
10
104.500000
20
333.062500
0
VERTEX
5
1b9
100
AcDbEntity
8
1
100
AcDbVertex
100
AcDb2dVertex
62
5
10
103.250000
20
331.187500
0
VERTEX
5
1ba
100
AcDbEntity
8
1
100
AcDbVertex
100
AcDb2dVertex
62
5
10
102.250000
20
330.250000
0
SEQEND
5
1bb
100
AcDbEntity
8
1
0
LINE
5
1bc
100
AcDbEntity
8
1
100
AcDbLine
6
CONTINUOUS
62
5
10
94.750000
20
328.375000
11
94.750000
21
323.687500
0
LINE
5
1bd
100
AcDbEntity
8
1
100
AcDbLine
6
CONTINUOUS
62
5
10
91.750000
20
326.812500
11
97.750000
21
326.812500
0
LINE
5
1be
100
AcDbEntity
8
1
100
AcDbLine
6
CONTINUOUS
62
5
10
92.500000
20
325.250000
11
97.250000
21
325.250000
0
LINE
5
1bf
100
AcDbEntity
8
1
100
AcDbLine
6
CONTINUOUS
62
5
10
91.250000
20
323.687500
11
98.500000
21
323.687500
0
POLYLINE
5
1c0
100
AcDbEntity
8
1
6
CONTINUOUS
62
5
100
AcDb2dPolyline
66
1
10
0.0
20
0.0
30
0.0
70
0
0
VERTEX
5
1c1
100
AcDbEntity
8
1
100
AcDbVertex
100
AcDb2dVertex
62
5
10
94.750000
20
323.687500
0
VERTEX
5
1c2
100
AcDbEntity
8
1
100
AcDbVertex
100
AcDb2dVertex
62
5
10
93.250000
20
322.125000
0
VERTEX
5
1c3
100
AcDbEntity
8
1
100
AcDbVertex
100
AcDb2dVertex
62
5
10
91.250000
20
320.875000
0
SEQEND
5
1c4
100
AcDbEntity
8
1
0
LINE
5
1c5
100
AcDbEntity
8
1
100
AcDbLine
6
CONTINUOUS
62
5
10
93.250000
20
322.125000
11
93.250000
21
319.937500
0
POLYLINE
5
1c6
100
AcDbEntity
8
1
6
CONTINUOUS
62
5
100
AcDb2dPolyline
66
1
10
0.0
20
0.0
30
0.0
70
0
0
VERTEX
5
1c7
100
AcDbEntity
8
1
100
AcDbVertex
100
AcDb2dVertex
62
5
10
92.000000
20
319.625000
0
VERTEX
5
1c8
100
AcDbEntity
8
1
100
AcDbVertex
100
AcDb2dVertex
62
5
10
93.250000
20
319.937500
0
VERTEX
5
1c9
100
AcDbEntity
8
1
100
AcDbVertex
100
AcDb2dVertex
62
5
10
94.250000
20
320.250000
0
VERTEX
5
1ca
100
AcDbEntity
8
1
100
AcDbVertex
100
AcDb2dVertex
62
5
10
95.250000
20
320.875000
0
SEQEND
5
1cb
100
AcDbEntity
8
1
0
LINE
5
1cc
100
AcDbEntity
8
1
100
AcDbLine
6
CONTINUOUS
62
5
10
97.500000
20
322.750000
11
96.000000
21
321.500000
0
POLYLINE
5
1cd
100
AcDbEntity
8
1
6
CONTINUOUS
62
5
100
AcDb2dPolyline
66
1
10
0.0
20
0.0
30
0.0
70
0
0
VERTEX
5
1ce
100
AcDbEntity
8
1
100
AcDbVertex
100
AcDb2dVertex
62
5
10
95.000000
20
323.062500
0
VERTEX
5
1cf
100
AcDbEntity
8
1
100
AcDbVertex
100
AcDb2dVertex
62
5
10
96.000000
20
320.875000
0
VERTEX
5
1d0
100
AcDbEntity
8
1
100
AcDbVertex
100
AcDb2dVertex
62
5
10
97.250000
20
319.937500
0
VERTEX
5
1d1
100
AcDbEntity
8
1
100
AcDbVertex
100
AcDb2dVertex
62
5
10
98.250000
20
319.625000
0
SEQEND
5
1d2
100
AcDbEntity
8
1
0
LINE
5
1d3
100
AcDbEntity
8
1
100
AcDbLine
6
CONTINUOUS
62
5
10
100.500000
20
327.750000
11
105.000000
21
327.750000
0
LINE
5
1d4
100
AcDbEntity
8
1
100
AcDbLine
6
CONTINUOUS
62
5
10
99.250000
20
325.562500
11
106.250000
21
325.562500
0
POLYLINE
5
1d5
100
AcDbEntity
8
1
6
CONTINUOUS
62
5
100
AcDb2dPolyline
66
1
10
0.0
20
0.0
30
0.0
70
0
0
VERTEX
5
1d6
100
AcDbEntity
8
1
100
AcDbVertex
100
AcDb2dVertex
62
5
10
102.750000
20
325.562500
0
VERTEX
5
1d7
100
AcDbEntity
8
1
100
AcDbVertex
100
AcDb2dVertex
62
5
10
102.750000
20
319.937500
0
VERTEX
5
1d8
100
AcDbEntity
8
1
100
AcDbVertex
100
AcDb2dVertex
62
5
10
102.250000
20
319.312500
0
VERTEX
5
1d9
100
AcDbEntity
8
1
100
AcDbVertex
100
AcDb2dVertex
62
5
10
101.750000
20
319.312500
0
SEQEND
5
1da
100
AcDbEntity
8
1
0
POLYLINE
5
1db
100
AcDbEntity
8
1
6
CONTINUOUS
62
5
100
AcDb2dPolyline
66
1
10
0.0
20
0.0
30
0.0
70
0
0
VERTEX
5
1dc
100
AcDbEntity
8
1
100
AcDbVertex
100
AcDb2dVertex
62
5
10
101.000000
20
323.062500
0
VERTEX
5
1dd
100
AcDbEntity
8
1
100
AcDbVertex
100
AcDb2dVertex
62
5
10
100.500000
20
321.812500
0
VERTEX
5
1de
100
AcDbEntity
8
1
100
AcDbVertex
100
AcDb2dVertex
62
5
10
99.500000
20
320.562500
0
SEQEND
5
1df
100
AcDbEntity
8
1
0
POLYLINE
5
1e0
100
AcDbEntity
8
1
6
CONTINUOUS
62
5
100
AcDb2dPolyline
66
1
10
0.0
20
0.0
30
0.0
70
0
0
VERTEX
5
1e1
100
AcDbEntity
8
1
100
AcDbVertex
100
AcDb2dVertex
62
5
10
104.250000
20
323.062500
0
VERTEX
5
1e2
100
AcDbEntity
8
1
100
AcDbVertex
100
AcDb2dVertex
62
5
10
105.250000
20
322.125000
0
VERTEX
5
1e3
100
AcDbEntity
8
1
100
AcDbVertex
100
AcDb2dVertex
62
5
10
106.000000
20
320.562500
0
SEQEND
5
1e4
100
AcDbEntity
8
1
0
LINE
5
1e5
100
AcDbEntity
8
1
100
AcDbLine
6
CONTINUOUS
62
5
10
92.250000
20
334.937500
11
97.250000
21
334.937500
0
POLYLINE
5
1e6
100
AcDbEntity
8
1
6
CONTINUOUS
62
5
100
AcDb2dPolyline
66
1
10
0.0
20
0.0
30
0.0
70
0
0
VERTEX
5
1e7
100
AcDbEntity
8
1
100
AcDbVertex
100
AcDb2dVertex
62
5
10
94.750000
20
336.812500
0
VERTEX
5
1e8
100
AcDbEntity
8
1
100
AcDbVertex
100
AcDb2dVertex
62
5
10
94.750000
20
330.562500
0
VERTEX
5
1e9
100
AcDbEntity
8
1
100
AcDbVertex
100
AcDb2dVertex
62
5
10
94.250000
20
330.562500
0
SEQEND
5
1ea
100
AcDbEntity
8
1
0
LINE
5
1eb
100
AcDbEntity
8
1
100
AcDbLine
6
CONTINUOUS
62
5
10
93.250000
20
333.375000
11
92.250000
21
331.500000
0
LINE
5
1ec
100
AcDbEntity
8
1
100
AcDbLine
6
CONTINUOUS
62
5
10
96.250000
20
333.375000
11
97.500000
21
331.812500
0
LINE
5
1ed
100
AcDbEntity
8
1
100
AcDbLine
6
CONTINUOUS
62
5
10
96.250000
20
336.812500
11
97.000000
21
335.875000
0
LINE
5
1ee
100
AcDbEntity
8
1
100
AcDbLine
6
CONTINUOUS
62
5
10
97.000000
20
337.750000
11
97.750000
21
336.812500
0
POLYLINE
5
1ef
100
AcDbEntity
8
1
6
CONTINUOUS
62
5
100
AcDb2dPolyline
66
1
10
0.0
20
0.0
30
0.0
70
0
0
VERTEX
5
1f0
100
AcDbEntity
8
1
100
AcDbVertex
100
AcDb2dVertex
62
5
10
125.500000
20
328.062500
0
VERTEX
5
1f1
100
AcDbEntity
8
1
100
AcDbVertex
100
AcDb2dVertex
62
5
10
124.500000
20
325.250000
0
VERTEX
5
1f2
100
AcDbEntity
8
1
100
AcDbVertex
100
AcDb2dVertex
62
5
10
123.250000
20
323.062500
0
SEQEND
5
1f3
100
AcDbEntity
8
1
0
LINE
5
1f4
100
AcDbEntity
8
1
100
AcDbLine
6
CONTINUOUS
62
5
10
124.500000
20
325.250000
11
124.500000
21
319.312500
0
LINE
5
1f5
100
AcDbEntity
8
1
100
AcDbLine
6
CONTINUOUS
62
5
10
125.250000
20
325.250000
11
130.500000
21
325.250000
0
POLYLINE
5
1f6
100
AcDbEntity
8
1
6
CONTINUOUS
62
5
100
AcDb2dPolyline
66
1
10
0.0
20
0.0
30
0.0
70
0
0
VERTEX
5
1f7
100
AcDbEntity
8
1
100
AcDbVertex
100
AcDb2dVertex
62
5
10
128.750000
20
328.062500
0
VERTEX
5
1f8
100
AcDbEntity
8
1
100
AcDbVertex
100
AcDb2dVertex
62
5
10
128.750000
20
319.625000
0
VERTEX
5
1f9
100
AcDbEntity
8
1
100
AcDbVertex
100
AcDb2dVertex
62
5
10
127.250000
20
319.937500
0
SEQEND
5
1fa
100
AcDbEntity
8
1
0
LINE
5
1fb
100
AcDbEntity
8
1
100
AcDbLine
6
CONTINUOUS
62
5
10
126.250000
20
324.000000
11
127.250000
21
322.125000
0
LINE
5
1fc
100
AcDbEntity
8
1
100
AcDbLine
6
CONTINUOUS
62
5
10
92.500000
20
296.750000
11
95.625000
21
296.750000
0
POLYLINE
5
1fd
100
AcDbEntity
8
1
6
CONTINUOUS
62
5
100
AcDb2dPolyline
66
1
10
0.0
20
0.0
30
0.0
70
0
0
VERTEX
5
1fe
100
AcDbEntity
8
1
100
AcDbVertex
100
AcDb2dVertex
62
5
10
87.500000
20
298.625000
0
VERTEX
5
1ff
100
AcDbEntity
8
1
100
AcDbVertex
100
AcDb2dVertex
62
5
10
87.812500
20
299.875000
0
VERTEX
5
200
100
AcDbEntity
8
1
100
AcDbVertex
100
AcDb2dVertex
62
5
10
88.437500
20
300.500000
0
VERTEX
5
201
100
AcDbEntity
8
1
100
AcDbVertex
100
AcDb2dVertex
62
5
10
89.375000
20
300.500000
0
VERTEX
5
202
100
AcDbEntity
8
1
100
AcDbVertex
100
AcDb2dVertex
62
5
10
90.000000
20
300.187500
0
VERTEX
5
203
100
AcDbEntity
8
1
100
AcDbVertex
100
AcDb2dVertex
62
5
10
90.312500
20
299.250000
0
VERTEX
5
204
100
AcDbEntity
8
1
100
AcDbVertex
100
AcDb2dVertex
62
5
10
90.312500
20
298.000000
0
VERTEX
5
205
100
AcDbEntity
8
1
100
AcDbVertex
100
AcDb2dVertex
62
5
10
90.000000
20
297.375000
0
VERTEX
5
206
100
AcDbEntity
8
1
100
AcDbVertex
100
AcDb2dVertex
62
5
10
89.375000
20
296.750000
0
VERTEX
5
207
100
AcDbEntity
8
1
100
AcDbVertex
100
AcDb2dVertex
62
5
10
88.437500
20
296.750000
0
SEQEND
5
208
100
AcDbEntity
8
1
0
POLYLINE
5
209
100
AcDbEntity
8
1
6
CONTINUOUS
62
5
100
AcDb2dPolyline
66
1
10
0.0
20
0.0
30
0.0
70
0
0
VERTEX
5
20a
100
AcDbEntity
8
1
100
AcDbVertex
100
AcDb2dVertex
62
5
10
89.375000
20
296.750000
0
VERTEX
5
20b
100
AcDbEntity
8
1
100
AcDbVertex
100
AcDb2dVertex
62
5
10
90.312500
20
296.125000
0
VERTEX
5
20c
100
AcDbEntity
8
1
100
AcDbVertex
100
AcDb2dVertex
62
5
10
90.625000
20
295.187500
0
VERTEX
5
20d
100
AcDbEntity
8
1
100
AcDbVertex
100
AcDb2dVertex
62
5
10
90.625000
20
294.250000
0
VERTEX
5
20e
100
AcDbEntity
8
1
100
AcDbVertex
100
AcDb2dVertex
62
5
10
90.312500
20
293.625000
0
VERTEX
5
20f
100
AcDbEntity
8
1
100
AcDbVertex
100
AcDb2dVertex
62
5
10
89.375000
20
293.000000
0
VERTEX
5
210
100
AcDbEntity
8
1
100
AcDbVertex
100
AcDb2dVertex
62
5
10
88.437500
20
293.000000
0
VERTEX
5
211
100
AcDbEntity
8
1
100
AcDbVertex
100
AcDb2dVertex
62
5
10
87.812500
20
293.312500
0
VERTEX
5
212
100
AcDbEntity
8
1
100
AcDbVertex
100
AcDb2dVertex
62
5
10
87.187500
20
294.250000
0
SEQEND
5
213
100
AcDbEntity
8
1
0
LINE
5
214
100
AcDbEntity
8
1
100
AcDbLine
6
CONTINUOUS
62
5
10
97.500000
20
300.500000
11
97.500000
21
293.000000
0
POLYLINE
5
215
100
AcDbEntity
8
1
6
CONTINUOUS
62
5
100
AcDb2dPolyline
66
1
10
0.0
20
0.0
30
0.0
70
0
0
VERTEX
5
216
100
AcDbEntity
8
1
100
AcDbVertex
100
AcDb2dVertex
62
5
10
97.500000
20
300.500000
0
VERTEX
5
217
100
AcDbEntity
8
1
100
AcDbVertex
100
AcDb2dVertex
62
5
10
99.062500
20
300.500000
0
VERTEX
5
218
100
AcDbEntity
8
1
100
AcDbVertex
100
AcDb2dVertex
62
5
10
99.687500
20
300.187500
0
VERTEX
5
219
100
AcDbEntity
8
1
100
AcDbVertex
100
AcDb2dVertex
62
5
10
100.312500
20
299.562500
0
VERTEX
5
21a
100
AcDbEntity
8
1
100
AcDbVertex
100
AcDb2dVertex
62
5
10
100.625000
20
298.312500
0
VERTEX
5
21b
100
AcDbEntity
8
1
100
AcDbVertex
100
AcDb2dVertex
62
5
10
100.625000
20
295.187500
0
VERTEX
5
21c
100
AcDbEntity
8
1
100
AcDbVertex
100
AcDb2dVertex
62
5
10
100.312500
20
293.937500
0
VERTEX
5
21d
100
AcDbEntity
8
1
100
AcDbVertex
100
AcDb2dVertex
62
5
10
99.687500
20
293.312500
0
VERTEX
5
21e
100
AcDbEntity
8
1
100
AcDbVertex
100
AcDb2dVertex
62
5
10
99.062500
20
293.000000
0
VERTEX
5
21f
100
AcDbEntity
8
1
100
AcDbVertex
100
AcDb2dVertex
62
5
10
97.500000
20
293.000000
0
SEQEND
5
220
100
AcDbEntity
8
1
0
POLYLINE
5
221
100
AcDbEntity
8
1
6
CONTINUOUS
62
5
100
AcDb2dPolyline
66
1
10
0.0
20
0.0
30
0.0
70
0
0
VERTEX
5
222
100
AcDbEntity
8
1
100
AcDbVertex
100
AcDb2dVertex
62
5
10
102.187500
20
300.500000
0
VERTEX
5
223
100
AcDbEntity
8
1
100
AcDbVertex
100
AcDb2dVertex
62
5
10
103.125000
20
293.000000
0
VERTEX
5
224
100
AcDbEntity
8
1
100
AcDbVertex
100
AcDb2dVertex
62
5
10
104.062500
20
300.500000
0
VERTEX
5
225
100
AcDbEntity
8
1
100
AcDbVertex
100
AcDb2dVertex
62
5
10
105.000000
20
293.000000
0
VERTEX
5
226
100
AcDbEntity
8
1
100
AcDbVertex
100
AcDb2dVertex
62
5
10
105.937500
20
300.500000
0
SEQEND
5
227
100
AcDbEntity
8
1
0
POLYLINE
5
228
100
AcDbEntity
8
1
6
CONTINUOUS
62
5
100
AcDb2dPolyline
66
1
10
0.0
20
0.0
30
0.0
70
0
0
VERTEX
5
229
100
AcDbEntity
8
1
100
AcDbVertex
100
AcDb2dVertex
62
5
10
107.500000
20
298.625000
0
VERTEX
5
22a
100
AcDbEntity
8
1
100
AcDbVertex
100
AcDb2dVertex
62
5
10
107.812500
20
299.875000
0
VERTEX
5
22b
100
AcDbEntity
8
1
100
AcDbVertex
100
AcDb2dVertex
62
5
10
108.437500
20
300.500000
0
VERTEX
5
22c
100
AcDbEntity
8
1
100
AcDbVertex
100
AcDb2dVertex
62
5
10
109.375000
20
300.500000
0
VERTEX
5
22d
100
AcDbEntity
8
1
100
AcDbVertex
100
AcDb2dVertex
62
5
10
110.000000
20
300.187500
0
VERTEX
5
22e
100
AcDbEntity
8
1
100
AcDbVertex
100
AcDb2dVertex
62
5
10
110.312500
20
299.250000
0
VERTEX
5
22f
100
AcDbEntity
8
1
100
AcDbVertex
100
AcDb2dVertex
62
5
10
110.312500
20
298.000000
0
VERTEX
5
230
100
AcDbEntity
8
1
100
AcDbVertex
100
AcDb2dVertex
62
5
10
110.000000
20
297.375000
0
VERTEX
5
231
100
AcDbEntity
8
1
100
AcDbVertex
100
AcDb2dVertex
62
5
10
109.375000
20
296.750000
0
VERTEX
5
232
100
AcDbEntity
8
1
100
AcDbVertex
100
AcDb2dVertex
62
5
10
108.437500
20
296.750000
0
SEQEND
5
233
100
AcDbEntity
8
1
0
POLYLINE
5
234
100
AcDbEntity
8
1
6
CONTINUOUS
62
5
100
AcDb2dPolyline
66
1
10
0.0
20
0.0
30
0.0
70
0
0
VERTEX
5
235
100
AcDbEntity
8
1
100
AcDbVertex
100
AcDb2dVertex
62
5
10
109.375000
20
296.750000
0
VERTEX
5
236
100
AcDbEntity
8
1
100
AcDbVertex
100
AcDb2dVertex
62
5
10
110.312500
20
296.125000
0
VERTEX
5
237
100
AcDbEntity
8
1
100
AcDbVertex
100
AcDb2dVertex
62
5
10
110.625000
20
295.187500
0
VERTEX
5
238
100
AcDbEntity
8
1
100
AcDbVertex
100
AcDb2dVertex
62
5
10
110.625000
20
294.250000
0
VERTEX
5
239
100
AcDbEntity
8
1
100
AcDbVertex
100
AcDb2dVertex
62
5
10
110.312500
20
293.625000
0
VERTEX
5
23a
100
AcDbEntity
8
1
100
AcDbVertex
100
AcDb2dVertex
62
5
10
109.375000
20
293.000000
0
VERTEX
5
23b
100
AcDbEntity
8
1
100
AcDbVertex
100
AcDb2dVertex
62
5
10
108.437500
20
293.000000
0
VERTEX
5
23c
100
AcDbEntity
8
1
100
AcDbVertex
100
AcDb2dVertex
62
5
10
107.812500
20
293.312500
0
VERTEX
5
23d
100
AcDbEntity
8
1
100
AcDbVertex
100
AcDb2dVertex
62
5
10
107.187500
20
294.250000
0
SEQEND
5
23e
100
AcDbEntity
8
1
0
LINE
5
23f
100
AcDbEntity
8
1
100
AcDbLine
6
CONTINUOUS
62
5
10
117.500000
20
300.500000
11
117.500000
21
293.000000
0
POLYLINE
5
240
100
AcDbEntity
8
1
6
CONTINUOUS
62
5
100
AcDb2dPolyline
66
1
10
0.0
20
0.0
30
0.0
70
0
0
VERTEX
5
241
100
AcDbEntity
8
1
100
AcDbVertex
100
AcDb2dVertex
62
5
10
117.500000
20
300.500000
0
VERTEX
5
242
100
AcDbEntity
8
1
100
AcDbVertex
100
AcDb2dVertex
62
5
10
118.750000
20
300.500000
0
VERTEX
5
243
100
AcDbEntity
8
1
100
AcDbVertex
100
AcDb2dVertex
62
5
10
119.687500
20
300.187500
0
VERTEX
5
244
100
AcDbEntity
8
1
100
AcDbVertex
100
AcDb2dVertex
62
5
10
120.312500
20
299.562500
0
VERTEX
5
245
100
AcDbEntity
8
1
100
AcDbVertex
100
AcDb2dVertex
62
5
10
120.625000
20
298.937500
0
VERTEX
5
246
100
AcDbEntity
8
1
100
AcDbVertex
100
AcDb2dVertex
62
5
10
120.625000
20
298.000000
0
VERTEX
5
247
100
AcDbEntity
8
1
100
AcDbVertex
100
AcDb2dVertex
62
5
10
120.312500
20
297.375000
0
VERTEX
5
248
100
AcDbEntity
8
1
100
AcDbVertex
100
AcDb2dVertex
62
5
10
119.687500
20
296.750000
0
VERTEX
5
249
100
AcDbEntity
8
1
100
AcDbVertex
100
AcDb2dVertex
62
5
10
118.750000
20
296.437500
0
VERTEX
5
24a
100
AcDbEntity
8
1
100
AcDbVertex
100
AcDb2dVertex
62
5
10
117.500000
20
296.437500
0
SEQEND
5
24b
100
AcDbEntity
8
1
0
POLYLINE
5
24c
100
AcDbEntity
8
1
6
CONTINUOUS
62
5
100
AcDb2dPolyline
66
1
10
0.0
20
0.0
30
0.0
70
0
0
VERTEX
5
24d
100
AcDbEntity
8
1
100
AcDbVertex
100
AcDb2dVertex
62
5
10
122.187500
20
300.500000
0
VERTEX
5
24e
100
AcDbEntity
8
1
100
AcDbVertex
100
AcDb2dVertex
62
5
10
123.125000
20
293.000000
0
VERTEX
5
24f
100
AcDbEntity
8
1
100
AcDbVertex
100
AcDb2dVertex
62
5
10
124.062500
20
300.500000
0
VERTEX
5
250
100
AcDbEntity
8
1
100
AcDbVertex
100
AcDb2dVertex
62
5
10
125.000000
20
293.000000
0
VERTEX
5
251
100
AcDbEntity
8
1
100
AcDbVertex
100
AcDb2dVertex
62
5
10
125.937500
20
300.500000
0
SEQEND
5
252
100
AcDbEntity
8
1
0
POLYLINE
5
253
100
AcDbEntity
8
1
6
CONTINUOUS
62
5
100
AcDb2dPolyline
66
1
10
0.0
20
0.0
30
0.0
70
0
0
VERTEX
5
254
100
AcDbEntity
8
1
100
AcDbVertex
100
AcDb2dVertex
62
5
10
76.500000
20
327.750000
0
VERTEX
5
255
100
AcDbEntity
8
1
100
AcDbVertex
100
AcDb2dVertex
62
5
10
76.500000
20
322.125000
0
VERTEX
5
256
100
AcDbEntity
8
1
100
AcDbVertex
100
AcDb2dVertex
62
5
10
76.000000
20
320.875000
0
VERTEX
5
257
100
AcDbEntity
8
1
100
AcDbVertex
100
AcDb2dVertex
62
5
10
75.500000
20
319.937500
0
SEQEND
5
258
100
AcDbEntity
8
1
0
POLYLINE
5
259
100
AcDbEntity
8
1
6
CONTINUOUS
62
5
100
AcDb2dPolyline
66
1
10
0.0
20
0.0
30
0.0
70
0
0
VERTEX
5
25a
100
AcDbEntity
8
1
100
AcDbVertex
100
AcDb2dVertex
62
5
10
80.500000
20
320.250000
0
VERTEX
5
25b
100
AcDbEntity
8
1
100
AcDbVertex
100
AcDb2dVertex
62
5
10
81.500000
20
319.625000
0
VERTEX
5
25c
100
AcDbEntity
8
1
100
AcDbVertex
100
AcDb2dVertex
62
5
10
81.500000
20
327.750000
0
VERTEX
5
25d
100
AcDbEntity
8
1
100
AcDbVertex
100
AcDb2dVertex
62
5
10
76.500000
20
327.750000
0
SEQEND
5
25e
100
AcDbEntity
8
1
0
LINE
5
25f
100
AcDbEntity
8
1
100
AcDbLine
6
CONTINUOUS
62
5
10
76.500000
20
325.250000
11
81.500000
21
325.250000
0
LINE
5
260
100
AcDbEntity
8
1
100
AcDbLine
6
CONTINUOUS
62
5
10
79.000000
20
327.750000
11
79.000000
21
319.625000
0
LINE
5
261
100
AcDbEntity
8
1
100
AcDbLine
6
CONTINUOUS
62
5
10
76.500000
20
322.750000
11
81.500000
21
322.750000
0
LINE
5
262
100
AcDbEntity
8
1
100
AcDbLine
6
CONTINUOUS
62
5
10
76.000000
20
338.062500
11
81.750000
21
338.062500
0
POLYLINE
5
263
100
AcDbEntity
8
1
6
CONTINUOUS
62
5
100
AcDb2dPolyline
66
1
10
0.0
20
0.0
30
0.0
70
0
0
VERTEX
5
264
100
AcDbEntity
8
1
100
AcDbVertex
100
AcDb2dVertex
62
5
10
75.750000
20
335.250000
0
VERTEX
5
265
100
AcDbEntity
8
1
100
AcDbVertex
100
AcDb2dVertex
62
5
10
75.750000
20
337.125000
0
VERTEX
5
266
100
AcDbEntity
8
1
100
AcDbVertex
100
AcDb2dVertex
62
5
10
82.250000
20
337.125000
0
VERTEX
5
267
100
AcDbEntity
8
1
100
AcDbVertex
100
AcDb2dVertex
62
5
10
82.250000
20
335.250000
0
SEQEND
5
268
100
AcDbEntity
8
1
0
LINE
5
269
100
AcDbEntity
8
1
100
AcDbLine
6
CONTINUOUS
62
5
10
79.000000
20
338.062500
11
79.000000
21
334.625000
0
LINE
5
26a
100
AcDbEntity
8
1
100
AcDbLine
6
CONTINUOUS
62
5
10
76.500000
20
336.187500
11
78.250000
21
336.187500
0
LINE
5
26b
100
AcDbEntity
8
1
100
AcDbLine
6
CONTINUOUS
62
5
10
76.500000
20
335.250000
11
78.250000
21
335.250000
0
LINE
5
26c
100
AcDbEntity
8
1
100
AcDbLine
6
CONTINUOUS
62
5
10
79.750000
20
336.187500
11
81.500000
21
336.187500
0
LINE
5
26d
100
AcDbEntity
8
1
100
AcDbLine
6
CONTINUOUS
62
5
10
79.750000
20
335.250000
11
81.500000
21
335.250000
0
POLYLINE
5
26e
100
AcDbEntity
8
1
6
CONTINUOUS
62
5
100
AcDb2dPolyline
66
1
10
0.0
20
0.0
30
0.0
70
1
0
VERTEX
5
26f
100
AcDbEntity
8
1
100
AcDbVertex
100
AcDb2dVertex
62
5
10
76.000000
20
334.000000
0
VERTEX
5
270
100
AcDbEntity
8
1
100
AcDbVertex
100
AcDb2dVertex
62
5
10
76.000000
20
332.750000
0
VERTEX
5
271
100
AcDbEntity
8
1
100
AcDbVertex
100
AcDb2dVertex
62
5
10
78.000000
20
332.750000
0
VERTEX
5
272
100
AcDbEntity
8
1
100
AcDbVertex
100
AcDb2dVertex
62
5
10
78.000000
20
334.000000
0
VERTEX
5
273
100
AcDbEntity
8
1
100
AcDbVertex
100
AcDb2dVertex
62
5
10
76.000000
20
334.000000
0
SEQEND
5
274
100
AcDbEntity
8
1
0
LINE
5
275
100
AcDbEntity
8
1
100
AcDbLine
6
CONTINUOUS
62
5
10
77.000000
20
332.750000
11
77.000000
21
330.250000
0
LINE
5
276
100
AcDbEntity
8
1
100
AcDbLine
6
CONTINUOUS
62
5
10
77.000000
20
331.812500
11
78.000000
21
331.812500
0
LINE
5
277
100
AcDbEntity
8
1
100
AcDbLine
6
CONTINUOUS
62
5
10
76.000000
20
332.125000
11
76.000000
21
329.937500
0
LINE
5
278
100
AcDbEntity
8
1
100
AcDbLine
6
CONTINUOUS
62
5
10
75.500000
20
329.625000
11
78.000000
21
330.562500
0
POLYLINE
5
279
100
AcDbEntity
8
1
6
CONTINUOUS
62
5
100
AcDb2dPolyline
66
1
10
0.0
20
0.0
30
0.0
70
0
0
VERTEX
5
27a
100
AcDbEntity
8
1
100
AcDbVertex
100
AcDb2dVertex
62
5
10
80.000000
20
334.312500
0
VERTEX
5
27b
100
AcDbEntity
8
1
100
AcDbVertex
100
AcDb2dVertex
62
5
10
79.750000
20
333.687500
0
VERTEX
5
27c
100
AcDbEntity
8
1
100
AcDbVertex
100
AcDb2dVertex
62
5
10
79.250000
20
333.062500
0
VERTEX
5
27d
100
AcDbEntity
8
1
100
AcDbVertex
100
AcDb2dVertex
62
5
10
78.750000
20
332.750000
0
SEQEND
5
27e
100
AcDbEntity
8
1
0
POLYLINE
5
27f
100
AcDbEntity
8
1
6
CONTINUOUS
62
5
100
AcDb2dPolyline
66
1
10
0.0
20
0.0
30
0.0
70
0
0
VERTEX
5
280
100
AcDbEntity
8
1
100
AcDbVertex
100
AcDb2dVertex
62
5
10
79.750000
20
333.687500
0
VERTEX
5
281
100
AcDbEntity
8
1
100
AcDbVertex
100
AcDb2dVertex
62
5
10
81.750000
20
333.687500
0
VERTEX
5
282
100
AcDbEntity
8
1
100
AcDbVertex
100
AcDb2dVertex
62
5
10
81.000000
20
332.750000
0
VERTEX
5
283
100
AcDbEntity
8
1
100
AcDbVertex
100
AcDb2dVertex
62
5
10
80.250000
20
332.125000
0
VERTEX
5
284
100
AcDbEntity
8
1
100
AcDbVertex
100
AcDb2dVertex
62
5
10
78.500000
20
331.500000
0
SEQEND
5
285
100
AcDbEntity
8
1
0
POLYLINE
5
286
100
AcDbEntity
8
1
6
CONTINUOUS
62
5
100
AcDb2dPolyline
66
1
10
0.0
20
0.0
30
0.0
70
0
0
VERTEX
5
287
100
AcDbEntity
8
1
100
AcDbVertex
100
AcDb2dVertex
62
5
10
79.500000
20
333.375000
0
VERTEX
5
288
100
AcDbEntity
8
1
100
AcDbVertex
100
AcDb2dVertex
62
5
10
80.000000
20
332.750000
0
VERTEX
5
289
100
AcDbEntity
8
1
100
AcDbVertex
100
AcDb2dVertex
62
5
10
80.750000
20
332.125000
0
VERTEX
5
28a
100
AcDbEntity
8
1
100
AcDbVertex
100
AcDb2dVertex
62
5
10
82.500000
20
331.500000
0
SEQEND
5
28b
100
AcDbEntity
8
1
0
POLYLINE
5
28c
100
AcDbEntity
8
1
6
CONTINUOUS
62
5
100
AcDb2dPolyline
66
1
10
0.0
20
0.0
30
0.0
70
1
0
VERTEX
5
28d
100
AcDbEntity
8
1
100
AcDbVertex
100
AcDb2dVertex
62
5
10
79.250000
20
331.500000
0
VERTEX
5
28e
100
AcDbEntity
8
1
100
AcDbVertex
100
AcDb2dVertex
62
5
10
79.250000
20
329.937500
0
VERTEX
5
28f
100
AcDbEntity
8
1
100
AcDbVertex
100
AcDb2dVertex
62
5
10
81.750000
20
329.937500
0
VERTEX
5
290
100
AcDbEntity
8
1
100
AcDbVertex
100
AcDb2dVertex
62
5
10
81.750000
20
331.500000
0
VERTEX
5
291
100
AcDbEntity
8
1
100
AcDbVertex
100
AcDb2dVertex
62
5
10
79.250000
20
331.500000
0
SEQEND
5
292
100
AcDbEntity
8
1
0
LINE
5
293
100
AcDbEntity
8
1
100
AcDbLine
6
CONTINUOUS
62
5
10
50.000000
20
350.000000
11
50.000000
21
318.000000
0
LINE
5
294
100
AcDbEntity
8
1
100
AcDbLine
6
CONTINUOUS
62
5
10
50.000000
20
350.000000
11
50.000000
21
318.000000
0
LINE
5
295
100
AcDbEntity
8
1
100
AcDbLine
6
CONTINUOUS
62
5
10
77.500000
20
296.750000
11
80.625000
21
296.750000
0
POLYLINE
5
296
100
AcDbEntity
8
1
6
CONTINUOUS
62
5
100
AcDb2dPolyline
66
1
10
0.0
20
0.0
30
0.0
70
0
0
VERTEX
5
297
100
AcDbEntity
8
1
100
AcDbVertex
100
AcDb2dVertex
62
5
10
65.625000
20
298.937500
0
VERTEX
5
298
100
AcDbEntity
8
1
100
AcDbVertex
100
AcDb2dVertex
62
5
10
65.312500
20
299.875000
0
VERTEX
5
299
100
AcDbEntity
8
1
100
AcDbVertex
100
AcDb2dVertex
62
5
10
64.687500
20
300.500000
0
VERTEX
5
29a
100
AcDbEntity
8
1
100
AcDbVertex
100
AcDb2dVertex
62
5
10
63.750000
20
300.500000
0
VERTEX
5
29b
100
AcDbEntity
8
1
100
AcDbVertex
100
AcDb2dVertex
62
5
10
62.812500
20
299.562500
0
VERTEX
5
29c
100
AcDbEntity
8
1
100
AcDbVertex
100
AcDb2dVertex
62
5
10
62.500000
20
298.000000
0
VERTEX
5
29d
100
AcDbEntity
8
1
100
AcDbVertex
100
AcDb2dVertex
62
5
10
62.500000
20
295.500000
0
VERTEX
5
29e
100
AcDbEntity
8
1
100
AcDbVertex
100
AcDb2dVertex
62
5
10
62.812500
20
293.937500
0
VERTEX
5
29f
100
AcDbEntity
8
1
100
AcDbVertex
100
AcDb2dVertex
62
5
10
63.750000
20
293.000000
0
VERTEX
5
2a0
100
AcDbEntity
8
1
100
AcDbVertex
100
AcDb2dVertex
62
5
10
64.687500
20
293.000000
0
VERTEX
5
2a1
100
AcDbEntity
8
1
100
AcDbVertex
100
AcDb2dVertex
62
5
10
65.312500
20
293.625000
0
VERTEX
5
2a2
100
AcDbEntity
8
1
100
AcDbVertex
100
AcDb2dVertex
62
5
10
65.937500
20
295.187500
0
SEQEND
5
2a3
100
AcDbEntity
8
1
0
POLYLINE
5
2a4
100
AcDbEntity
8
1
6
CONTINUOUS
62
5
100
AcDb2dPolyline
66
1
10
0.0
20
0.0
30
0.0
70
0
0
VERTEX
5
2a5
100
AcDbEntity
8
1
100
AcDbVertex
100
AcDb2dVertex
62
5
10
70.625000
20
298.937500
0
VERTEX
5
2a6
100
AcDbEntity
8
1
100
AcDbVertex
100
AcDb2dVertex
62
5
10
70.000000
20
300.187500
0
VERTEX
5
2a7
100
AcDbEntity
8
1
100
AcDbVertex
100
AcDb2dVertex
62
5
10
69.062500
20
300.500000
0
VERTEX
5
2a8
100
AcDbEntity
8
1
100
AcDbVertex
100
AcDb2dVertex
62
5
10
68.437500
20
300.500000
0
VERTEX
5
2a9
100
AcDbEntity
8
1
100
AcDbVertex
100
AcDb2dVertex
62
5
10
67.812500
20
300.187500
0
VERTEX
5
2aa
100
AcDbEntity
8
1
100
AcDbVertex
100
AcDb2dVertex
62
5
10
67.187500
20
299.250000
0
VERTEX
5
2ab
100
AcDbEntity
8
1
100
AcDbVertex
100
AcDb2dVertex
62
5
10
67.187500
20
298.312500
0
VERTEX
5
2ac
100
AcDbEntity
8
1
100
AcDbVertex
100
AcDb2dVertex
62
5
10
67.812500
20
297.375000
0
VERTEX
5
2ad
100
AcDbEntity
8
1
100
AcDbVertex
100
AcDb2dVertex
62
5
10
70.000000
20
296.125000
0
VERTEX
5
2ae
100
AcDbEntity
8
1
100
AcDbVertex
100
AcDb2dVertex
62
5
10
70.625000
20
295.187500
0
VERTEX
5
2af
100
AcDbEntity
8
1
100
AcDbVertex
100
AcDb2dVertex
62
5
10
70.625000
20
294.250000
0
VERTEX
5
2b0
100
AcDbEntity
8
1
100
AcDbVertex
100
AcDb2dVertex
62
5
10
70.000000
20
293.312500
0
VERTEX
5
2b1
100
AcDbEntity
8
1
100
AcDbVertex
100
AcDb2dVertex
62
5
10
69.062500
20
293.000000
0
VERTEX
5
2b2
100
AcDbEntity
8
1
100
AcDbVertex
100
AcDb2dVertex
62
5
10
68.437500
20
293.000000
0
VERTEX
5
2b3
100
AcDbEntity
8
1
100
AcDbVertex
100
AcDb2dVertex
62
5
10
67.500000
20
293.625000
0
VERTEX
5
2b4
100
AcDbEntity
8
1
100
AcDbVertex
100
AcDb2dVertex
62
5
10
67.187500
20
294.875000
0
SEQEND
5
2b5
100
AcDbEntity
8
1
0
LINE
5
2b6
100
AcDbEntity
8
1
100
AcDbLine
6
CONTINUOUS
62
5
10
72.500000
20
300.500000
11
72.500000
21
293.000000
0
POLYLINE
5
2b7
100
AcDbEntity
8
1
6
CONTINUOUS
62
5
100
AcDb2dPolyline
66
1
10
0.0
20
0.0
30
0.0
70
0
0
VERTEX
5
2b8
100
AcDbEntity
8
1
100
AcDbVertex
100
AcDb2dVertex
62
5
10
72.500000
20
300.500000
0
VERTEX
5
2b9
100
AcDbEntity
8
1
100
AcDbVertex
100
AcDb2dVertex
62
5
10
74.062500
20
300.500000
0
VERTEX
5
2ba
100
AcDbEntity
8
1
100
AcDbVertex
100
AcDb2dVertex
62
5
10
74.687500
20
300.187500
0
VERTEX
5
2bb
100
AcDbEntity
8
1
100
AcDbVertex
100
AcDb2dVertex
62
5
10
75.000000
20
299.875000
0
VERTEX
5
2bc
100
AcDbEntity
8
1
100
AcDbVertex
100
AcDb2dVertex
62
5
10
75.312500
20
299.250000
0
VERTEX
5
2bd
100
AcDbEntity
8
1
100
AcDbVertex
100
AcDb2dVertex
62
5
10
75.312500
20
298.312500
0
VERTEX
5
2be
100
AcDbEntity
8
1
100
AcDbVertex
100
AcDb2dVertex
62
5
10
75.000000
20
297.687500
0
VERTEX
5
2bf
100
AcDbEntity
8
1
100
AcDbVertex
100
AcDb2dVertex
62
5
10
74.687500
20
297.375000
0
VERTEX
5
2c0
100
AcDbEntity
8
1
100
AcDbVertex
100
AcDb2dVertex
62
5
10
74.062500
20
297.062500
0
VERTEX
5
2c1
100
AcDbEntity
8
1
100
AcDbVertex
100
AcDb2dVertex
62
5
10
72.500000
20
297.062500
0
SEQEND
5
2c2
100
AcDbEntity
8
1
0
POLYLINE
5
2c3
100
AcDbEntity
8
1
6
CONTINUOUS
62
5
100
AcDb2dPolyline
66
1
10
0.0
20
0.0
30
0.0
70
0
0
VERTEX
5
2c4
100
AcDbEntity
8
1
100
AcDbVertex
100
AcDb2dVertex
62
5
10
74.062500
20
297.062500
0
VERTEX
5
2c5
100
AcDbEntity
8
1
100
AcDbVertex
100
AcDb2dVertex
62
5
10
74.687500
20
296.750000
0
VERTEX
5
2c6
100
AcDbEntity
8
1
100
AcDbVertex
100
AcDb2dVertex
62
5
10
75.312500
20
296.125000
0
VERTEX
5
2c7
100
AcDbEntity
8
1
100
AcDbVertex
100
AcDb2dVertex
62
5
10
75.625000
20
295.500000
0
VERTEX
5
2c8
100
AcDbEntity
8
1
100
AcDbVertex
100
AcDb2dVertex
62
5
10
75.625000
20
294.250000
0
VERTEX
5
2c9
100
AcDbEntity
8
1
100
AcDbVertex
100
AcDb2dVertex
62
5
10
75.312500
20
293.625000
0
VERTEX
5
2ca
100
AcDbEntity
8
1
100
AcDbVertex
100
AcDb2dVertex
62
5
10
75.000000
20
293.312500
0
VERTEX
5
2cb
100
AcDbEntity
8
1
100
AcDbVertex
100
AcDb2dVertex
62
5
10
74.375000
20
293.000000
0
VERTEX
5
2cc
100
AcDbEntity
8
1
100
AcDbVertex
100
AcDb2dVertex
62
5
10
72.500000
20
293.000000
0
SEQEND
5
2cd
100
AcDbEntity
8
1
0
POLYLINE
5
2ce
100
AcDbEntity
8
1
6
CONTINUOUS
62
5
100
AcDb2dPolyline
66
1
10
0.0
20
0.0
30
0.0
70
0
0
VERTEX
5
2cf
100
AcDbEntity
8
1
100
AcDbVertex
100
AcDb2dVertex
62
5
10
84.500000
20
337.125000
0
VERTEX
5
2d0
100
AcDbEntity
8
1
100
AcDbVertex
100
AcDb2dVertex
62
5
10
84.500000
20
334.312500
0
VERTEX
5
2d1
100
AcDbEntity
8
1
100
AcDbVertex
100
AcDb2dVertex
62
5
10
89.000000
20
334.312500
0
VERTEX
5
2d2
100
AcDbEntity
8
1
100
AcDbVertex
100
AcDb2dVertex
62
5
10
89.000000
20
337.125000
0
SEQEND
5
2d3
100
AcDbEntity
8
1
0
LINE
5
2d4
100
AcDbEntity
8
1
100
AcDbLine
6
CONTINUOUS
62
5
10
86.750000
20
338.375000
11
86.750000
21
329.625000
0
POLYLINE
5
2d5
100
AcDbEntity
8
1
6
CONTINUOUS
62
5
100
AcDb2dPolyline
66
1
10
0.0
20
0.0
30
0.0
70
0
0
VERTEX
5
2d6
100
AcDbEntity
8
1
100
AcDbVertex
100
AcDb2dVertex
62
5
10
84.000000
20
332.750000
0
VERTEX
5
2d7
100
AcDbEntity
8
1
100
AcDbVertex
100
AcDb2dVertex
62
5
10
84.000000
20
329.625000
0
VERTEX
5
2d8
100
AcDbEntity
8
1
100
AcDbVertex
100
AcDb2dVertex
62
5
10
89.500000
20
329.625000
0
VERTEX
5
2d9
100
AcDbEntity
8
1
100
AcDbVertex
100
AcDb2dVertex
62
5
10
89.500000
20
332.750000
0
SEQEND
5
2da
100
AcDbEntity
8
1
0
LINE
5
2db
100
AcDbEntity
8
1
100
AcDbLine
6
CONTINUOUS
62
5
10
83.750000
20
327.750000
11
85.000000
21
326.812500
0
POLYLINE
5
2dc
100
AcDbEntity
8
1
6
CONTINUOUS
62
5
100
AcDb2dPolyline
66
1
10
0.0
20
0.0
30
0.0
70
0
0
VERTEX
5
2dd
100
AcDbEntity
8
1
100
AcDbVertex
100
AcDb2dVertex
62
5
10
83.250000
20
324.625000
0
VERTEX
5
2de
100
AcDbEntity
8
1
100
AcDbVertex
100
AcDb2dVertex
62
5
10
84.750000
20
324.625000
0
VERTEX
5
2df
100
AcDbEntity
8
1
100
AcDbVertex
100
AcDb2dVertex
62
5
10
84.750000
20
321.500000
0
VERTEX
5
2e0
100
AcDbEntity
8
1
100
AcDbVertex
100
AcDb2dVertex
62
5
10
83.250000
20
319.625000
0
SEQEND
5
2e1
100
AcDbEntity
8
1
0
POLYLINE
5
2e2
100
AcDbEntity
8
1
6
CONTINUOUS
62
5
100
AcDb2dPolyline
66
1
10
0.0
20
0.0
30
0.0
70
0
0
VERTEX
5
2e3
100
AcDbEntity
8
1
100
AcDbVertex
100
AcDb2dVertex
62
5
10
84.750000
20
321.500000
0
VERTEX
5
2e4
100
AcDbEntity
8
1
100
AcDbVertex
100
AcDb2dVertex
62
5
10
85.750000
20
320.250000
0
VERTEX
5
2e5
100
AcDbEntity
8
1
100
AcDbVertex
100
AcDb2dVertex
62
5
10
86.250000
20
319.625000
0
VERTEX
5
2e6
100
AcDbEntity
8
1
100
AcDbVertex
100
AcDb2dVertex
62
5
10
90.250000
20
319.312500
0
SEQEND
5
2e7
100
AcDbEntity
8
1
0
POLYLINE
5
2e8
100
AcDbEntity
8
1
6
CONTINUOUS
62
5
100
AcDb2dPolyline
66
1
10
0.0
20
0.0
30
0.0
70
0
0
VERTEX
5
2e9
100
AcDbEntity
8
1
100
AcDbVertex
100
AcDb2dVertex
62
5
10
85.250000
20
325.562500
0
VERTEX
5
2ea
100
AcDbEntity
8
1
100
AcDbVertex
100
AcDb2dVertex
62
5
10
87.750000
20
328.375000
0
VERTEX
5
2eb
100
AcDbEntity
8
1
100
AcDbVertex
100
AcDb2dVertex
62
5
10
90.500000
20
325.562500
0
SEQEND
5
2ec
100
AcDbEntity
8
1
0
LINE
5
2ed
100
AcDbEntity
8
1
100
AcDbLine
6
CONTINUOUS
62
5
10
86.250000
20
325.875000
11
89.500000
21
325.875000
0
LINE
5
2ee
100
AcDbEntity
8
1
100
AcDbLine
6
CONTINUOUS
62
5
10
85.500000
20
324.000000
11
90.250000
21
324.000000
0
POLYLINE
5
2ef
100
AcDbEntity
8
1
6
CONTINUOUS
62
5
100
AcDb2dPolyline
66
1
10
0.0
20
0.0
30
0.0
70
0
0
VERTEX
5
2f0
100
AcDbEntity
8
1
100
AcDbVertex
100
AcDb2dVertex
62
5
10
87.750000
20
325.875000
0
VERTEX
5
2f1
100
AcDbEntity
8
1
100
AcDbVertex
100
AcDb2dVertex
62
5
10
87.750000
20
320.250000
0
VERTEX
5
2f2
100
AcDbEntity
8
1
100
AcDbVertex
100
AcDb2dVertex
62
5
10
86.750000
20
320.562500
0
SEQEND
5
2f3
100
AcDbEntity
8
1
0
POLYLINE
5
2f4
100
AcDbEntity
8
1
6
CONTINUOUS
62
5
100
AcDb2dPolyline
66
1
10
0.0
20
0.0
30
0.0
70
0
0
VERTEX
5
2f5
100
AcDbEntity
8
1
100
AcDbVertex
100
AcDb2dVertex
62
5
10
86.750000
20
323.375000
0
VERTEX
5
2f6
100
AcDbEntity
8
1
100
AcDbVertex
100
AcDb2dVertex
62
5
10
86.250000
20
322.437500
0
VERTEX
5
2f7
100
AcDbEntity
8
1
100
AcDbVertex
100
AcDb2dVertex
62
5
10
85.500000
20
321.500000
0
SEQEND
5
2f8
100
AcDbEntity
8
1
0
LINE
5
2f9
100
AcDbEntity
8
1
100
AcDbLine
6
CONTINUOUS
62
5
10
88.750000
20
323.375000
11
90.500000
21
321.500000
0
POLYLINE
5
2fa
100
AcDbEntity
8
1
6
CONTINUOUS
62
5
100
AcDb2dPolyline
66
1
10
0.0
20
0.0
30
0.0
70
0
0
VERTEX
5
2fb
100
AcDbEntity
8
1
100
AcDbVertex
100
AcDb2dVertex
62
5
10
85.625000
20
300.500000
0
VERTEX
5
2fc
100
AcDbEntity
8
1
100
AcDbVertex
100
AcDb2dVertex
62
5
10
82.500000
20
300.500000
0
VERTEX
5
2fd
100
AcDbEntity
8
1
100
AcDbVertex
100
AcDb2dVertex
62
5
10
82.500000
20
293.000000
0
SEQEND
5
2fe
100
AcDbEntity
8
1
0
LINE
5
2ff
100
AcDbEntity
8
1
100
AcDbLine
6
CONTINUOUS
62
5
10
82.500000
20
296.750000
11
85.000000
21
296.750000
0
LINE
5
300
100
AcDbEntity
8
0
100
AcDbLine
6
DOT2
62
5
10
118.000000
20
244.250000
11
120.812500
21
244.250000
0
POLYLINE
5
301
100
AcDbEntity
8
0
6
DOT2
62
5
100
AcDb2dPolyline
66
1
10
0.0
20
0.0
30
0.0
70
0
0
VERTEX
5
302
100
AcDbEntity
8
0
100
AcDbVertex
100
AcDb2dVertex
62
5
10
118.000000
20
244.250000
0
VERTEX
5
303
100
AcDbEntity
8
0
100
AcDbVertex
100
AcDb2dVertex
62
5
10
118.000000
20
240.500000
0
VERTEX
5
304
100
AcDbEntity
8
0
100
AcDbVertex
100
AcDb2dVertex
62
5
10
118.625000
20
241.125000
0
VERTEX
5
305
100
AcDbEntity
8
0
100
AcDbVertex
100
AcDb2dVertex
62
5
10
119.250000
20
241.437500
0
VERTEX
5
306
100
AcDbEntity
8
0
100
AcDbVertex
100
AcDb2dVertex
62
5
10
120.187500
20
241.437500
0
VERTEX
5
307
100
AcDbEntity
8
0
100
AcDbVertex
100
AcDb2dVertex
62
5
10
120.812500
20
241.125000
0
VERTEX
5
308
100
AcDbEntity
8
0
100
AcDbVertex
100
AcDb2dVertex
62
5
10
121.125000
20
240.187500
0
VERTEX
5
309
100
AcDbEntity
8
0
100
AcDbVertex
100
AcDb2dVertex
62
5
10
121.125000
20
238.312500
0
VERTEX
5
30a
100
AcDbEntity
8
0
100
AcDbVertex
100
AcDb2dVertex
62
5
10
120.500000
20
237.375000
0
VERTEX
5
30b
100
AcDbEntity
8
0
100
AcDbVertex
100
AcDb2dVertex
62
5
10
119.562500
20
236.750000
0
VERTEX
5
30c
100
AcDbEntity
8
0
100
AcDbVertex
100
AcDb2dVertex
62
5
10
118.000000
20
236.750000
0
SEQEND
5
30d
100
AcDbEntity
8
0
0
POLYLINE
5
30e
100
AcDbEntity
8
0
6
DOT2
62
5
100
AcDb2dPolyline
66
1
10
0.0
20
0.0
30
0.0
70
0
0
VERTEX
5
30f
100
AcDbEntity
8
0
100
AcDbVertex
100
AcDb2dVertex
62
5
10
125.500000
20
244.250000
0
VERTEX
5
310
100
AcDbEntity
8
0
100
AcDbVertex
100
AcDb2dVertex
62
5
10
124.562500
20
244.250000
0
VERTEX
5
311
100
AcDbEntity
8
0
100
AcDbVertex
100
AcDb2dVertex
62
5
10
123.625000
20
243.937500
0
VERTEX
5
312
100
AcDbEntity
8
0
100
AcDbVertex
100
AcDb2dVertex
62
5
10
123.000000
20
242.687500
0
VERTEX
5
313
100
AcDbEntity
8
0
100
AcDbVertex
100
AcDb2dVertex
62
5
10
123.000000
20
238.312500
0
VERTEX
5
314
100
AcDbEntity
8
0
100
AcDbVertex
100
AcDb2dVertex
62
5
10
123.312500
20
237.375000
0
VERTEX
5
315
100
AcDbEntity
8
0
100
AcDbVertex
100
AcDb2dVertex
62
5
10
123.625000
20
237.062500
0
VERTEX
5
316
100
AcDbEntity
8
0
100
AcDbVertex
100
AcDb2dVertex
62
5
10
124.250000
20
236.750000
0
VERTEX
5
317
100
AcDbEntity
8
0
100
AcDbVertex
100
AcDb2dVertex
62
5
10
124.875000
20
236.750000
0
VERTEX
5
318
100
AcDbEntity
8
0
100
AcDbVertex
100
AcDb2dVertex
62
5
10
125.500000
20
237.062500
0
VERTEX
5
319
100
AcDbEntity
8
0
100
AcDbVertex
100
AcDb2dVertex
62
5
10
125.812500
20
237.375000
0
VERTEX
5
31a
100
AcDbEntity
8
0
100
AcDbVertex
100
AcDb2dVertex
62
5
10
126.125000
20
238.312500
0
VERTEX
5
31b
100
AcDbEntity
8
0
100
AcDbVertex
100
AcDb2dVertex
62
5
10
126.125000
20
240.187500
0
VERTEX
5
31c
100
AcDbEntity
8
0
100
AcDbVertex
100
AcDb2dVertex
62
5
10
125.812500
20
240.812500
0
VERTEX
5
31d
100
AcDbEntity
8
0
100
AcDbVertex
100
AcDb2dVertex
62
5
10
125.187500
20
241.125000
0
VERTEX
5
31e
100
AcDbEntity
8
0
100
AcDbVertex
100
AcDb2dVertex
62
5
10
123.937500
20
241.125000
0
VERTEX
5
31f
100
AcDbEntity
8
0
100
AcDbVertex
100
AcDb2dVertex
62
5
10
123.000000
20
240.812500
0
SEQEND
5
320
100
AcDbEntity
8
0
0
POLYLINE
5
321
100
AcDbEntity
8
1
6
CONTINUOUS
62
5
100
AcDb2dPolyline
66
1
10
0.0
20
0.0
30
0.0
70
0
0
VERTEX
5
322
100
AcDbEntity
8
1
100
AcDbVertex
100
AcDb2dVertex
62
5
10
114.812500
20
198.115625
0
VERTEX
5
323
100
AcDbEntity
8
1
100
AcDbVertex
100
AcDb2dVertex
62
5
10
115.621875
20
198.693750
0
VERTEX
5
324
100
AcDbEntity
8
1
100
AcDbVertex
100
AcDb2dVertex
62
5
10
116.431250
20
199.618750
0
VERTEX
5
325
100
AcDbEntity
8
1
100
AcDbVertex
100
AcDb2dVertex
62
5
10
117.240625
20
198.693750
0
VERTEX
5
326
100
AcDbEntity
8
1
100
AcDbVertex
100
AcDb2dVertex
62
5
10
118.050000
20
198.231250
0
SEQEND
5
327
100
AcDbEntity
8
1
0
LINE
5
328
100
AcDbEntity
8
1
100
AcDbLine
6
CONTINUOUS
62
5
10
116.431250
20
198.925000
11
116.431250
21
198.578125
0
POLYLINE
5
329
100
AcDbEntity
8
1
6
CONTINUOUS
62
5
100
AcDb2dPolyline
66
1
10
0.0
20
0.0
30
0.0
70
0
0
VERTEX
5
32a
100
AcDbEntity
8
1
100
AcDbVertex
100
AcDb2dVertex
62
5
10
115.621875
20
197.421875
0
VERTEX
5
32b
100
AcDbEntity
8
1
100
AcDbVertex
100
AcDb2dVertex
62
5
10
117.240625
20
197.421875
0
VERTEX
5
32c
100
AcDbEntity
8
1
100
AcDbVertex
100
AcDb2dVertex
62
5
10
117.240625
20
198.578125
0
VERTEX
5
32d
100
AcDbEntity
8
1
100
AcDbVertex
100
AcDb2dVertex
62
5
10
115.621875
20
198.578125
0
VERTEX
5
32e
100
AcDbEntity
8
1
100
AcDbVertex
100
AcDb2dVertex
62
5
10
115.621875
20
196.381250
0
SEQEND
5
32f
100
AcDbEntity
8
1
0
LINE
5
330
100
AcDbEntity
8
1
100
AcDbLine
6
CONTINUOUS
62
5
10
115.621875
20
198.000000
11
117.240625
21
198.000000
0
POLYLINE
5
331
100
AcDbEntity
8
1
6
CONTINUOUS
62
5
100
AcDb2dPolyline
66
1
10
0.0
20
0.0
30
0.0
70
0
0
VERTEX
5
332
100
AcDbEntity
8
1
100
AcDbVertex
100
AcDb2dVertex
62
5
10
115.275000
20
196.381250
0
VERTEX
5
333
100
AcDbEntity
8
1
100
AcDbVertex
100
AcDb2dVertex
62
5
10
115.621875
20
196.381250
0
VERTEX
5
334
100
AcDbEntity
8
1
100
AcDbVertex
100
AcDb2dVertex
62
5
10
116.662500
20
196.612500
0
SEQEND
5
335
100
AcDbEntity
8
1
0
POLYLINE
5
336
100
AcDbEntity
8
1
6
CONTINUOUS
62
5
100
AcDb2dPolyline
66
1
10
0.0
20
0.0
30
0.0
70
0
0
VERTEX
5
337
100
AcDbEntity
8
1
100
AcDbVertex
100
AcDb2dVertex
62
5
10
116.315625
20
197.306250
0
VERTEX
5
338
100
AcDbEntity
8
1
100
AcDbVertex
100
AcDb2dVertex
62
5
10
116.662500
20
196.843750
0
VERTEX
5
339
100
AcDbEntity
8
1
100
AcDbVertex
100
AcDb2dVertex
62
5
10
117.125000
20
196.496875
0
VERTEX
5
33a
100
AcDbEntity
8
1
100
AcDbVertex
100
AcDb2dVertex
62
5
10
117.934375
20
196.381250
0
SEQEND
5
33b
100
AcDbEntity
8
1
0
LINE
5
33c
100
AcDbEntity
8
1
100
AcDbLine
6
CONTINUOUS
62
5
10
117.471875
20
197.190625
11
116.893750
21
196.728125
0
POLYLINE
5
33d
100
AcDbEntity
8
1
6
CONTINUOUS
62
5
100
AcDb2dPolyline
66
1
10
0.0
20
0.0
30
0.0
70
0
0
VERTEX
5
33e
100
AcDbEntity
8
1
100
AcDbVertex
100
AcDb2dVertex
62
5
10
118.281250
20
196.612500
0
VERTEX
5
33f
100
AcDbEntity
8
1
100
AcDbVertex
100
AcDb2dVertex
62
5
10
118.628125
20
196.959375
0
VERTEX
5
340
100
AcDbEntity
8
1
100
AcDbVertex
100
AcDb2dVertex
62
5
10
118.975000
20
197.653125
0
SEQEND
5
341
100
AcDbEntity
8
1
0
LINE
5
342
100
AcDbEntity
8
1
100
AcDbLine
6
CONTINUOUS
62
5
10
118.281250
20
198.462500
11
118.859375
21
198.231250
0
LINE
5
343
100
AcDbEntity
8
1
100
AcDbLine
6
CONTINUOUS
62
5
10
118.512500
20
199.387500
11
118.975000
21
199.156250
0
POLYLINE
5
344
100
AcDbEntity
8
1
6
CONTINUOUS
62
5
100
AcDb2dPolyline
66
1
10
0.0
20
0.0
30
0.0
70
0
0
VERTEX
5
345
100
AcDbEntity
8
1
100
AcDbVertex
100
AcDb2dVertex
62
5
10
119.206250
20
198.462500
0
VERTEX
5
346
100
AcDbEntity
8
1
100
AcDbVertex
100
AcDb2dVertex
62
5
10
119.553125
20
198.925000
0
VERTEX
5
347
100
AcDbEntity
8
1
100
AcDbVertex
100
AcDb2dVertex
62
5
10
119.784375
20
199.387500
0
SEQEND
5
348
100
AcDbEntity
8
1
0
LINE
5
349
100
AcDbEntity
8
1
100
AcDbLine
6
CONTINUOUS
62
5
10
119.553125
20
198.925000
11
121.287500
21
198.925000
0
LINE
5
34a
100
AcDbEntity
8
1
100
AcDbLine
6
CONTINUOUS
62
5
10
120.246875
20
199.618750
11
120.246875
21
198.000000
0
LINE
5
34b
100
AcDbEntity
8
1
100
AcDbLine
6
CONTINUOUS
62
5
10
119.090625
20
198.000000
11
121.518750
21
198.000000
0
POLYLINE
5
34c
100
AcDbEntity
8
1
6
CONTINUOUS
62
5
100
AcDb2dPolyline
66
1
10
0.0
20
0.0
30
0.0
70
0
0
VERTEX
5
34d
100
AcDbEntity
8
1
100
AcDbVertex
100
AcDb2dVertex
62
5
10
119.784375
20
198.000000
0
VERTEX
5
34e
100
AcDbEntity
8
1
100
AcDbVertex
100
AcDb2dVertex
62
5
10
119.668750
20
197.075000
0
VERTEX
5
34f
100
AcDbEntity
8
1
100
AcDbVertex
100
AcDb2dVertex
62
5
10
119.437500
20
196.728125
0
VERTEX
5
350
100
AcDbEntity
8
1
100
AcDbVertex
100
AcDb2dVertex
62
5
10
118.975000
20
196.496875
0
SEQEND
5
351
100
AcDbEntity
8
1
0
POLYLINE
5
352
100
AcDbEntity
8
1
6
CONTINUOUS
62
5
100
AcDb2dPolyline
66
1
10
0.0
20
0.0
30
0.0
70
0
0
VERTEX
5
353
100
AcDbEntity
8
1
100
AcDbVertex
100
AcDb2dVertex
62
5
10
120.593750
20
198.000000
0
VERTEX
5
354
100
AcDbEntity
8
1
100
AcDbVertex
100
AcDb2dVertex
62
5
10
120.593750
20
196.728125
0
VERTEX
5
355
100
AcDbEntity
8
1
100
AcDbVertex
100
AcDb2dVertex
62
5
10
120.825000
20
196.496875
0
VERTEX
5
356
100
AcDbEntity
8
1
100
AcDbVertex
100
AcDb2dVertex
62
5
10
121.518750
20
196.496875
0
VERTEX
5
357
100
AcDbEntity
8
1
100
AcDbVertex
100
AcDb2dVertex
62
5
10
121.634375
20
196.959375
0
SEQEND
5
358
100
AcDbEntity
8
1
0
LINE
5
359
100
AcDbEntity
8
1
100
AcDbLine
6
CONTINUOUS
62
5
10
121.865625
20
198.693750
11
122.906250
21
198.693750
0
LINE
5
35a
100
AcDbEntity
8
1
100
AcDbLine
6
CONTINUOUS
62
5
10
122.443750
20
199.618750
11
122.443750
21
196.381250
0
POLYLINE
5
35b
100
AcDbEntity
8
1
6
CONTINUOUS
62
5
100
AcDb2dPolyline
66
1
10
0.0
20
0.0
30
0.0
70
0
0
VERTEX
5
35c
100
AcDbEntity
8
1
100
AcDbVertex
100
AcDb2dVertex
62
5
10
122.443750
20
198.693750
0
VERTEX
5
35d
100
AcDbEntity
8
1
100
AcDbVertex
100
AcDb2dVertex
62
5
10
122.212500
20
198.000000
0
VERTEX
5
35e
100
AcDbEntity
8
1
100
AcDbVertex
100
AcDb2dVertex
62
5
10
121.865625
20
197.421875
0
SEQEND
5
35f
100
AcDbEntity
8
1
0
LINE
5
360
100
AcDbEntity
8
1
100
AcDbLine
6
CONTINUOUS
62
5
10
122.443750
20
198.346875
11
122.790625
21
197.884375
0
LINE
5
361
100
AcDbEntity
8
1
100
AcDbLine
6
CONTINUOUS
62
5
10
123.368750
20
199.387500
11
123.021875
21
199.040625
0
LINE
5
362
100
AcDbEntity
8
1
100
AcDbLine
6
CONTINUOUS
62
5
10
122.906250
20
199.156250
11
123.253125
21
198.578125
0
LINE
5
363
100
AcDbEntity
8
1
100
AcDbLine
6
CONTINUOUS
62
5
10
123.600000
20
198.925000
11
122.906250
21
198.115625
0
LINE
5
364
100
AcDbEntity
8
1
100
AcDbLine
6
CONTINUOUS
62
5
10
122.790625
20
198.115625
11
123.600000
21
198.115625
0
LINE
5
365
100
AcDbEntity
8
1
100
AcDbLine
6
CONTINUOUS
62
5
10
123.484375
20
198.346875
11
123.715625
21
197.884375
0
LINE
5
366
100
AcDbEntity
8
1
100
AcDbLine
6
CONTINUOUS
62
5
10
124.640625
20
199.387500
11
124.293750
21
199.040625
0
LINE
5
367
100
AcDbEntity
8
1
100
AcDbLine
6
CONTINUOUS
62
5
10
124.178125
20
199.156250
11
124.525000
21
198.578125
0
LINE
5
368
100
AcDbEntity
8
1
100
AcDbLine
6
CONTINUOUS
62
5
10
124.871875
20
198.925000
11
124.178125
21
198.115625
0
LINE
5
369
100
AcDbEntity
8
1
100
AcDbLine
6
CONTINUOUS
62
5
10
124.062500
20
198.115625
11
124.987500
21
198.115625
0
LINE
5
36a
100
AcDbEntity
8
1
100
AcDbLine
6
CONTINUOUS
62
5
10
124.871875
20
198.346875
11
125.103125
21
197.884375
0
LINE
5
36b
100
AcDbEntity
8
1
100
AcDbLine
6
CONTINUOUS
62
5
10
122.790625
20
197.653125
11
125.103125
21
197.653125
0
POLYLINE
5
36c
100
AcDbEntity
8
1
6
CONTINUOUS
62
5
100
AcDb2dPolyline
66
1
10
0.0
20
0.0
30
0.0
70
0
0
VERTEX
5
36d
100
AcDbEntity
8
1
100
AcDbVertex
100
AcDb2dVertex
62
5
10
123.253125
20
197.653125
0
VERTEX
5
36e
100
AcDbEntity
8
1
100
AcDbVertex
100
AcDb2dVertex
62
5
10
123.253125
20
197.306250
0
VERTEX
5
36f
100
AcDbEntity
8
1
100
AcDbVertex
100
AcDb2dVertex
62
5
10
123.137500
20
196.959375
0
VERTEX
5
370
100
AcDbEntity
8
1
100
AcDbVertex
100
AcDb2dVertex
62
5
10
122.790625
20
196.496875
0
SEQEND
5
371
100
AcDbEntity
8
1
0
LINE
5
372
100
AcDbEntity
8
1
100
AcDbLine
6
CONTINUOUS
62
5
10
123.253125
20
197.306250
11
123.600000
21
196.959375
0
POLYLINE
5
373
100
AcDbEntity
8
1
6
CONTINUOUS
62
5
100
AcDb2dPolyline
66
1
10
0.0
20
0.0
30
0.0
70
0
0
VERTEX
5
374
100
AcDbEntity
8
1
100
AcDbVertex
100
AcDb2dVertex
62
5
10
123.715625
20
199.618750
0
VERTEX
5
375
100
AcDbEntity
8
1
100
AcDbVertex
100
AcDb2dVertex
62
5
10
123.831250
20
198.346875
0
VERTEX
5
376
100
AcDbEntity
8
1
100
AcDbVertex
100
AcDb2dVertex
62
5
10
124.062500
20
197.421875
0
VERTEX
5
377
100
AcDbEntity
8
1
100
AcDbVertex
100
AcDb2dVertex
62
5
10
124.525000
20
196.612500
0
VERTEX
5
378
100
AcDbEntity
8
1
100
AcDbVertex
100
AcDb2dVertex
62
5
10
124.871875
20
196.381250
0
VERTEX
5
379
100
AcDbEntity
8
1
100
AcDbVertex
100
AcDb2dVertex
62
5
10
125.103125
20
196.843750
0
SEQEND
5
37a
100
AcDbEntity
8
1
0
POLYLINE
5
37b
100
AcDbEntity
8
1
6
CONTINUOUS
62
5
100
AcDb2dPolyline
66
1
10
0.0
20
0.0
30
0.0
70
0
0
VERTEX
5
37c
100
AcDbEntity
8
1
100
AcDbVertex
100
AcDb2dVertex
62
5
10
124.640625
20
197.421875
0
VERTEX
5
37d
100
AcDbEntity
8
1
100
AcDbVertex
100
AcDb2dVertex
62
5
10
124.293750
20
196.843750
0
VERTEX
5
37e
100
AcDbEntity
8
1
100
AcDbVertex
100
AcDb2dVertex
62
5
10
124.062500
20
196.612500
0
VERTEX
5
37f
100
AcDbEntity
8
1
100
AcDbVertex
100
AcDb2dVertex
62
5
10
123.600000
20
196.381250
0
SEQEND
5
380
100
AcDbEntity
8
1
0
LINE
5
381
100
AcDbEntity
8
1
100
AcDbLine
6
CONTINUOUS
62
5
10
124.409375
20
198.000000
11
124.640625
21
197.653125
0
POLYLINE
5
382
100
AcDbEntity
8
1
6
CONTINUOUS
62
5
100
AcDb2dPolyline
66
1
10
0.0
20
0.0
30
0.0
70
0
0
VERTEX
5
383
100
AcDbEntity
8
1
100
AcDbVertex
100
AcDb2dVertex
62
5
10
125.796875
20
199.387500
0
VERTEX
5
384
100
AcDbEntity
8
1
100
AcDbVertex
100
AcDb2dVertex
62
5
10
125.796875
20
197.306250
0
VERTEX
5
385
100
AcDbEntity
8
1
100
AcDbVertex
100
AcDb2dVertex
62
5
10
125.565625
20
196.843750
0
VERTEX
5
386
100
AcDbEntity
8
1
100
AcDbVertex
100
AcDb2dVertex
62
5
10
125.334375
20
196.496875
0
SEQEND
5
387
100
AcDbEntity
8
1
0
POLYLINE
5
388
100
AcDbEntity
8
1
6
CONTINUOUS
62
5
100
AcDb2dPolyline
66
1
10
0.0
20
0.0
30
0.0
70
0
0
VERTEX
5
389
100
AcDbEntity
8
1
100
AcDbVertex
100
AcDb2dVertex
62
5
10
127.646875
20
196.612500
0
VERTEX
5
38a
100
AcDbEntity
8
1
100
AcDbVertex
100
AcDb2dVertex
62
5
10
128.109375
20
196.381250
0
VERTEX
5
38b
100
AcDbEntity
8
1
100
AcDbVertex
100
AcDb2dVertex
62
5
10
128.109375
20
199.387500
0
VERTEX
5
38c
100
AcDbEntity
8
1
100
AcDbVertex
100
AcDb2dVertex
62
5
10
125.796875
20
199.387500
0
SEQEND
5
38d
100
AcDbEntity
8
1
0
LINE
5
38e
100
AcDbEntity
8
1
100
AcDbLine
6
CONTINUOUS
62
5
10
125.796875
20
198.462500
11
128.109375
21
198.462500
0
LINE
5
38f
100
AcDbEntity
8
1
100
AcDbLine
6
CONTINUOUS
62
5
10
126.953125
20
199.387500
11
126.953125
21
196.381250
0
LINE
5
390
100
AcDbEntity
8
1
100
AcDbLine
6
CONTINUOUS
62
5
10
125.796875
20
197.537500
11
128.109375
21
197.537500
0
LINE
5
391
100
AcDbEntity
8
0
100
AcDbLine
6
CONTINUOUS
62
5
10
93.750000
20
204.000000
11
93.750000
21
237.500000
0
LINE
5
392
100
AcDbEntity
8
0
100
AcDbLine
6
CONTINUOUS
62
5
10
149.750000
20
204.000000
11
149.750000
21
237.500000
0
POLYLINE
5
393
100
AcDbEntity
8
0
6
CONTINUOUS
62
5
100
AcDb2dPolyline
66
1
10
0.0
20
0.0
30
0.0
70
0
0
VERTEX
5
394
100
AcDbEntity
8
0
100
AcDbVertex
100
AcDb2dVertex
62
5
10
121.750000
20
235.500000
0
VERTEX
5
395
100
AcDbEntity
8
0
100
AcDbVertex
100
AcDb2dVertex
62
5
10
93.750000
20
235.500000
0
VERTEX
5
396
100
AcDbEntity
8
0
100
AcDbVertex
100
AcDb2dVertex
62
5
10
99.750000
20
236.500000
0
VERTEX
5
397
100
AcDbEntity
8
0
100
AcDbVertex
100
AcDb2dVertex
62
5
10
99.750000
20
234.500000
0
VERTEX
5
398
100
AcDbEntity
8
0
100
AcDbVertex
100
AcDb2dVertex
62
5
10
93.750000
20
235.500000
0
VERTEX
5
399
100
AcDbEntity
8
0
100
AcDbVertex
100
AcDb2dVertex
62
5
10
99.750000
20
236.000000
0
VERTEX
5
39a
100
AcDbEntity
8
0
100
AcDbVertex
100
AcDb2dVertex
62
5
10
99.750000
20
235.000000
0
VERTEX
5
39b
100
AcDbEntity
8
0
100
AcDbVertex
100
AcDb2dVertex
62
5
10
93.750000
20
235.500000
0
SEQEND
5
39c
100
AcDbEntity
8
0
0
POLYLINE
5
39d
100
AcDbEntity
8
0
6
CONTINUOUS
62
5
100
AcDb2dPolyline
66
1
10
0.0
20
0.0
30
0.0
70
0
0
VERTEX
5
39e
100
AcDbEntity
8
0
100
AcDbVertex
100
AcDb2dVertex
62
5
10
121.750000
20
235.500000
0
VERTEX
5
39f
100
AcDbEntity
8
0
100
AcDbVertex
100
AcDb2dVertex
62
5
10
149.750000
20
235.500000
0
VERTEX
5
3a0
100
AcDbEntity
8
0
100
AcDbVertex
100
AcDb2dVertex
62
5
10
143.750000
20
234.500000
0
VERTEX
5
3a1
100
AcDbEntity
8
0
100
AcDbVertex
100
AcDb2dVertex
62
5
10
143.750000
20
236.500000
0
VERTEX
5
3a2
100
AcDbEntity
8
0
100
AcDbVertex
100
AcDb2dVertex
62
5
10
149.750000
20
235.500000
0
VERTEX
5
3a3
100
AcDbEntity
8
0
100
AcDbVertex
100
AcDb2dVertex
62
5
10
143.750000
20
235.000000
0
VERTEX
5
3a4
100
AcDbEntity
8
0
100
AcDbVertex
100
AcDb2dVertex
62
5
10
143.750000
20
236.000000
0
VERTEX
5
3a5
100
AcDbEntity
8
0
100
AcDbVertex
100
AcDb2dVertex
62
5
10
149.750000
20
235.500000
0
SEQEND
5
3a6
100
AcDbEntity
8
0
0
POLYLINE
5
3a7
100
AcDbEntity
8
1
6
CONTINUOUS
62
5
100
AcDb2dPolyline
66
1
10
0.0
20
0.0
30
0.0
70
0
0
VERTEX
5
3a8
100
AcDbEntity
8
1
100
AcDbVertex
100
AcDb2dVertex
62
5
10
169.500000
20
338.062500
0
VERTEX
5
3a9
100
AcDbEntity
8
1
100
AcDbVertex
100
AcDb2dVertex
62
5
10
168.500000
20
335.250000
0
VERTEX
5
3aa
100
AcDbEntity
8
1
100
AcDbVertex
100
AcDb2dVertex
62
5
10
167.250000
20
333.062500
0
SEQEND
5
3ab
100
AcDbEntity
8
1
0
LINE
5
3ac
100
AcDbEntity
8
1
100
AcDbLine
6
CONTINUOUS
62
5
10
168.500000
20
335.250000
11
168.500000
21
329.312500
0
LINE
5
3ad
100
AcDbEntity
8
1
100
AcDbLine
6
CONTINUOUS
62
5
10
169.250000
20
335.250000
11
174.500000
21
335.250000
0
POLYLINE
5
3ae
100
AcDbEntity
8
1
6
CONTINUOUS
62
5
100
AcDb2dPolyline
66
1
10
0.0
20
0.0
30
0.0
70
0
0
VERTEX
5
3af
100
AcDbEntity
8
1
100
AcDbVertex
100
AcDb2dVertex
62
5
10
172.750000
20
338.062500
0
VERTEX
5
3b0
100
AcDbEntity
8
1
100
AcDbVertex
100
AcDb2dVertex
62
5
10
172.750000
20
329.625000
0
VERTEX
5
3b1
100
AcDbEntity
8
1
100
AcDbVertex
100
AcDb2dVertex
62
5
10
171.250000
20
329.937500
0
SEQEND
5
3b2
100
AcDbEntity
8
1
0
LINE
5
3b3
100
AcDbEntity
8
1
100
AcDbLine
6
CONTINUOUS
62
5
10
170.250000
20
334.000000
11
171.250000
21
332.125000
0
LINE
5
3b4
100
AcDbEntity
8
1
100
AcDbLine
6
CONTINUOUS
62
5
10
10.000000
20
318.000000
11
330.000000
21
318.000000
0
LINE
5
3b5
100
AcDbEntity
8
1
100
AcDbLine
6
CONTINUOUS
62
5
10
10.000000
20
318.000000
11
330.000000
21
318.000000
0
POLYLINE
5
3b6
100
AcDbEntity
8
0
6
CONTINUOUS
62
5
100
AcDb2dPolyline
66
1
10
0.0
20
0.0
30
0.0
70
0
0
VERTEX
5
3b7
100
AcDbEntity
8
0
100
AcDbVertex
100
AcDb2dVertex
62
5
10
246.250000
20
109.500000
0
VERTEX
5
3b8
100
AcDbEntity
8
0
100
AcDbVertex
100
AcDb2dVertex
62
5
10
246.250000
20
109.450000
0
VERTEX
5
3b9
100
AcDbEntity
8
0
100
AcDbVertex
100
AcDb2dVertex
62
5
10
235.850000
20
109.600000
0
VERTEX
5
3ba
100
AcDbEntity
8
0
100
AcDbVertex
100
AcDb2dVertex
62
5
10
235.850000
20
109.641687
0
SEQEND
5
3bb
100
AcDbEntity
8
0
0
LINE
5
3bc
100
AcDbEntity
8
0
100
AcDbLine
6
CONTINUOUS
62
5
10
235.750000
20
109.643049
11
246.250000
21
109.500000
0
LINE
5
3bd
100
AcDbEntity
8
1
100
AcDbLine
6
CONTINUOUS
62
5
10
236.950000
20
109.677143
11
235.750000
21
112.300000
0
POLYLINE
5
3be
100
AcDbEntity
8
0
6
CONTINUOUS
62
5
100
AcDb2dPolyline
66
1
10
0.0
20
0.0
30
0.0
70
0
0
VERTEX
5
3bf
100
AcDbEntity
8
0
100
AcDbVertex
100
AcDb2dVertex
62
5
10
132.300000
20
109.576549
0
VERTEX
5
3c0
100
AcDbEntity
8
0
100
AcDbVertex
100
AcDb2dVertex
62
5
10
132.300000
20
109.450000
0
VERTEX
5
3c1
100
AcDbEntity
8
0
100
AcDbVertex
100
AcDb2dVertex
62
5
10
111.200000
20
109.450000
0
VERTEX
5
3c2
100
AcDbEntity
8
0
100
AcDbVertex
100
AcDb2dVertex
62
5
10
111.200000
20
109.576549
0
SEQEND
5
3c3
100
AcDbEntity
8
0
0
POLYLINE
5
3c4
100
AcDbEntity
8
0
6
DOT2
62
5
100
AcDb2dPolyline
66
1
10
0.0
20
0.0
30
0.0
70
1
0
VERTEX
5
3c5
100
AcDbEntity
8
0
100
AcDbVertex
100
AcDb2dVertex
62
5
10
60.000000
20
160.000000
0
VERTEX
5
3c6
100
AcDbEntity
8
0
100
AcDbVertex
100
AcDb2dVertex
62
5
10
60.000000
20
160.625000
0
VERTEX
5
3c7
100
AcDbEntity
8
0
100
AcDbVertex
100
AcDb2dVertex
62
5
10
60.312500
20
160.937500
0
VERTEX
5
3c8
100
AcDbEntity
8
0
100
AcDbVertex
100
AcDb2dVertex
62
5
10
61.562500
20
161.562500
0
VERTEX
5
3c9
100
AcDbEntity
8
0
100
AcDbVertex
100
AcDb2dVertex
62
5
10
62.812500
20
161.875000
0
VERTEX
5
3ca
100
AcDbEntity
8
0
100
AcDbVertex
100
AcDb2dVertex
62
5
10
64.687500
20
161.875000
0
VERTEX
5
3cb
100
AcDbEntity
8
0
100
AcDbVertex
100
AcDb2dVertex
62
5
10
65.937500
20
161.562500
0
VERTEX
5
3cc
100
AcDbEntity
8
0
100
AcDbVertex
100
AcDb2dVertex
62
5
10
67.187500
20
160.937500
0
VERTEX
5
3cd
100
AcDbEntity
8
0
100
AcDbVertex
100
AcDb2dVertex
62
5
10
67.500000
20
160.625000
0
VERTEX
5
3ce
100
AcDbEntity
8
0
100
AcDbVertex
100
AcDb2dVertex
62
5
10
67.500000
20
160.000000
0
VERTEX
5
3cf
100
AcDbEntity
8
0
100
AcDbVertex
100
AcDb2dVertex
62
5
10
67.187500
20
159.687500
0
VERTEX
5
3d0
100
AcDbEntity
8
0
100
AcDbVertex
100
AcDb2dVertex
62
5
10
65.937500
20
159.062500
0
VERTEX
5
3d1
100
AcDbEntity
8
0
100
AcDbVertex
100
AcDb2dVertex
62
5
10
64.687500
20
158.750000
0
VERTEX
5
3d2
100
AcDbEntity
8
0
100
AcDbVertex
100
AcDb2dVertex
62
5
10
62.812500
20
158.750000
0
VERTEX
5
3d3
100
AcDbEntity
8
0
100
AcDbVertex
100
AcDb2dVertex
62
5
10
61.562500
20
159.062500
0
VERTEX
5
3d4
100
AcDbEntity
8
0
100
AcDbVertex
100
AcDb2dVertex
62
5
10
60.312500
20
159.687500
0
VERTEX
5
3d5
100
AcDbEntity
8
0
100
AcDbVertex
100
AcDb2dVertex
62
5
10
60.000000
20
160.000000
0
SEQEND
5
3d6
100
AcDbEntity
8
0
0
POLYLINE
5
3d7
100
AcDbEntity
8
0
6
DOT2
62
5
100
AcDb2dPolyline
66
1
10
0.0
20
0.0
30
0.0
70
0
0
VERTEX
5
3d8
100
AcDbEntity
8
0
100
AcDbVertex
100
AcDb2dVertex
62
5
10
60.625000
20
164.375000
0
VERTEX
5
3d9
100
AcDbEntity
8
0
100
AcDbVertex
100
AcDb2dVertex
62
5
10
60.000000
20
165.312500
0
VERTEX
5
3da
100
AcDbEntity
8
0
100
AcDbVertex
100
AcDb2dVertex
62
5
10
67.500000
20
165.312500
0
SEQEND
5
3db
100
AcDbEntity
8
0
0
LINE
5
3dc
100
AcDbEntity
8
0
100
AcDbLine
6
DOT2
62
5
10
67.500000
20
164.687500
11
67.500000
21
165.937500
0
POLYLINE
5
3dd
100
AcDbEntity
8
0
6
DOT2
62
5
100
AcDb2dPolyline
66
1
10
0.0
20
0.0
30
0.0
70
0
0
VERTEX
5
3de
100
AcDbEntity
8
0
100
AcDbVertex
100
AcDb2dVertex
62
5
10
60.625000
20
154.375000
0
VERTEX
5
3df
100
AcDbEntity
8
0
100
AcDbVertex
100
AcDb2dVertex
62
5
10
60.000000
20
155.312500
0
VERTEX
5
3e0
100
AcDbEntity
8
0
100
AcDbVertex
100
AcDb2dVertex
62
5
10
67.500000
20
155.312500
0
SEQEND
5
3e1
100
AcDbEntity
8
0
0
LINE
5
3e2
100
AcDbEntity
8
0
100
AcDbLine
6
DOT2
62
5
10
67.500000
20
154.687500
11
67.500000
21
155.937500
0
LINE
5
3e3
100
AcDbEntity
8
0
100
AcDbLine
6
CONTINUOUS
62
5
10
100.250000
20
210.500000
11
66.750000
21
210.500000
0
LINE
5
3e4
100
AcDbEntity
8
0
100
AcDbLine
6
CONTINUOUS
62
5
10
100.250000
20
109.500000
11
66.750000
21
109.500000
0
POLYLINE
5
3e5
100
AcDbEntity
8
0
6
CONTINUOUS
62
5
100
AcDb2dPolyline
66
1
10
0.0
20
0.0
30
0.0
70
0
0
VERTEX
5
3e6
100
AcDbEntity
8
0
100
AcDbVertex
100
AcDb2dVertex
62
5
10
68.750000
20
160.000000
0
VERTEX
5
3e7
100
AcDbEntity
8
0
100
AcDbVertex
100
AcDb2dVertex
62
5
10
68.750000
20
109.500000
0
VERTEX
5
3e8
100
AcDbEntity
8
0
100
AcDbVertex
100
AcDb2dVertex
62
5
10
67.750000
20
115.500000
0
VERTEX
5
3e9
100
AcDbEntity
8
0
100
AcDbVertex
100
AcDb2dVertex
62
5
10
69.750000
20
115.500000
0
VERTEX
5
3ea
100
AcDbEntity
8
0
100
AcDbVertex
100
AcDb2dVertex
62
5
10
68.750000
20
109.500000
0
VERTEX
5
3eb
100
AcDbEntity
8
0
100
AcDbVertex
100
AcDb2dVertex
62
5
10
68.250000
20
115.500000
0
VERTEX
5
3ec
100
AcDbEntity
8
0
100
AcDbVertex
100
AcDb2dVertex
62
5
10
69.250000
20
115.500000
0
VERTEX
5
3ed
100
AcDbEntity
8
0
100
AcDbVertex
100
AcDb2dVertex
62
5
10
68.750000
20
109.500000
0
SEQEND
5
3ee
100
AcDbEntity
8
0
0
POLYLINE
5
3ef
100
AcDbEntity
8
0
6
CONTINUOUS
62
5
100
AcDb2dPolyline
66
1
10
0.0
20
0.0
30
0.0
70
0
0
VERTEX
5
3f0
100
AcDbEntity
8
0
100
AcDbVertex
100
AcDb2dVertex
62
5
10
68.750000
20
160.000000
0
VERTEX
5
3f1
100
AcDbEntity
8
0
100
AcDbVertex
100
AcDb2dVertex
62
5
10
68.750000
20
210.500000
0
VERTEX
5
3f2
100
AcDbEntity
8
0
100
AcDbVertex
100
AcDb2dVertex
62
5
10
69.750000
20
204.500000
0
VERTEX
5
3f3
100
AcDbEntity
8
0
100
AcDbVertex
100
AcDb2dVertex
62
5
10
67.750000
20
204.500000
0
VERTEX
5
3f4
100
AcDbEntity
8
0
100
AcDbVertex
100
AcDb2dVertex
62
5
10
68.750000
20
210.500000
0
VERTEX
5
3f5
100
AcDbEntity
8
0
100
AcDbVertex
100
AcDb2dVertex
62
5
10
69.250000
20
204.500000
0
VERTEX
5
3f6
100
AcDbEntity
8
0
100
AcDbVertex
100
AcDb2dVertex
62
5
10
68.250000
20
204.500000
0
VERTEX
5
3f7
100
AcDbEntity
8
0
100
AcDbVertex
100
AcDb2dVertex
62
5
10
68.750000
20
210.500000
0
SEQEND
5
3f8
100
AcDbEntity
8
0
0
ARC
5
3f9
100
AcDbEntity
8
1
100
AcDbCircle
6
CONTINUOUS
62
5
10
135.200000
20
126.200000
40
0.700000
100
AcDbArc
50
-89.999999
51
-0.000000
0
POLYLINE
5
3fa
100
AcDbEntity
8
1
6
CONTINUOUS
62
5
100
AcDb2dPolyline
66
1
10
0.0
20
0.0
30
0.0
70
0
0
VERTEX
5
3fb
100
AcDbEntity
8
1
100
AcDbVertex
100
AcDb2dVertex
62
5
10
135.900000
20
126.200000
0
VERTEX
5
3fc
100
AcDbEntity
8
1
100
AcDbVertex
100
AcDb2dVertex
62
5
10
135.900000
20
180.373760
0
VERTEX
5
3fd
100
AcDbEntity
8
1
100
AcDbVertex
100
AcDb2dVertex
62
5
10
135.900000
20
193.800000
0
SEQEND
5
3fe
100
AcDbEntity
8
1
0
ARC
5
3ff
100
AcDbEntity
8
1
100
AcDbCircle
6
CONTINUOUS
62
5
10
135.200000
20
193.800000
40
0.700000
100
AcDbArc
50
0.000000
51
89.999999
0
LINE
5
400
100
AcDbEntity
8
1
100
AcDbLine
6
CONTINUOUS
62
5
10
135.200000
20
194.500000
11
108.300000
21
194.500000
0
ARC
5
401
100
AcDbEntity
8
1
100
AcDbCircle
6
CONTINUOUS
62
5
10
108.300000
20
193.800000
40
0.700000
100
AcDbArc
50
89.999999
51
-179.999998
0
LINE
5
402
100
AcDbEntity
8
1
100
AcDbLine
6
CONTINUOUS
62
5
10
107.600000
20
193.800000
11
107.600000
21
126.200000
0
ARC
5
403
100
AcDbEntity
8
1
100
AcDbCircle
6
CONTINUOUS
62
5
10
108.300000
20
126.200000
40
0.700000
100
AcDbArc
50
179.999998
51
-89.999999
0
LINE
5
404
100
AcDbEntity
8
1
100
AcDbLine
6
CONTINUOUS
62
5
10
108.300000
20
125.500000
11
135.200000
21
125.500000
0
POLYLINE
5
405
100
AcDbEntity
8
0
6
CONTINUOUS
62
5
100
AcDb2dPolyline
66
1
10
0.0
20
0.0
30
0.0
70
0
0
VERTEX
5
406
100
AcDbEntity
8
0
100
AcDbVertex
100
AcDb2dVertex
62
5
10
246.250000
20
210.500000
0
VERTEX
5
407
100
AcDbEntity
8
0
100
AcDbVertex
100
AcDb2dVertex
62
5
10
235.750000
20
210.356948
0
VERTEX
5
408
100
AcDbEntity
8
0
100
AcDbVertex
100
AcDb2dVertex
62
5
10
235.750000
20
109.643049
0
VERTEX
5
409
100
AcDbEntity
8
0
100
AcDbVertex
100
AcDb2dVertex
62
5
10
246.250000
20
109.500000
0
SEQEND
5
40a
100
AcDbEntity
8
0
0
ARC
5
40b
100
AcDbEntity
8
1
100
AcDbCircle
6
CONTINUOUS
62
5
10
236.250000
20
110.190567
40
0.500000
100
AcDbArc
50
179.999998
51
-91.091215
0
ARC
5
40c
100
AcDbEntity
8
1
100
AcDbCircle
6
CONTINUOUS
62
5
10
236.250000
20
209.809433
40
0.500000
100
AcDbArc
50
91.091215
51
179.999998
0
POLYLINE
5
40d
100
AcDbEntity
8
1
6
CONTINUOUS
62
5
100
AcDb2dPolyline
66
1
10
0.0
20
0.0
30
0.0
70
0
0
VERTEX
5
40e
100
AcDbEntity
8
1
100
AcDbVertex
100
AcDb2dVertex
62
5
10
236.240478
20
210.309342
0
VERTEX
5
40f
100
AcDbEntity
8
1
100
AcDbVertex
100
AcDb2dVertex
62
5
10
246.250000
20
210.500000
0
VERTEX
5
410
100
AcDbEntity
8
1
100
AcDbVertex
100
AcDb2dVertex
62
5
10
246.250000
20
109.500000
0
VERTEX
5
411
100
AcDbEntity
8
1
100
AcDbVertex
100
AcDb2dVertex
62
5
10
236.240478
20
109.690658
0
SEQEND
5
412
100
AcDbEntity
8
1
0
ARC
5
413
100
AcDbEntity
8
0
100
AcDbCircle
6
CONTINUOUS
62
5
10
211.145127
20
112.978546
40
3.000000
100
AcDbArc
50
-145.561010
51
-90.780553
0
LINE
5
414
100
AcDbEntity
8
0
100
AcDbLine
6
CONTINUOUS
62
5
10
208.670941
20
111.281961
11
205.100542
21
116.488793
0
ARC
5
415
100
AcDbEntity
8
0
100
AcDbCircle
6
CONTINUOUS
62
5
10
206.750000
20
117.619849
40
2.000000
100
AcDbArc
50
179.999995
51
-145.561009
0
LINE
5
416
100
AcDbEntity
8
0
100
AcDbLine
6
CONTINUOUS
62
5
10
204.750000
20
117.619849
11
204.750000
21
202.380150
0
ARC
5
417
100
AcDbEntity
8
0
100
AcDbCircle
6
CONTINUOUS
62
5
10
206.750000
20
202.380150
40
2.000000
100
AcDbArc
50
145.560973
51
179.999995
0
LINE
5
418
100
AcDbEntity
8
0
100
AcDbLine
6
CONTINUOUS
62
5
10
205.100543
20
203.511208
11
208.670947
21
208.718040
0
ARC
5
419
100
AcDbEntity
8
0
100
AcDbCircle
6
CONTINUOUS
62
5
10
211.145133
20
207.021454
40
3.000000
100
AcDbArc
50
90.780547
51
145.560972
0
LINE
5
41a
100
AcDbEntity
8
0
100
AcDbLine
6
CONTINUOUS
62
5
10
211.104265
20
210.021175
11
235.750000
21
210.356948
0
LINE
5
41b
100
AcDbEntity
8
0
100
AcDbLine
6
CONTINUOUS
62
5
10
235.750000
20
109.643049
11
211.104259
21
109.978825
0
ARC
5
41c
100
AcDbEntity
8
1
100
AcDbCircle
6
CONTINUOUS
62
5
10
139.100000
20
110.000000
40
0.500000
100
AcDbArc
50
-134.575291
51
-89.999999
0
LINE
5
41d
100
AcDbEntity
8
1
100
AcDbLine
6
CONTINUOUS
62
5
10
139.100000
20
109.500000
11
141.750000
21
109.500000
0
ARC
5
41e
100
AcDbEntity
8
1
100
AcDbCircle
6
CONTINUOUS
62
5
10
141.750000
20
117.500000
40
8.000000
100
AcDbArc
50
-89.999999
51
0.000000
0
LINE
5
41f
100
AcDbEntity
8
1
100
AcDbLine
6
CONTINUOUS
62
5
10
149.750000
20
117.500000
11
149.750000
21
202.500000
0
ARC
5
420
100
AcDbEntity
8
1
100
AcDbCircle
6
CONTINUOUS
62
5
10
141.750000
20
202.500000
40
8.000000
100
AcDbArc
50
-0.000000
51
89.999999
0
LINE
5
421
100
AcDbEntity
8
1
100
AcDbLine
6
CONTINUOUS
62
5
10
141.750000
20
210.500000
11
139.100000
21
210.500000
0
ARC
5
422
100
AcDbEntity
8
1
100
AcDbCircle
6
CONTINUOUS
62
5
10
139.100000
20
210.000000
40
0.500000
100
AcDbArc
50
89.999999
51
134.575280
0
ARC
5
423
100
AcDbEntity
8
1
100
AcDbCircle
6
CONTINUOUS
62
5
10
104.400000
20
110.000000
40
0.500000
100
AcDbArc
50
-89.999999
51
-45.424707
0
LINE
5
424
100
AcDbEntity
8
1
100
AcDbLine
6
CONTINUOUS
62
5
10
104.400000
20
109.500000
11
101.750000
21
109.500000
0
ARC
5
425
100
AcDbEntity
8
1
100
AcDbCircle
6
CONTINUOUS
62
5
10
101.750000
20
117.500000
40
8.000000
100
AcDbArc
50
179.999998
51
-89.999999
0
LINE
5
426
100
AcDbEntity
8
1
100
AcDbLine
6
CONTINUOUS
62
5
10
93.750000
20
117.500000
11
93.750000
21
202.500000
0
ARC
5
427
100
AcDbEntity
8
1
100
AcDbCircle
6
CONTINUOUS
62
5
10
101.750000
20
202.500000
40
8.000000
100
AcDbArc
50
89.999999
51
-179.999998
0
LINE
5
428
100
AcDbEntity
8
1
100
AcDbLine
6
CONTINUOUS
62
5
10
101.750000
20
210.500000
11
104.400000
21
210.500000
0
ARC
5
429
100
AcDbEntity
8
1
100
AcDbCircle
6
CONTINUOUS
62
5
10
104.400000
20
210.000000
40
0.500000
100
AcDbArc
50
45.424719
51
89.999999
0
ARC
5
42a
100
AcDbEntity
8
1
100
AcDbCircle
6
CONTINUOUS
62
5
10
142.250000
20
202.500000
40
0.500000
100
AcDbArc
50
0.000000
51
89.999999
0
LINE
5
42b
100
AcDbEntity
8
1
100
AcDbLine
6
CONTINUOUS
62
5
10
142.250000
20
203.000000
11
101.250000
21
203.000000
0
ARC
5
42c
100
AcDbEntity
8
1
100
AcDbCircle
6
CONTINUOUS
62
5
10
101.250000
20
202.500000
40
0.500000
100
AcDbArc
50
89.999999
51
179.999998
0
LINE
5
42d
100
AcDbEntity
8
1
100
AcDbLine
6
CONTINUOUS
62
5
10
100.750000
20
202.500000
11
100.750000
21
117.500000
0
ARC
5
42e
100
AcDbEntity
8
1
100
AcDbCircle
6
CONTINUOUS
62
5
10
101.250000
20
117.500000
40
0.500000
100
AcDbArc
50
179.999998
51
-89.999999
0
LINE
5
42f
100
AcDbEntity
8
1
100
AcDbLine
6
CONTINUOUS
62
5
10
101.250000
20
117.000000
11
121.750000
21
117.000000
0
LINE
5
430
100
AcDbEntity
8
1
100
AcDbLine
6
CONTINUOUS
62
5
10
121.750000
20
117.000000
11
142.250000
21
117.000000
0
ARC
5
431
100
AcDbEntity
8
1
100
AcDbCircle
6
CONTINUOUS
62
5
10
142.250000
20
117.500000
40
0.500000
100
AcDbArc
50
-89.999999
51
0.000000
0
LINE
5
432
100
AcDbEntity
8
1
100
AcDbLine
6
CONTINUOUS
62
5
10
142.750000
20
117.500000
11
142.750000
21
202.500000
0
ARC
5
433
100
AcDbEntity
8
1
100
AcDbCircle
6
CONTINUOUS
62
5
10
101.750000
20
117.443836
40
7.800000
100
AcDbArc
50
179.999998
51
-89.999999
0
LINE
5
434
100
AcDbEntity
8
1
100
AcDbLine
6
CONTINUOUS
62
5
10
93.950000
20
117.443836
11
93.950000
21
202.556164
0
ARC
5
435
100
AcDbEntity
8
1
100
AcDbCircle
6
CONTINUOUS
62
5
10
101.750000
20
202.556164
40
7.800000
100
AcDbArc
50
89.999999
51
179.999998
0
POLYLINE
5
436
100
AcDbEntity
8
1
6
CONTINUOUS
62
5
100
AcDb2dPolyline
66
1
10
0.0
20
0.0
30
0.0
70
0
0
VERTEX
5
437
100
AcDbEntity
8
1
100
AcDbVertex
100
AcDb2dVertex
62
5
10
101.750000
20
210.356164
0
VERTEX
5
438
100
AcDbEntity
8
1
100
AcDbVertex
100
AcDb2dVertex
62
5
10
104.850000
20
210.356164
0
VERTEX
5
439
100
AcDbEntity
8
1
100
AcDbVertex
100
AcDb2dVertex
62
5
10
105.050000
20
210.500000
0
VERTEX
5
43a
100
AcDbEntity
8
1
100
AcDbVertex
100
AcDb2dVertex
62
5
10
111.000000
20
210.500000
0
VERTEX
5
43b
100
AcDbEntity
8
1
100
AcDbVertex
100
AcDb2dVertex
62
5
10
111.050000
20
210.427397
0
VERTEX
5
43c
100
AcDbEntity
8
1
100
AcDbVertex
100
AcDb2dVertex
62
5
10
112.950000
20
210.356948
0
VERTEX
5
43d
100
AcDbEntity
8
1
100
AcDbVertex
100
AcDb2dVertex
62
5
10
121.750000
20
210.356948
0
SEQEND
5
43e
100
AcDbEntity
8
1
0
POLYLINE
5
43f
100
AcDbEntity
8
1
6
CONTINUOUS
62
5
100
AcDb2dPolyline
66
1
10
0.0
20
0.0
30
0.0
70
0
0
VERTEX
5
440
100
AcDbEntity
8
1
100
AcDbVertex
100
AcDb2dVertex
62
5
10
121.750000
20
210.356948
0
VERTEX
5
441
100
AcDbEntity
8
1
100
AcDbVertex
100
AcDb2dVertex
62
5
10
130.550000
20
210.356948
0
VERTEX
5
442
100
AcDbEntity
8
1
100
AcDbVertex
100
AcDb2dVertex
62
5
10
132.450000
20
210.427397
0
VERTEX
5
443
100
AcDbEntity
8
1
100
AcDbVertex
100
AcDb2dVertex
62
5
10
132.500000
20
210.500000
0
VERTEX
5
444
100
AcDbEntity
8
1
100
AcDbVertex
100
AcDb2dVertex
62
5
10
138.450000
20
210.500000
0
VERTEX
5
445
100
AcDbEntity
8
1
100
AcDbVertex
100
AcDb2dVertex
62
5
10
138.650000
20
210.356164
0
VERTEX
5
446
100
AcDbEntity
8
1
100
AcDbVertex
100
AcDb2dVertex
62
5
10
141.750000
20
210.356164
0
SEQEND
5
447
100
AcDbEntity
8
1
0
ARC
5
448
100
AcDbEntity
8
1
100
AcDbCircle
6
CONTINUOUS
62
5
10
141.750000
20
202.556164
40
7.800000
100
AcDbArc
50
0.000000
51
89.999999
0
LINE
5
449
100
AcDbEntity
8
1
100
AcDbLine
6
CONTINUOUS
62
5
10
149.550000
20
202.556164
11
149.550000
21
117.443836
0
ARC
5
44a
100
AcDbEntity
8
1
100
AcDbCircle
6
CONTINUOUS
62
5
10
141.750000
20
117.443836
40
7.800000
100
AcDbArc
50
-89.999999
51
0.000000
0
POLYLINE
5
44b
100
AcDbEntity
8
1
6
CONTINUOUS
62
5
100
AcDb2dPolyline
66
1
10
0.0
20
0.0
30
0.0
70
0
0
VERTEX
5
44c
100
AcDbEntity
8
1
100
AcDbVertex
100
AcDb2dVertex
62
5
10
141.750000
20
109.643836
0
VERTEX
5
44d
100
AcDbEntity
8
1
100
AcDbVertex
100
AcDb2dVertex
62
5
10
138.650000
20
109.643836
0
VERTEX
5
44e
100
AcDbEntity
8
1
100
AcDbVertex
100
AcDb2dVertex
62
5
10
138.450000
20
109.500000
0
VERTEX
5
44f
100
AcDbEntity
8
1
100
AcDbVertex
100
AcDb2dVertex
62
5
10
132.500000
20
109.500000
0
VERTEX
5
450
100
AcDbEntity
8
1
100
AcDbVertex
100
AcDb2dVertex
62
5
10
132.450000
20
109.572603
0
VERTEX
5
451
100
AcDbEntity
8
1
100
AcDbVertex
100
AcDb2dVertex
62
5
10
130.550000
20
109.643052
0
VERTEX
5
452
100
AcDbEntity
8
1
100
AcDbVertex
100
AcDb2dVertex
62
5
10
112.950000
20
109.643052
0
VERTEX
5
453
100
AcDbEntity
8
1
100
AcDbVertex
100
AcDb2dVertex
62
5
10
111.050000
20
109.572603
0
VERTEX
5
454
100
AcDbEntity
8
1
100
AcDbVertex
100
AcDb2dVertex
62
5
10
111.000000
20
109.500000
0
VERTEX
5
455
100
AcDbEntity
8
1
100
AcDbVertex
100
AcDb2dVertex
62
5
10
105.050000
20
109.500000
0
VERTEX
5
456
100
AcDbEntity
8
1
100
AcDbVertex
100
AcDb2dVertex
62
5
10
104.850000
20
109.643836
0
VERTEX
5
457
100
AcDbEntity
8
1
100
AcDbVertex
100
AcDb2dVertex
62
5
10
101.750000
20
109.643836
0
SEQEND
5
458
100
AcDbEntity
8
1
0
ARC
5
459
100
AcDbEntity
8
1
100
AcDbCircle
6
CONTINUOUS
62
5
10
141.750000
20
202.600000
40
7.400000
100
AcDbArc
50
0.000000
51
89.999999
0
LINE
5
45a
100
AcDbEntity
8
1
100
AcDbLine
6
CONTINUOUS
62
5
10
141.750000
20
210.000000
11
101.750000
21
210.000000
0
ARC
5
45b
100
AcDbEntity
8
1
100
AcDbCircle
6
CONTINUOUS
62
5
10
101.750000
20
202.600000
40
7.400000
100
AcDbArc
50
89.999999
51
179.999998
0
LINE
5
45c
100
AcDbEntity
8
1
100
AcDbLine
6
CONTINUOUS
62
5
10
94.350000
20
202.600000
11
94.350000
21
117.400000
0
ARC
5
45d
100
AcDbEntity
8
1
100
AcDbCircle
6
CONTINUOUS
62
5
10
101.750000
20
117.400000
40
7.400000
100
AcDbArc
50
179.999998
51
-89.999999
0
LINE
5
45e
100
AcDbEntity
8
1
100
AcDbLine
6
CONTINUOUS
62
5
10
101.750000
20
110.000000
11
121.750000
21
110.000000
0
LINE
5
45f
100
AcDbEntity
8
1
100
AcDbLine
6
CONTINUOUS
62
5
10
121.750000
20
110.000000
11
141.750000
21
110.000000
0
ARC
5
460
100
AcDbEntity
8
1
100
AcDbCircle
6
CONTINUOUS
62
5
10
141.750000
20
117.400000
40
7.400000
100
AcDbArc
50
-89.999999
51
0.000000
0
LINE
5
461
100
AcDbEntity
8
1
100
AcDbLine
6
CONTINUOUS
62
5
10
149.150000
20
117.400000
11
149.150000
21
202.600000
0
POLYLINE
5
462
100
AcDbEntity
8
1
6
CONTINUOUS
62
5
100
AcDb2dPolyline
66
1
10
0.0
20
0.0
30
0.0
70
1
0
VERTEX
5
463
100
AcDbEntity
8
1
100
AcDbVertex
100
AcDb2dVertex
62
5
10
330.000000
20
350.000000
0
VERTEX
5
464
100
AcDbEntity
8
1
100
AcDbVertex
100
AcDb2dVertex
62
5
10
10.000000
20
350.000000
0
VERTEX
5
465
100
AcDbEntity
8
1
100
AcDbVertex
100
AcDb2dVertex
62
5
10
10.000000
20
10.000000
0
VERTEX
5
466
100
AcDbEntity
8
1
100
AcDbVertex
100
AcDb2dVertex
62
5
10
330.000000
20
10.000000
0
SEQEND
5
467
100
AcDbEntity
8
1
0
POLYLINE
5
468
100
AcDbEntity
8
1
6
DOT2
62
5
100
AcDb2dPolyline
66
1
10
0.0
20
0.0
30
0.0
70
0
0
VERTEX
5
469
100
AcDbEntity
8
1
100
AcDbVertex
100
AcDb2dVertex
62
5
10
340.000000
20
10.000000
0
VERTEX
5
46a
100
AcDbEntity
8
1
100
AcDbVertex
100
AcDb2dVertex
62
5
10
340.000000
20
0.000000
0
VERTEX
5
46b
100
AcDbEntity
8
1
100
AcDbVertex
100
AcDb2dVertex
62
5
10
330.000000
20
0.000000
0
SEQEND
5
46c
100
AcDbEntity
8
1
0
POLYLINE
5
46d
100
AcDbEntity
8
1
6
DOT2
62
5
100
AcDb2dPolyline
66
1
10
0.0
20
0.0
30
0.0
70
0
0
VERTEX
5
46e
100
AcDbEntity
8
1
100
AcDbVertex
100
AcDb2dVertex
62
5
10
10.000000
20
0.000000
0
VERTEX
5
46f
100
AcDbEntity
8
1
100
AcDbVertex
100
AcDb2dVertex
62
5
10
0.000000
20
0.000000
0
VERTEX
5
470
100
AcDbEntity
8
1
100
AcDbVertex
100
AcDb2dVertex
62
5
10
0.000000
20
10.000000
0
SEQEND
5
471
100
AcDbEntity
8
1
0
POLYLINE
5
472
100
AcDbEntity
8
1
6
DOT2
62
5
100
AcDb2dPolyline
66
1
10
0.0
20
0.0
30
0.0
70
0
0
VERTEX
5
473
100
AcDbEntity
8
1
100
AcDbVertex
100
AcDb2dVertex
62
5
10
0.000000
20
350.000000
0
VERTEX
5
474
100
AcDbEntity
8
1
100
AcDbVertex
100
AcDb2dVertex
62
5
10
0.000000
20
360.000000
0
VERTEX
5
475
100
AcDbEntity
8
1
100
AcDbVertex
100
AcDb2dVertex
62
5
10
10.000000
20
360.000000
0
SEQEND
5
476
100
AcDbEntity
8
1
0
POLYLINE
5
477
100
AcDbEntity
8
1
6
DOT2
62
5
100
AcDb2dPolyline
66
1
10
0.0
20
0.0
30
0.0
70
0
0
VERTEX
5
478
100
AcDbEntity
8
1
100
AcDbVertex
100
AcDb2dVertex
62
5
10
330.000000
20
360.000000
0
VERTEX
5
479
100
AcDbEntity
8
1
100
AcDbVertex
100
AcDb2dVertex
62
5
10
340.000000
20
360.000000
0
VERTEX
5
47a
100
AcDbEntity
8
1
100
AcDbVertex
100
AcDb2dVertex
62
5
10
340.000000
20
350.000000
0
SEQEND
5
47b
100
AcDbEntity
8
1
0
ENDSEC
0
SECTION
2
OBJECTS
0
DICTIONARY
5
47c
100
AcDbDictionary
3
ACAD_GROUP
350
47d
3
ACAD_MLINESTYLE
350
47e
0
DICTIONARY
5
47d
102
{ACAD_REACTORS
330
47c
102
}
100
AcDbDictionary
0
DICTIONARY
5
47e
102
{ACAD_REACTORS
330
47c
102
}
100
AcDbDictionary
3
STANDARD
350
47f
0
MLINESTYLE
5
47f
102
{ACAD_REACTORS
330
47e
102
}
100
AcDbMlineStyle
2
STANDARD
70
0
3

62
0
51
90.0
52
90.0
71
2
49
0.5
62
256
6
BYLAYER
49
-0.5
62
256
6
BYLAYER
0
ENDSEC
0
EOF
