0
SECTION
2
HEADER
9
$ACADVER
1
AC1012
9
$EXTMIN
10
-0.010000
20
-0.010000
30
0.0
9
$EXTMAX
10
13.390000
20
14.180000
30
0.0
9
$LIMMIN
10
-0.254000
20
-0.254000
9
$LIMMAX
10
340.106000
20
360.172000
9
$DIMSCALE
40
1.000000
9
$PDMODE
70
2
9
$PDSIZE
40
0.0
  9
$HANDSEED
  5
70b
0
ENDSEC
0
SECTION
2
CLASSES
0
ENDSEC
0
SECTION
2
TABLES
0
TABLE
2
LTYPE
5
1e
100
AcDbSymbolTable
70
12
0
LTYPE
5
1f
100
AcDbSymbolTableRecord
100
AcDbLinetypeTableRecord
2
BYBLOCK
70
0
3

72
65
73
0
40
0.0
0
LTYPE
5
20
100
AcDbSymbolTableRecord
100
AcDbLinetypeTableRecord
2
BYLAYER
70
0
3

72
65
73
0
40
0.0
0
LTYPE
5
21
100
AcDbSymbolTableRecord
100
AcDbLinetypeTableRecord
2
CONTINUOUS
70
64
3
Solid line
72
65
73
0
40
0.0
0
LTYPE
5
22
100
AcDbSymbolTableRecord
100
AcDbLinetypeTableRecord
2
DASHED
70
64
3
__ __ __ __ __ __ __ __ __ __ __ __ __ __ __
72
65
73
2
40
0.75
49
0.5
74
0
49
-0.25
74
0
0
LTYPE
5
23
100
AcDbSymbolTableRecord
100
AcDbLinetypeTableRecord
2
DOT
70
64
3
...............................................
72
65
73
2
40
0.25
49
0.0
74
0
49
-0.25
74
0
0
LTYPE
5
24
100
AcDbSymbolTableRecord
100
AcDbLinetypeTableRecord
2
DASHDOT
70
64
3
__ . __ . __ . __ . __ . __ . __ . __ . __ . --
72
65
73
4
40
1.0
49
0.5
74
0
49
-0.25
74
0
49
0.0
74
0
49
-0.25
74
0
0
LTYPE
5
25
100
AcDbSymbolTableRecord
100
AcDbLinetypeTableRecord
2
CENTER
70
64
3
____ _ ____ _ ____ _ ____ _ ____ _ ____ _ ____
72
65
73
4
40
2.0
49
1.25
74
0
49
-0.25
74
0
49
0.25
74
0
49
-0.25
74
0
0
LTYPE
5
26
100
AcDbSymbolTableRecord
100
AcDbLinetypeTableRecord
2
PHANTOM
70
64
3
_____ _ _ _____ _ _ _____ _ _ _____ _ _ ____
72
65
73
6
40
2.5
49
1.25
74
0
49
-0.25
74
0
49
0.25
74
0
49
-0.25
74
0
49
0.25
74
0
49
-0.25
74
0
0
LTYPE
5
27
100
AcDbSymbolTableRecord
100
AcDbLinetypeTableRecord
2
HIDDEN
70
64
3
_ _ _ _ _ _ _ _ _ _ _ _ _ _ _ _ _ _ _ _ _ _ _
72
65
73
2
40
0.375
49
0.25
74
0
49
-0.125
74
0
0
LTYPE
5
28
100
AcDbSymbolTableRecord
100
AcDbLinetypeTableRecord
2
BORDER
70
64
3
__ __ . __ __ . __ __ . __ __ . __ __ . __ __
72
65
73
6
40
1.75
49
0.5
74
0
49
-0.25
74
0
49
0.5
74
0
49
-0.25
74
0
49
0.0
74
0
49
-0.25
74
0
0
LTYPE
5
29
100
AcDbSymbolTableRecord
100
AcDbLinetypeTableRecord
2
DIVIDE
70
64
3
__ . . __ . . __ . . __ . . __ . . __ . . __
72
65
73
6
40
1.25
49
0.5
74
0
49
-0.25
74
0
49
0.0
74
0
49
-0.25
74
0
49
0.0
74
0
49
-0.25
74
0
0
LTYPE
5
2a
100
AcDbSymbolTableRecord
100
AcDbLinetypeTableRecord
2
DOT2
70
64
3
...............................................
72
65
73
2
40
0.125
49
0.0
74
0
49
-0.125
74
0
0
ENDTAB
0
TABLE
2
STYLE
5
2b
100
AcDbSymbolTable
70
1
0
STYLE
5
2c
100
AcDbSymbolTableRecord
100
AcDbTextStyleTableRecord
2
STANDARD
70
64
40
0.0
41
1.0
50
0.0
71
0
42
5.0
3
txt
4
bigfont
0
ENDTAB
0
TABLE
2
LAYER
5
2d
100
AcDbSymbolTable
70
2
0
LAYER
5
2e
100
AcDbSymbolTableRecord
100
AcDbLayerTableRecord
2
0
70
0
62
7
6
CONTINUOUS
0
LAYER
5
2f
100
AcDbSymbolTableRecord
100
AcDbLayerTableRecord
2
1
70
0
62
7
6
CONTINUOUS
0
ENDTAB
0
TABLE
2
APPID
5
30
100
AcDbSymbolTable
70
1
0
APPID
5
31
100
AcDbSymbolTableRecord
100
AcDbRegAppTableRecord
2
ACAD
70
64
0
ENDTAB
0
TABLE
2
DIMSTYLE
5
32
100
AcDbSymbolTable
70
0
0
ENDTAB
0
TABLE
2
UCS
5
33
100
AcDbSymbolTable
70
0
0
ENDTAB
0
TABLE
2
VIEW
5
34
100
AcDbSymbolTable
70
0
0
ENDTAB
0
TABLE
2
VPORT
5
35
100
AcDbSymbolTable
70
0
0
ENDTAB
0
TABLE
2
BLOCK_RECORD
5
36
100
AcDbSymbolTable
70
0
0
BLOCK_RECORD
5
37
100
AcDbSymbolTableRecord
100
AcDbBlockTableRecord
2
*MODEL_SPACE
0
BLOCK_RECORD
5
38
100
AcDbSymbolTableRecord
100
AcDbBlockTableRecord
2
*PAPER_SPACE
0
BLOCK_RECORD
5
39
100
AcDbSymbolTableRecord
100
AcDbBlockTableRecord
2
OPEN
0
BLOCK_RECORD
5
3a
100
AcDbSymbolTableRecord
100
AcDbBlockTableRecord
2
HALF
0
BLOCK_RECORD
5
3b
100
AcDbSymbolTableRecord
100
AcDbBlockTableRecord
2
CLOSEDBLANK
0
BLOCK_RECORD
5
3c
100
AcDbSymbolTableRecord
100
AcDbBlockTableRecord
2
HALFCLOSE_R
0
BLOCK_RECORD
5
3d
100
AcDbSymbolTableRecord
100
AcDbBlockTableRecord
2
DOT
0
BLOCK_RECORD
5
3e
100
AcDbSymbolTableRecord
100
AcDbBlockTableRecord
2
HALFOPEN_R
0
BLOCK_RECORD
5
3f
100
AcDbSymbolTableRecord
100
AcDbBlockTableRecord
2
CLOSEDF
0
BLOCK_RECORD
5
40
100
AcDbSymbolTableRecord
100
AcDbBlockTableRecord
2
HALF_R
0
ENDTAB
0
ENDSEC
0
SECTION
2
BLOCKS
0
BLOCK
5
41
100
AcDbEntity
8
0
100
AcDbBlockBegin
2
*MODEL_SPACE
70
0
10
0.0
20
0.0
30
0.0
3
*MODEL_SPACE
1

0
ENDBLK
5
42
100
AcDbEntity
8
0
100
AcDbBlockEnd
0
BLOCK
5
43
100
AcDbEntity
67
1
8
0
100
AcDbBlockBegin
2
*PAPER_SPACE
70
0
10
0.0
20
0.0
30
0.0
3
*PAPER_SPACE
1

0
ENDBLK
5
44
100
AcDbEntity
67
1
8
0
100
AcDbBlockEnd
0
BLOCK
5
45
100
AcDbEntity
8
0
100
AcDbBlockBegin
2
OPEN
70
0
10
0.0
20
0.0
30
0.0
3
OPEN
1

0
LINE
5
46
100
AcDbEntity
8
0
6
BYBLOCK
62
0
100
AcDbLine
10
0.000000
20
0.000000
11
-1.000000
21
0.000000
0
LINE
5
47
100
AcDbEntity
8
0
6
BYBLOCK
62
0
100
AcDbLine
10
-1.000000
20
-0.166667
11
0.000000
21
0.000000
0
LINE
5
48
100
AcDbEntity
8
0
6
BYBLOCK
62
0
100
AcDbLine
10
-1.000000
20
0.166667
11
0.000000
21
0.000000
0
ENDBLK
5
49
100
AcDbEntity
8
0
100
AcDbBlockEnd
0
BLOCK
5
4a
100
AcDbEntity
8
0
100
AcDbBlockBegin
2
HALF
70
0
10
0.0
20
0.0
30
0.0
3
HALF
1

0
SOLID
5
4b
100
AcDbEntity
8
0
6
BYBLOCK
62
0
100
AcDbTrace
10
-1.000000
20
0.166667
11
-1.000000
21
-0.166667
12
0.000000
22
0.000000
13
0.000000
23
0.000000
0
ENDBLK
5
4c
100
AcDbEntity
8
0
100
AcDbBlockEnd
0
BLOCK
5
4d
100
AcDbEntity
8
0
100
AcDbBlockBegin
2
CLOSEDBLANK
70
0
10
0.0
20
0.0
30
0.0
3
CLOSEDBLANK
1

0
LINE
5
4e
100
AcDbEntity
8
0
6
BYBLOCK
62
0
100
AcDbLine
10
-1.000000
20
0.166667
11
-1.000000
21
-0.166667
0
LINE
5
4f
100
AcDbEntity
8
0
6
BYBLOCK
62
0
100
AcDbLine
10
0.000000
20
0.000000
11
-1.000000
21
-0.166667
0
LINE
5
50
100
AcDbEntity
8
0
6
BYBLOCK
62
0
100
AcDbLine
10
-1.000000
20
0.166667
11
0.000000
21
0.000000
0
ENDBLK
5
51
100
AcDbEntity
8
0
100
AcDbBlockEnd
0
BLOCK
5
52
100
AcDbEntity
8
0
100
AcDbBlockBegin
2
HALFCLOSE_R
70
0
10
0.0
20
0.0
30
0.0
3
HALFCLOSE_R
1

0
LINE
5
53
100
AcDbEntity
8
0
6
BYBLOCK
62
0
100
AcDbLine
10
-1.000000
20
-0.166667
11
-1.000000
21
0.000000
0
LINE
5
54
100
AcDbEntity
8
0
6
BYBLOCK
62
0
100
AcDbLine
10
-1.000000
20
-0.166667
11
0.000000
21
0.000000
0
LINE
5
55
100
AcDbEntity
8
0
6
BYBLOCK
62
0
100
AcDbLine
10
0.000000
20
0.000000
11
-1.000000
21
0.000000
0
ENDBLK
5
56
100
AcDbEntity
8
0
100
AcDbBlockEnd
0
BLOCK
5
57
100
AcDbEntity
8
0
100
AcDbBlockBegin
2
DOT
70
0
10
0.0
20
0.0
30
0.0
3
DOT
1

0
LINE
5
58
100
AcDbEntity
8
0
6
BYBLOCK
62
0
100
AcDbLine
10
0.000000
20
0.000000
11
-1.000000
21
0.000000
0
POLYLINE
5
59
100
AcDbEntity
8
0
6
BYBLOCK
62
0
100
AcDb2dPolyline
66
1
10
0.0
20
0.0
30
0.0
70
1
40
0.166667
41
0.166667
0
VERTEX
5
5a
100
AcDbEntity
8
0
100
AcDbVertex
100
AcDb2dVertex
62
10
10
-0.083333
20
0.000000
42
1.000000
0
VERTEX
5
5b
100
AcDbEntity
8
0
100
AcDbVertex
100
AcDb2dVertex
62
10
10
0.083333
20
0.000000
42
1.000000
0
SEQEND
5
5c
100
AcDbEntity
8
0
0
ENDBLK
5
5d
100
AcDbEntity
8
0
100
AcDbBlockEnd
0
BLOCK
5
5e
100
AcDbEntity
8
0
100
AcDbBlockBegin
2
HALFOPEN_R
70
0
10
0.0
20
0.0
30
0.0
3
HALFOPEN_R
1

0
LINE
5
5f
100
AcDbEntity
8
0
6
BYBLOCK
62
0
100
AcDbLine
10
-1.000000
20
-0.166667
11
0.000000
21
0.000000
0
LINE
5
60
100
AcDbEntity
8
0
6
BYBLOCK
62
0
100
AcDbLine
10
0.000000
20
0.000000
11
-1.000000
21
0.000000
0
ENDBLK
5
61
100
AcDbEntity
8
0
100
AcDbBlockEnd
0
BLOCK
5
62
100
AcDbEntity
8
0
100
AcDbBlockBegin
2
CLOSEDF
70
0
10
0.0
20
0.0
30
0.0
3
CLOSEDF
1

0
SOLID
5
63
100
AcDbEntity
8
0
6
BYBLOCK
62
0
100
AcDbTrace
10
-1.000000
20
0.166667
11
-1.000000
21
-0.166667
12
0.000000
22
0.000000
13
0.000000
23
0.000000
0
ENDBLK
5
64
100
AcDbEntity
8
0
100
AcDbBlockEnd
0
BLOCK
5
65
100
AcDbEntity
8
0
100
AcDbBlockBegin
2
HALF_R
70
0
10
0.0
20
0.0
30
0.0
3
HALF_R
1

0
SOLID
5
66
100
AcDbEntity
8
0
6
BYBLOCK
62
0
100
AcDbTrace
10
-1.000000
20
-0.166667
11
-1.000000
21
0.000000
12
0.000000
22
0.000000
13
0.000000
23
0.000000
0
ENDBLK
5
67
100
AcDbEntity
8
0
100
AcDbBlockEnd
0
ENDSEC
0
SECTION
2
ENTITIES
0
POLYLINE
5
68
100
AcDbEntity
8
1
6
CONTINUOUS
62
5
100
AcDb2dPolyline
66
1
10
0.0
20
0.0
30
0.0
70
0
0
VERTEX
5
69
100
AcDbEntity
8
1
100
AcDbVertex
100
AcDb2dVertex
62
5
10
259.644141
20
336.812500
0
VERTEX
5
6a
100
AcDbEntity
8
1
100
AcDbVertex
100
AcDb2dVertex
62
5
10
259.894141
20
338.375000
0
VERTEX
5
6b
100
AcDbEntity
8
1
100
AcDbVertex
100
AcDb2dVertex
62
5
10
260.644141
20
339.000000
0
VERTEX
5
6c
100
AcDbEntity
8
1
100
AcDbVertex
100
AcDb2dVertex
62
5
10
261.394141
20
339.000000
0
VERTEX
5
6d
100
AcDbEntity
8
1
100
AcDbVertex
100
AcDb2dVertex
62
5
10
261.894141
20
338.687500
0
VERTEX
5
6e
100
AcDbEntity
8
1
100
AcDbVertex
100
AcDb2dVertex
62
5
10
262.144141
20
337.750000
0
VERTEX
5
6f
100
AcDbEntity
8
1
100
AcDbVertex
100
AcDb2dVertex
62
5
10
262.144141
20
336.812500
0
VERTEX
5
70
100
AcDbEntity
8
1
100
AcDbVertex
100
AcDb2dVertex
62
5
10
261.894141
20
335.875000
0
VERTEX
5
71
100
AcDbEntity
8
1
100
AcDbVertex
100
AcDb2dVertex
62
5
10
259.644141
20
331.500000
0
VERTEX
5
72
100
AcDbEntity
8
1
100
AcDbVertex
100
AcDb2dVertex
62
5
10
262.144141
20
331.500000
0
VERTEX
5
73
100
AcDbEntity
8
1
100
AcDbVertex
100
AcDb2dVertex
62
5
10
262.144141
20
332.437500
0
SEQEND
5
74
100
AcDbEntity
8
1
0
LINE
5
75
100
AcDbEntity
8
1
100
AcDbLine
6
CONTINUOUS
62
5
10
262.894141
20
337.125000
11
265.144141
21
337.125000
0
LINE
5
76
100
AcDbEntity
8
1
100
AcDbLine
6
CONTINUOUS
62
5
10
264.144141
20
339.312500
11
264.144141
21
330.562500
0
POLYLINE
5
77
100
AcDbEntity
8
1
6
CONTINUOUS
62
5
100
AcDb2dPolyline
66
1
10
0.0
20
0.0
30
0.0
70
0
0
VERTEX
5
78
100
AcDbEntity
8
1
100
AcDbVertex
100
AcDb2dVertex
62
5
10
264.144141
20
337.125000
0
VERTEX
5
79
100
AcDbEntity
8
1
100
AcDbVertex
100
AcDb2dVertex
62
5
10
263.644141
20
335.250000
0
VERTEX
5
7a
100
AcDbEntity
8
1
100
AcDbVertex
100
AcDb2dVertex
62
5
10
262.894141
20
333.375000
0
SEQEND
5
7b
100
AcDbEntity
8
1
0
LINE
5
7c
100
AcDbEntity
8
1
100
AcDbLine
6
CONTINUOUS
62
5
10
264.144141
20
336.187500
11
265.144141
21
334.625000
0
LINE
5
7d
100
AcDbEntity
8
1
100
AcDbLine
6
CONTINUOUS
62
5
10
265.144141
20
339.000000
11
269.894141
21
339.000000
0
POLYLINE
5
7e
100
AcDbEntity
8
1
6
CONTINUOUS
62
5
100
AcDb2dPolyline
66
1
10
0.0
20
0.0
30
0.0
70
0
0
VERTEX
5
7f
100
AcDbEntity
8
1
100
AcDbVertex
100
AcDb2dVertex
62
5
10
267.394141
20
339.000000
0
VERTEX
5
80
100
AcDbEntity
8
1
100
AcDbVertex
100
AcDb2dVertex
62
5
10
266.394141
20
336.812500
0
VERTEX
5
81
100
AcDbEntity
8
1
100
AcDbVertex
100
AcDb2dVertex
62
5
10
267.894141
20
337.125000
0
VERTEX
5
82
100
AcDbEntity
8
1
100
AcDbVertex
100
AcDb2dVertex
62
5
10
267.894141
20
334.000000
0
VERTEX
5
83
100
AcDbEntity
8
1
100
AcDbVertex
100
AcDb2dVertex
62
5
10
267.394141
20
331.812500
0
VERTEX
5
84
100
AcDbEntity
8
1
100
AcDbVertex
100
AcDb2dVertex
62
5
10
266.894141
20
332.125000
0
SEQEND
5
85
100
AcDbEntity
8
1
0
POLYLINE
5
86
100
AcDbEntity
8
1
6
CONTINUOUS
62
5
100
AcDb2dPolyline
66
1
10
0.0
20
0.0
30
0.0
70
1
0
VERTEX
5
87
100
AcDbEntity
8
1
100
AcDbVertex
100
AcDb2dVertex
62
5
10
265.644141
20
335.250000
0
VERTEX
5
88
100
AcDbEntity
8
1
100
AcDbVertex
100
AcDb2dVertex
62
5
10
266.894141
20
335.250000
0
VERTEX
5
89
100
AcDbEntity
8
1
100
AcDbVertex
100
AcDb2dVertex
62
5
10
266.894141
20
333.062500
0
VERTEX
5
8a
100
AcDbEntity
8
1
100
AcDbVertex
100
AcDb2dVertex
62
5
10
265.644141
20
333.062500
0
VERTEX
5
8b
100
AcDbEntity
8
1
100
AcDbVertex
100
AcDb2dVertex
62
5
10
265.644141
20
335.250000
0
SEQEND
5
8c
100
AcDbEntity
8
1
0
POLYLINE
5
8d
100
AcDbEntity
8
1
6
CONTINUOUS
62
5
100
AcDb2dPolyline
66
1
10
0.0
20
0.0
30
0.0
70
0
0
VERTEX
5
8e
100
AcDbEntity
8
1
100
AcDbVertex
100
AcDb2dVertex
62
5
10
268.394141
20
336.812500
0
VERTEX
5
8f
100
AcDbEntity
8
1
100
AcDbVertex
100
AcDb2dVertex
62
5
10
269.894141
20
336.812500
0
VERTEX
5
90
100
AcDbEntity
8
1
100
AcDbVertex
100
AcDb2dVertex
62
5
10
269.644141
20
335.562500
0
VERTEX
5
91
100
AcDbEntity
8
1
100
AcDbVertex
100
AcDb2dVertex
62
5
10
269.144141
20
334.000000
0
VERTEX
5
92
100
AcDbEntity
8
1
100
AcDbVertex
100
AcDb2dVertex
62
5
10
268.394141
20
332.437500
0
SEQEND
5
93
100
AcDbEntity
8
1
0
POLYLINE
5
94
100
AcDbEntity
8
1
6
CONTINUOUS
62
5
100
AcDb2dPolyline
66
1
10
0.0
20
0.0
30
0.0
70
0
0
VERTEX
5
95
100
AcDbEntity
8
1
100
AcDbVertex
100
AcDb2dVertex
62
5
10
268.394141
20
335.875000
0
VERTEX
5
96
100
AcDbEntity
8
1
100
AcDbVertex
100
AcDb2dVertex
62
5
10
268.644141
20
334.625000
0
VERTEX
5
97
100
AcDbEntity
8
1
100
AcDbVertex
100
AcDb2dVertex
62
5
10
270.144141
20
332.437500
0
SEQEND
5
98
100
AcDbEntity
8
1
0
LINE
5
99
100
AcDbEntity
8
1
100
AcDbLine
6
CONTINUOUS
62
5
10
264.894141
20
330.875000
11
270.144141
21
330.875000
0
LINE
5
9a
100
AcDbEntity
8
1
100
AcDbLine
6
CONTINUOUS
62
5
10
270.894141
20
337.437500
11
273.144141
21
337.437500
0
POLYLINE
5
9b
100
AcDbEntity
8
1
6
CONTINUOUS
62
5
100
AcDb2dPolyline
66
1
10
0.0
20
0.0
30
0.0
70
0
0
VERTEX
5
9c
100
AcDbEntity
8
1
100
AcDbVertex
100
AcDb2dVertex
62
5
10
272.144141
20
339.312500
0
VERTEX
5
9d
100
AcDbEntity
8
1
100
AcDbVertex
100
AcDb2dVertex
62
5
10
272.144141
20
331.500000
0
VERTEX
5
9e
100
AcDbEntity
8
1
100
AcDbVertex
100
AcDb2dVertex
62
5
10
271.644141
20
330.875000
0
VERTEX
5
9f
100
AcDbEntity
8
1
100
AcDbVertex
100
AcDb2dVertex
62
5
10
271.144141
20
330.875000
0
SEQEND
5
a0
100
AcDbEntity
8
1
0
LINE
5
a1
100
AcDbEntity
8
1
100
AcDbLine
6
CONTINUOUS
62
5
10
271.144141
20
334.312500
11
272.894141
21
335.562500
0
LINE
5
a2
100
AcDbEntity
8
1
100
AcDbLine
6
CONTINUOUS
62
5
10
273.644141
20
338.375000
11
277.644141
21
338.375000
0
LINE
5
a3
100
AcDbEntity
8
1
100
AcDbLine
6
CONTINUOUS
62
5
10
273.394141
20
336.187500
11
277.894141
21
336.187500
0
LINE
5
a4
100
AcDbEntity
8
1
100
AcDbLine
6
CONTINUOUS
62
5
10
274.394141
20
338.375000
11
275.144141
21
336.187500
0
LINE
5
a5
100
AcDbEntity
8
1
100
AcDbLine
6
CONTINUOUS
62
5
10
276.144141
20
336.187500
11
276.894141
21
338.375000
0
LINE
5
a6
100
AcDbEntity
8
1
100
AcDbLine
6
CONTINUOUS
62
5
10
275.644141
20
338.375000
11
275.644141
21
339.625000
0
POLYLINE
5
a7
100
AcDbEntity
8
1
6
CONTINUOUS
62
5
100
AcDb2dPolyline
66
1
10
0.0
20
0.0
30
0.0
70
0
0
VERTEX
5
a8
100
AcDbEntity
8
1
100
AcDbVertex
100
AcDb2dVertex
62
5
10
275.644141
20
336.187500
0
VERTEX
5
a9
100
AcDbEntity
8
1
100
AcDbVertex
100
AcDb2dVertex
62
5
10
274.394141
20
333.062500
0
VERTEX
5
aa
100
AcDbEntity
8
1
100
AcDbVertex
100
AcDb2dVertex
62
5
10
275.894141
20
332.750000
0
VERTEX
5
ab
100
AcDbEntity
8
1
100
AcDbVertex
100
AcDb2dVertex
62
5
10
277.144141
20
332.125000
0
VERTEX
5
ac
100
AcDbEntity
8
1
100
AcDbVertex
100
AcDb2dVertex
62
5
10
277.894141
20
331.187500
0
SEQEND
5
ad
100
AcDbEntity
8
1
0
POLYLINE
5
ae
100
AcDbEntity
8
1
6
CONTINUOUS
62
5
100
AcDb2dPolyline
66
1
10
0.0
20
0.0
30
0.0
70
0
0
VERTEX
5
af
100
AcDbEntity
8
1
100
AcDbVertex
100
AcDb2dVertex
62
5
10
276.644141
20
334.625000
0
VERTEX
5
b0
100
AcDbEntity
8
1
100
AcDbVertex
100
AcDb2dVertex
62
5
10
275.894141
20
332.750000
0
VERTEX
5
b1
100
AcDbEntity
8
1
100
AcDbVertex
100
AcDb2dVertex
62
5
10
275.144141
20
331.500000
0
VERTEX
5
b2
100
AcDbEntity
8
1
100
AcDbVertex
100
AcDb2dVertex
62
5
10
274.394141
20
331.187500
0
VERTEX
5
b3
100
AcDbEntity
8
1
100
AcDbVertex
100
AcDb2dVertex
62
5
10
273.644141
20
331.187500
0
SEQEND
5
b4
100
AcDbEntity
8
1
0
LINE
5
b5
100
AcDbEntity
8
1
100
AcDbLine
6
CONTINUOUS
62
5
10
273.644141
20
334.625000
11
277.894141
21
334.625000
0
LINE
5
b6
100
AcDbEntity
8
1
100
AcDbLine
6
CONTINUOUS
62
5
10
278.894141
20
336.500000
11
281.144141
21
336.500000
0
LINE
5
b7
100
AcDbEntity
8
1
100
AcDbLine
6
CONTINUOUS
62
5
10
279.144141
20
331.500000
11
281.144141
21
333.062500
0
LINE
5
b8
100
AcDbEntity
8
1
100
AcDbLine
6
CONTINUOUS
62
5
10
280.144141
20
339.000000
11
280.144141
21
332.125000
0
POLYLINE
5
b9
100
AcDbEntity
8
1
6
CONTINUOUS
62
5
100
AcDb2dPolyline
66
1
10
0.0
20
0.0
30
0.0
70
0
0
VERTEX
5
ba
100
AcDbEntity
8
1
100
AcDbVertex
100
AcDb2dVertex
62
5
10
280.894141
20
334.937500
0
VERTEX
5
bb
100
AcDbEntity
8
1
100
AcDbVertex
100
AcDb2dVertex
62
5
10
285.394141
20
337.750000
0
VERTEX
5
bc
100
AcDbEntity
8
1
100
AcDbVertex
100
AcDb2dVertex
62
5
10
285.394141
20
334.625000
0
VERTEX
5
bd
100
AcDbEntity
8
1
100
AcDbVertex
100
AcDb2dVertex
62
5
10
284.894141
20
334.000000
0
VERTEX
5
be
100
AcDbEntity
8
1
100
AcDbVertex
100
AcDb2dVertex
62
5
10
284.394141
20
334.000000
0
SEQEND
5
bf
100
AcDbEntity
8
1
0
LINE
5
c0
100
AcDbEntity
8
1
100
AcDbLine
6
CONTINUOUS
62
5
10
283.394141
20
339.312500
11
283.394141
21
332.750000
0
POLYLINE
5
c1
100
AcDbEntity
8
1
6
CONTINUOUS
62
5
100
AcDb2dPolyline
66
1
10
0.0
20
0.0
30
0.0
70
0
0
VERTEX
5
c2
100
AcDbEntity
8
1
100
AcDbVertex
100
AcDb2dVertex
62
5
10
281.894141
20
338.062500
0
VERTEX
5
c3
100
AcDbEntity
8
1
100
AcDbVertex
100
AcDb2dVertex
62
5
10
281.894141
20
331.500000
0
VERTEX
5
c4
100
AcDbEntity
8
1
100
AcDbVertex
100
AcDb2dVertex
62
5
10
282.394141
20
330.875000
0
VERTEX
5
c5
100
AcDbEntity
8
1
100
AcDbVertex
100
AcDb2dVertex
62
5
10
285.394141
20
330.875000
0
VERTEX
5
c6
100
AcDbEntity
8
1
100
AcDbVertex
100
AcDb2dVertex
62
5
10
285.894141
20
331.500000
0
VERTEX
5
c7
100
AcDbEntity
8
1
100
AcDbVertex
100
AcDb2dVertex
62
5
10
285.894141
20
332.437500
0
SEQEND
5
c8
100
AcDbEntity
8
1
0
LINE
5
c9
100
AcDbEntity
8
1
100
AcDbLine
6
CONTINUOUS
62
5
10
286.894141
20
337.125000
11
289.144141
21
337.125000
0
LINE
5
ca
100
AcDbEntity
8
1
100
AcDbLine
6
CONTINUOUS
62
5
10
288.144141
20
339.312500
11
288.144141
21
330.562500
0
POLYLINE
5
cb
100
AcDbEntity
8
1
6
CONTINUOUS
62
5
100
AcDb2dPolyline
66
1
10
0.0
20
0.0
30
0.0
70
0
0
VERTEX
5
cc
100
AcDbEntity
8
1
100
AcDbVertex
100
AcDb2dVertex
62
5
10
288.144141
20
337.125000
0
VERTEX
5
cd
100
AcDbEntity
8
1
100
AcDbVertex
100
AcDb2dVertex
62
5
10
287.644141
20
335.250000
0
VERTEX
5
ce
100
AcDbEntity
8
1
100
AcDbVertex
100
AcDb2dVertex
62
5
10
286.894141
20
333.375000
0
SEQEND
5
cf
100
AcDbEntity
8
1
0
LINE
5
d0
100
AcDbEntity
8
1
100
AcDbLine
6
CONTINUOUS
62
5
10
288.144141
20
336.187500
11
289.144141
21
334.625000
0
LINE
5
d1
100
AcDbEntity
8
1
100
AcDbLine
6
CONTINUOUS
62
5
10
289.144141
20
339.000000
11
293.894141
21
339.000000
0
POLYLINE
5
d2
100
AcDbEntity
8
1
6
CONTINUOUS
62
5
100
AcDb2dPolyline
66
1
10
0.0
20
0.0
30
0.0
70
0
0
VERTEX
5
d3
100
AcDbEntity
8
1
100
AcDbVertex
100
AcDb2dVertex
62
5
10
291.394141
20
339.000000
0
VERTEX
5
d4
100
AcDbEntity
8
1
100
AcDbVertex
100
AcDb2dVertex
62
5
10
290.394141
20
336.812500
0
VERTEX
5
d5
100
AcDbEntity
8
1
100
AcDbVertex
100
AcDb2dVertex
62
5
10
291.894141
20
337.125000
0
VERTEX
5
d6
100
AcDbEntity
8
1
100
AcDbVertex
100
AcDb2dVertex
62
5
10
291.894141
20
334.000000
0
VERTEX
5
d7
100
AcDbEntity
8
1
100
AcDbVertex
100
AcDb2dVertex
62
5
10
291.394141
20
331.812500
0
VERTEX
5
d8
100
AcDbEntity
8
1
100
AcDbVertex
100
AcDb2dVertex
62
5
10
290.894141
20
332.125000
0
SEQEND
5
d9
100
AcDbEntity
8
1
0
POLYLINE
5
da
100
AcDbEntity
8
1
6
CONTINUOUS
62
5
100
AcDb2dPolyline
66
1
10
0.0
20
0.0
30
0.0
70
1
0
VERTEX
5
db
100
AcDbEntity
8
1
100
AcDbVertex
100
AcDb2dVertex
62
5
10
289.644141
20
335.250000
0
VERTEX
5
dc
100
AcDbEntity
8
1
100
AcDbVertex
100
AcDb2dVertex
62
5
10
290.894141
20
335.250000
0
VERTEX
5
dd
100
AcDbEntity
8
1
100
AcDbVertex
100
AcDb2dVertex
62
5
10
290.894141
20
333.062500
0
VERTEX
5
de
100
AcDbEntity
8
1
100
AcDbVertex
100
AcDb2dVertex
62
5
10
289.644141
20
333.062500
0
VERTEX
5
df
100
AcDbEntity
8
1
100
AcDbVertex
100
AcDb2dVertex
62
5
10
289.644141
20
335.250000
0
SEQEND
5
e0
100
AcDbEntity
8
1
0
POLYLINE
5
e1
100
AcDbEntity
8
1
6
CONTINUOUS
62
5
100
AcDb2dPolyline
66
1
10
0.0
20
0.0
30
0.0
70
0
0
VERTEX
5
e2
100
AcDbEntity
8
1
100
AcDbVertex
100
AcDb2dVertex
62
5
10
292.394141
20
336.812500
0
VERTEX
5
e3
100
AcDbEntity
8
1
100
AcDbVertex
100
AcDb2dVertex
62
5
10
293.894141
20
336.812500
0
VERTEX
5
e4
100
AcDbEntity
8
1
100
AcDbVertex
100
AcDb2dVertex
62
5
10
293.644141
20
335.562500
0
VERTEX
5
e5
100
AcDbEntity
8
1
100
AcDbVertex
100
AcDb2dVertex
62
5
10
293.144141
20
334.000000
0
VERTEX
5
e6
100
AcDbEntity
8
1
100
AcDbVertex
100
AcDb2dVertex
62
5
10
292.394141
20
332.437500
0
SEQEND
5
e7
100
AcDbEntity
8
1
0
POLYLINE
5
e8
100
AcDbEntity
8
1
6
CONTINUOUS
62
5
100
AcDb2dPolyline
66
1
10
0.0
20
0.0
30
0.0
70
0
0
VERTEX
5
e9
100
AcDbEntity
8
1
100
AcDbVertex
100
AcDb2dVertex
62
5
10
292.394141
20
335.875000
0
VERTEX
5
ea
100
AcDbEntity
8
1
100
AcDbVertex
100
AcDb2dVertex
62
5
10
292.644141
20
334.625000
0
VERTEX
5
eb
100
AcDbEntity
8
1
100
AcDbVertex
100
AcDb2dVertex
62
5
10
294.144141
20
332.437500
0
SEQEND
5
ec
100
AcDbEntity
8
1
0
LINE
5
ed
100
AcDbEntity
8
1
100
AcDbLine
6
CONTINUOUS
62
5
10
288.894141
20
330.875000
11
294.144141
21
330.875000
0
POLYLINE
5
ee
100
AcDbEntity
8
1
6
CONTINUOUS
62
5
100
AcDb2dPolyline
66
1
10
0.0
20
0.0
30
0.0
70
0
0
VERTEX
5
ef
100
AcDbEntity
8
1
100
AcDbVertex
100
AcDb2dVertex
62
5
10
297.144141
20
339.312500
0
VERTEX
5
f0
100
AcDbEntity
8
1
100
AcDbVertex
100
AcDb2dVertex
62
5
10
296.144141
20
336.500000
0
VERTEX
5
f1
100
AcDbEntity
8
1
100
AcDbVertex
100
AcDb2dVertex
62
5
10
294.894141
20
334.312500
0
SEQEND
5
f2
100
AcDbEntity
8
1
0
LINE
5
f3
100
AcDbEntity
8
1
100
AcDbLine
6
CONTINUOUS
62
5
10
296.144141
20
336.500000
11
296.144141
21
330.562500
0
LINE
5
f4
100
AcDbEntity
8
1
100
AcDbLine
6
CONTINUOUS
62
5
10
296.894141
20
336.500000
11
302.144141
21
336.500000
0
POLYLINE
5
f5
100
AcDbEntity
8
1
6
CONTINUOUS
62
5
100
AcDb2dPolyline
66
1
10
0.0
20
0.0
30
0.0
70
0
0
VERTEX
5
f6
100
AcDbEntity
8
1
100
AcDbVertex
100
AcDb2dVertex
62
5
10
300.394141
20
339.312500
0
VERTEX
5
f7
100
AcDbEntity
8
1
100
AcDbVertex
100
AcDb2dVertex
62
5
10
300.394141
20
330.875000
0
VERTEX
5
f8
100
AcDbEntity
8
1
100
AcDbVertex
100
AcDb2dVertex
62
5
10
298.894141
20
331.187500
0
SEQEND
5
f9
100
AcDbEntity
8
1
0
LINE
5
fa
100
AcDbEntity
8
1
100
AcDbLine
6
CONTINUOUS
62
5
10
297.894141
20
335.250000
11
298.894141
21
333.375000
0
LINE
5
fb
100
AcDbEntity
8
1
100
AcDbLine
6
CONTINUOUS
62
5
10
236.394141
20
337.437500
11
237.394141
21
336.187500
0
POLYLINE
5
fc
100
AcDbEntity
8
1
6
CONTINUOUS
62
5
100
AcDb2dPolyline
66
1
10
0.0
20
0.0
30
0.0
70
0
0
VERTEX
5
fd
100
AcDbEntity
8
1
100
AcDbVertex
100
AcDb2dVertex
62
5
10
236.144141
20
332.437500
0
VERTEX
5
fe
100
AcDbEntity
8
1
100
AcDbVertex
100
AcDb2dVertex
62
5
10
237.894141
20
333.375000
0
VERTEX
5
ff
100
AcDbEntity
8
1
100
AcDbVertex
100
AcDb2dVertex
62
5
10
239.394141
20
334.625000
0
VERTEX
5
100
100
AcDbEntity
8
1
100
AcDbVertex
100
AcDb2dVertex
62
5
10
240.894141
20
336.187500
0
SEQEND
5
101
100
AcDbEntity
8
1
0
LINE
5
102
100
AcDbEntity
8
1
100
AcDbLine
6
CONTINUOUS
62
5
10
220.394141
20
337.437500
11
221.394141
21
336.187500
0
POLYLINE
5
103
100
AcDbEntity
8
1
6
CONTINUOUS
62
5
100
AcDb2dPolyline
66
1
10
0.0
20
0.0
30
0.0
70
0
0
VERTEX
5
104
100
AcDbEntity
8
1
100
AcDbVertex
100
AcDb2dVertex
62
5
10
220.144141
20
332.437500
0
VERTEX
5
105
100
AcDbEntity
8
1
100
AcDbVertex
100
AcDb2dVertex
62
5
10
221.894141
20
333.375000
0
VERTEX
5
106
100
AcDbEntity
8
1
100
AcDbVertex
100
AcDb2dVertex
62
5
10
223.394141
20
334.625000
0
VERTEX
5
107
100
AcDbEntity
8
1
100
AcDbVertex
100
AcDb2dVertex
62
5
10
224.894141
20
336.187500
0
SEQEND
5
108
100
AcDbEntity
8
1
0
POLYLINE
5
109
100
AcDbEntity
8
1
6
CONTINUOUS
62
5
100
AcDb2dPolyline
66
1
10
0.0
20
0.0
30
0.0
70
0
0
VERTEX
5
10a
100
AcDbEntity
8
1
100
AcDbVertex
100
AcDb2dVertex
62
5
10
227.644141
20
335.562500
0
VERTEX
5
10b
100
AcDbEntity
8
1
100
AcDbVertex
100
AcDb2dVertex
62
5
10
232.894141
20
336.187500
0
VERTEX
5
10c
100
AcDbEntity
8
1
100
AcDbVertex
100
AcDb2dVertex
62
5
10
232.894141
20
335.875000
0
VERTEX
5
10d
100
AcDbEntity
8
1
100
AcDbVertex
100
AcDb2dVertex
62
5
10
231.644141
20
334.312500
0
SEQEND
5
10e
100
AcDbEntity
8
1
0
POLYLINE
5
10f
100
AcDbEntity
8
1
6
CONTINUOUS
62
5
100
AcDb2dPolyline
66
1
10
0.0
20
0.0
30
0.0
70
0
0
VERTEX
5
110
100
AcDbEntity
8
1
100
AcDbVertex
100
AcDb2dVertex
62
5
10
229.644141
20
338.375000
0
VERTEX
5
111
100
AcDbEntity
8
1
100
AcDbVertex
100
AcDb2dVertex
62
5
10
229.644141
20
332.437500
0
VERTEX
5
112
100
AcDbEntity
8
1
100
AcDbVertex
100
AcDb2dVertex
62
5
10
230.144141
20
331.812500
0
VERTEX
5
113
100
AcDbEntity
8
1
100
AcDbVertex
100
AcDb2dVertex
62
5
10
232.894141
20
331.812500
0
SEQEND
5
114
100
AcDbEntity
8
1
0
POLYLINE
5
115
100
AcDbEntity
8
1
6
CONTINUOUS
62
5
100
AcDb2dPolyline
66
1
10
0.0
20
0.0
30
0.0
70
0
0
VERTEX
5
116
100
AcDbEntity
8
1
100
AcDbVertex
100
AcDb2dVertex
62
5
10
245.894141
20
336.187500
0
VERTEX
5
117
100
AcDbEntity
8
1
100
AcDbVertex
100
AcDb2dVertex
62
5
10
246.144141
20
336.187500
0
VERTEX
5
118
100
AcDbEntity
8
1
100
AcDbVertex
100
AcDb2dVertex
62
5
10
247.894141
20
334.937500
0
SEQEND
5
119
100
AcDbEntity
8
1
0
LINE
5
11a
100
AcDbEntity
8
1
100
AcDbLine
6
CONTINUOUS
62
5
10
245.894141
20
339.000000
11
245.894141
21
331.500000
0
POLYLINE
5
11b
100
AcDbEntity
8
1
6
CONTINUOUS
62
5
100
AcDb2dPolyline
66
1
10
0.0
20
0.0
30
0.0
70
0
0
VERTEX
5
11c
100
AcDbEntity
8
1
100
AcDbVertex
100
AcDb2dVertex
62
5
10
196.394141
20
328.687500
0
VERTEX
5
11d
100
AcDbEntity
8
1
100
AcDbVertex
100
AcDb2dVertex
62
5
10
194.394141
20
326.187500
0
VERTEX
5
11e
100
AcDbEntity
8
1
100
AcDbVertex
100
AcDb2dVertex
62
5
10
192.144141
20
324.625000
0
SEQEND
5
11f
100
AcDbEntity
8
1
0
LINE
5
120
100
AcDbEntity
8
1
100
AcDbLine
6
CONTINUOUS
62
5
10
194.894141
20
326.812500
11
194.894141
21
321.500000
0
POLYLINE
5
121
100
AcDbEntity
8
1
6
CONTINUOUS
62
5
100
AcDb2dPolyline
66
1
10
0.0
20
0.0
30
0.0
70
0
0
VERTEX
5
122
100
AcDbEntity
8
1
100
AcDbVertex
100
AcDb2dVertex
62
5
10
201.894141
20
326.187500
0
VERTEX
5
123
100
AcDbEntity
8
1
100
AcDbVertex
100
AcDb2dVertex
62
5
10
202.144141
20
326.187500
0
VERTEX
5
124
100
AcDbEntity
8
1
100
AcDbVertex
100
AcDb2dVertex
62
5
10
203.894141
20
324.937500
0
SEQEND
5
125
100
AcDbEntity
8
1
0
LINE
5
126
100
AcDbEntity
8
1
100
AcDbLine
6
CONTINUOUS
62
5
10
201.894141
20
329.000000
11
201.894141
21
321.500000
0
LINE
5
127
100
AcDbEntity
8
1
100
AcDbLine
6
CONTINUOUS
62
5
10
175.894141
20
326.187500
11
180.894141
21
326.187500
0
POLYLINE
5
128
100
AcDbEntity
8
1
6
CONTINUOUS
62
5
100
AcDb2dPolyline
66
1
10
0.0
20
0.0
30
0.0
70
0
0
VERTEX
5
129
100
AcDbEntity
8
1
100
AcDbVertex
100
AcDb2dVertex
62
5
10
178.394141
20
328.062500
0
VERTEX
5
12a
100
AcDbEntity
8
1
100
AcDbVertex
100
AcDb2dVertex
62
5
10
178.394141
20
321.812500
0
VERTEX
5
12b
100
AcDbEntity
8
1
100
AcDbVertex
100
AcDb2dVertex
62
5
10
177.894141
20
321.812500
0
SEQEND
5
12c
100
AcDbEntity
8
1
0
LINE
5
12d
100
AcDbEntity
8
1
100
AcDbLine
6
CONTINUOUS
62
5
10
177.144141
20
324.625000
11
175.894141
21
322.750000
0
LINE
5
12e
100
AcDbEntity
8
1
100
AcDbLine
6
CONTINUOUS
62
5
10
179.894141
20
324.625000
11
181.144141
21
323.062500
0
POLYLINE
5
12f
100
AcDbEntity
8
1
6
CONTINUOUS
62
5
100
AcDb2dPolyline
66
1
10
0.0
20
0.0
30
0.0
70
0
0
VERTEX
5
130
100
AcDbEntity
8
1
100
AcDbVertex
100
AcDb2dVertex
62
5
10
184.394141
20
325.562500
0
VERTEX
5
131
100
AcDbEntity
8
1
100
AcDbVertex
100
AcDb2dVertex
62
5
10
184.394141
20
327.750000
0
VERTEX
5
132
100
AcDbEntity
8
1
100
AcDbVertex
100
AcDb2dVertex
62
5
10
188.394141
20
327.750000
0
VERTEX
5
133
100
AcDbEntity
8
1
100
AcDbVertex
100
AcDb2dVertex
62
5
10
188.394141
20
326.812500
0
VERTEX
5
134
100
AcDbEntity
8
1
100
AcDbVertex
100
AcDb2dVertex
62
5
10
188.144141
20
325.250000
0
VERTEX
5
135
100
AcDbEntity
8
1
100
AcDbVertex
100
AcDb2dVertex
62
5
10
187.644141
20
324.000000
0
VERTEX
5
136
100
AcDbEntity
8
1
100
AcDbVertex
100
AcDb2dVertex
62
5
10
187.144141
20
323.062500
0
VERTEX
5
137
100
AcDbEntity
8
1
100
AcDbVertex
100
AcDb2dVertex
62
5
10
186.144141
20
321.812500
0
SEQEND
5
138
100
AcDbEntity
8
1
0
POLYLINE
5
139
100
AcDbEntity
8
1
6
CONTINUOUS
62
5
100
AcDb2dPolyline
66
1
10
0.0
20
0.0
30
0.0
70
0
0
VERTEX
5
13a
100
AcDbEntity
8
1
100
AcDbVertex
100
AcDb2dVertex
62
5
10
177.894141
20
335.250000
0
VERTEX
5
13b
100
AcDbEntity
8
1
100
AcDbVertex
100
AcDb2dVertex
62
5
10
178.394141
20
335.875000
0
VERTEX
5
13c
100
AcDbEntity
8
1
100
AcDbVertex
100
AcDb2dVertex
62
5
10
178.644141
20
335.875000
0
VERTEX
5
13d
100
AcDbEntity
8
1
100
AcDbVertex
100
AcDb2dVertex
62
5
10
179.144141
20
335.250000
0
VERTEX
5
13e
100
AcDbEntity
8
1
100
AcDbVertex
100
AcDb2dVertex
62
5
10
179.144141
20
334.937500
0
VERTEX
5
13f
100
AcDbEntity
8
1
100
AcDbVertex
100
AcDb2dVertex
62
5
10
178.644141
20
334.312500
0
VERTEX
5
140
100
AcDbEntity
8
1
100
AcDbVertex
100
AcDb2dVertex
62
5
10
178.394141
20
334.312500
0
VERTEX
5
141
100
AcDbEntity
8
1
100
AcDbVertex
100
AcDb2dVertex
62
5
10
177.894141
20
334.937500
0
VERTEX
5
142
100
AcDbEntity
8
1
100
AcDbVertex
100
AcDb2dVertex
62
5
10
177.894141
20
335.250000
0
VERTEX
5
143
100
AcDbEntity
8
1
100
AcDbVertex
100
AcDb2dVertex
62
5
10
179.144141
20
335.250000
0
SEQEND
5
144
100
AcDbEntity
8
1
0
LINE
5
145
100
AcDbEntity
8
1
100
AcDbLine
6
CONTINUOUS
62
5
10
179.144141
20
334.937500
11
177.894141
21
334.937500
0
LINE
5
146
100
AcDbEntity
8
1
100
AcDbLine
6
CONTINUOUS
62
5
10
178.144141
20
334.625000
11
178.894141
21
334.625000
0
LINE
5
147
100
AcDbEntity
8
1
100
AcDbLine
6
CONTINUOUS
62
5
10
178.894141
20
335.562500
11
178.144141
21
335.562500
0
LINE
5
148
100
AcDbEntity
8
1
100
AcDbLine
6
CONTINUOUS
62
5
10
171.644141
20
339.000000
11
173.894141
21
339.000000
0
POLYLINE
5
149
100
AcDbEntity
8
1
6
CONTINUOUS
62
5
100
AcDb2dPolyline
66
1
10
0.0
20
0.0
30
0.0
70
0
0
VERTEX
5
14a
100
AcDbEntity
8
1
100
AcDbVertex
100
AcDb2dVertex
62
5
10
171.644141
20
339.000000
0
VERTEX
5
14b
100
AcDbEntity
8
1
100
AcDbVertex
100
AcDb2dVertex
62
5
10
171.644141
20
335.250000
0
VERTEX
5
14c
100
AcDbEntity
8
1
100
AcDbVertex
100
AcDb2dVertex
62
5
10
172.144141
20
335.875000
0
VERTEX
5
14d
100
AcDbEntity
8
1
100
AcDbVertex
100
AcDb2dVertex
62
5
10
172.644141
20
336.187500
0
VERTEX
5
14e
100
AcDbEntity
8
1
100
AcDbVertex
100
AcDb2dVertex
62
5
10
173.394141
20
336.187500
0
VERTEX
5
14f
100
AcDbEntity
8
1
100
AcDbVertex
100
AcDb2dVertex
62
5
10
173.894141
20
335.875000
0
VERTEX
5
150
100
AcDbEntity
8
1
100
AcDbVertex
100
AcDb2dVertex
62
5
10
174.144141
20
334.937500
0
VERTEX
5
151
100
AcDbEntity
8
1
100
AcDbVertex
100
AcDb2dVertex
62
5
10
174.144141
20
333.062500
0
VERTEX
5
152
100
AcDbEntity
8
1
100
AcDbVertex
100
AcDb2dVertex
62
5
10
173.644141
20
332.125000
0
VERTEX
5
153
100
AcDbEntity
8
1
100
AcDbVertex
100
AcDb2dVertex
62
5
10
172.894141
20
331.500000
0
VERTEX
5
154
100
AcDbEntity
8
1
100
AcDbVertex
100
AcDb2dVertex
62
5
10
171.644141
20
331.500000
0
SEQEND
5
155
100
AcDbEntity
8
1
0
POLYLINE
5
156
100
AcDbEntity
8
1
6
CONTINUOUS
62
5
100
AcDb2dPolyline
66
1
10
0.0
20
0.0
30
0.0
70
0
0
VERTEX
5
157
100
AcDbEntity
8
1
100
AcDbVertex
100
AcDb2dVertex
62
5
10
183.644141
20
336.812500
0
VERTEX
5
158
100
AcDbEntity
8
1
100
AcDbVertex
100
AcDb2dVertex
62
5
10
183.894141
20
338.375000
0
VERTEX
5
159
100
AcDbEntity
8
1
100
AcDbVertex
100
AcDb2dVertex
62
5
10
184.644141
20
339.000000
0
VERTEX
5
15a
100
AcDbEntity
8
1
100
AcDbVertex
100
AcDb2dVertex
62
5
10
185.394141
20
339.000000
0
VERTEX
5
15b
100
AcDbEntity
8
1
100
AcDbVertex
100
AcDb2dVertex
62
5
10
185.894141
20
338.687500
0
VERTEX
5
15c
100
AcDbEntity
8
1
100
AcDbVertex
100
AcDb2dVertex
62
5
10
186.144141
20
337.750000
0
VERTEX
5
15d
100
AcDbEntity
8
1
100
AcDbVertex
100
AcDb2dVertex
62
5
10
186.144141
20
336.812500
0
VERTEX
5
15e
100
AcDbEntity
8
1
100
AcDbVertex
100
AcDb2dVertex
62
5
10
185.894141
20
335.875000
0
VERTEX
5
15f
100
AcDbEntity
8
1
100
AcDbVertex
100
AcDb2dVertex
62
5
10
183.644141
20
331.500000
0
VERTEX
5
160
100
AcDbEntity
8
1
100
AcDbVertex
100
AcDb2dVertex
62
5
10
186.144141
20
331.500000
0
VERTEX
5
161
100
AcDbEntity
8
1
100
AcDbVertex
100
AcDb2dVertex
62
5
10
186.144141
20
332.437500
0
SEQEND
5
162
100
AcDbEntity
8
1
0
POLYLINE
5
163
100
AcDbEntity
8
1
6
CONTINUOUS
62
5
100
AcDb2dPolyline
66
1
10
0.0
20
0.0
30
0.0
70
1
0
VERTEX
5
164
100
AcDbEntity
8
1
100
AcDbVertex
100
AcDb2dVertex
62
5
10
188.644141
20
339.000000
0
VERTEX
5
165
100
AcDbEntity
8
1
100
AcDbVertex
100
AcDb2dVertex
62
5
10
189.144141
20
339.000000
0
VERTEX
5
166
100
AcDbEntity
8
1
100
AcDbVertex
100
AcDb2dVertex
62
5
10
189.394141
20
338.687500
0
VERTEX
5
167
100
AcDbEntity
8
1
100
AcDbVertex
100
AcDb2dVertex
62
5
10
189.894141
20
337.437500
0
VERTEX
5
168
100
AcDbEntity
8
1
100
AcDbVertex
100
AcDb2dVertex
62
5
10
190.144141
20
336.187500
0
VERTEX
5
169
100
AcDbEntity
8
1
100
AcDbVertex
100
AcDb2dVertex
62
5
10
190.144141
20
334.312500
0
VERTEX
5
16a
100
AcDbEntity
8
1
100
AcDbVertex
100
AcDb2dVertex
62
5
10
189.894141
20
333.062500
0
VERTEX
5
16b
100
AcDbEntity
8
1
100
AcDbVertex
100
AcDb2dVertex
62
5
10
189.394141
20
331.812500
0
VERTEX
5
16c
100
AcDbEntity
8
1
100
AcDbVertex
100
AcDb2dVertex
62
5
10
189.144141
20
331.500000
0
VERTEX
5
16d
100
AcDbEntity
8
1
100
AcDbVertex
100
AcDb2dVertex
62
5
10
188.644141
20
331.500000
0
VERTEX
5
16e
100
AcDbEntity
8
1
100
AcDbVertex
100
AcDb2dVertex
62
5
10
188.394141
20
331.812500
0
VERTEX
5
16f
100
AcDbEntity
8
1
100
AcDbVertex
100
AcDb2dVertex
62
5
10
187.894141
20
333.062500
0
VERTEX
5
170
100
AcDbEntity
8
1
100
AcDbVertex
100
AcDb2dVertex
62
5
10
187.644141
20
334.312500
0
VERTEX
5
171
100
AcDbEntity
8
1
100
AcDbVertex
100
AcDb2dVertex
62
5
10
187.644141
20
336.187500
0
VERTEX
5
172
100
AcDbEntity
8
1
100
AcDbVertex
100
AcDb2dVertex
62
5
10
187.894141
20
337.437500
0
VERTEX
5
173
100
AcDbEntity
8
1
100
AcDbVertex
100
AcDb2dVertex
62
5
10
188.394141
20
338.687500
0
VERTEX
5
174
100
AcDbEntity
8
1
100
AcDbVertex
100
AcDb2dVertex
62
5
10
188.644141
20
339.000000
0
SEQEND
5
175
100
AcDbEntity
8
1
0
POLYLINE
5
176
100
AcDbEntity
8
1
6
CONTINUOUS
62
5
100
AcDb2dPolyline
66
1
10
0.0
20
0.0
30
0.0
70
0
0
VERTEX
5
177
100
AcDbEntity
8
1
100
AcDbVertex
100
AcDb2dVertex
62
5
10
191.644141
20
331.500000
0
VERTEX
5
178
100
AcDbEntity
8
1
100
AcDbVertex
100
AcDb2dVertex
62
5
10
192.894141
20
339.000000
0
VERTEX
5
179
100
AcDbEntity
8
1
100
AcDbVertex
100
AcDb2dVertex
62
5
10
194.144141
20
331.500000
0
SEQEND
5
17a
100
AcDbEntity
8
1
0
LINE
5
17b
100
AcDbEntity
8
1
100
AcDbLine
6
CONTINUOUS
62
5
10
192.144141
20
334.000000
11
193.644141
21
334.000000
0
LINE
5
17c
100
AcDbEntity
8
1
100
AcDbLine
6
CONTINUOUS
62
5
10
195.394141
20
338.375000
11
201.894141
21
338.375000
0
POLYLINE
5
17d
100
AcDbEntity
8
1
6
CONTINUOUS
62
5
100
AcDb2dPolyline
66
1
10
0.0
20
0.0
30
0.0
70
0
0
VERTEX
5
17e
100
AcDbEntity
8
1
100
AcDbVertex
100
AcDb2dVertex
62
5
10
195.894141
20
336.812500
0
VERTEX
5
17f
100
AcDbEntity
8
1
100
AcDbVertex
100
AcDb2dVertex
62
5
10
201.144141
20
336.812500
0
VERTEX
5
180
100
AcDbEntity
8
1
100
AcDbVertex
100
AcDb2dVertex
62
5
10
201.144141
20
333.687500
0
VERTEX
5
181
100
AcDbEntity
8
1
100
AcDbVertex
100
AcDb2dVertex
62
5
10
195.894141
20
333.687500
0
SEQEND
5
182
100
AcDbEntity
8
1
0
LINE
5
183
100
AcDbEntity
8
1
100
AcDbLine
6
CONTINUOUS
62
5
10
195.144141
20
335.250000
11
202.144141
21
335.250000
0
LINE
5
184
100
AcDbEntity
8
1
100
AcDbLine
6
CONTINUOUS
62
5
10
196.894141
20
339.625000
11
197.894141
21
338.375000
0
LINE
5
185
100
AcDbEntity
8
1
100
AcDbLine
6
CONTINUOUS
62
5
10
200.144141
20
339.625000
11
199.394141
21
338.375000
0
LINE
5
186
100
AcDbEntity
8
1
100
AcDbLine
6
CONTINUOUS
62
5
10
197.894141
20
338.375000
11
197.894141
21
330.562500
0
LINE
5
187
100
AcDbEntity
8
1
100
AcDbLine
6
CONTINUOUS
62
5
10
199.394141
20
338.375000
11
199.394141
21
330.562500
0
POLYLINE
5
188
100
AcDbEntity
8
1
6
CONTINUOUS
62
5
100
AcDb2dPolyline
66
1
10
0.0
20
0.0
30
0.0
70
0
0
VERTEX
5
189
100
AcDbEntity
8
1
100
AcDbVertex
100
AcDb2dVertex
62
5
10
197.894141
20
333.687500
0
VERTEX
5
18a
100
AcDbEntity
8
1
100
AcDbVertex
100
AcDb2dVertex
62
5
10
196.644141
20
332.125000
0
VERTEX
5
18b
100
AcDbEntity
8
1
100
AcDbVertex
100
AcDb2dVertex
62
5
10
195.394141
20
331.187500
0
SEQEND
5
18c
100
AcDbEntity
8
1
0
POLYLINE
5
18d
100
AcDbEntity
8
1
6
CONTINUOUS
62
5
100
AcDb2dPolyline
66
1
10
0.0
20
0.0
30
0.0
70
0
0
VERTEX
5
18e
100
AcDbEntity
8
1
100
AcDbVertex
100
AcDb2dVertex
62
5
10
199.394141
20
333.687500
0
VERTEX
5
18f
100
AcDbEntity
8
1
100
AcDbVertex
100
AcDb2dVertex
62
5
10
200.644141
20
331.812500
0
VERTEX
5
190
100
AcDbEntity
8
1
100
AcDbVertex
100
AcDb2dVertex
62
5
10
202.144141
20
331.187500
0
SEQEND
5
191
100
AcDbEntity
8
1
0
POLYLINE
5
192
100
AcDbEntity
8
1
6
CONTINUOUS
62
5
100
AcDb2dPolyline
66
1
10
0.0
20
0.0
30
0.0
70
0
0
VERTEX
5
193
100
AcDbEntity
8
1
100
AcDbVertex
100
AcDb2dVertex
62
5
10
204.144141
20
339.000000
0
VERTEX
5
194
100
AcDbEntity
8
1
100
AcDbVertex
100
AcDb2dVertex
62
5
10
204.144141
20
333.375000
0
VERTEX
5
195
100
AcDbEntity
8
1
100
AcDbVertex
100
AcDb2dVertex
62
5
10
203.644141
20
332.125000
0
VERTEX
5
196
100
AcDbEntity
8
1
100
AcDbVertex
100
AcDb2dVertex
62
5
10
203.144141
20
331.187500
0
SEQEND
5
197
100
AcDbEntity
8
1
0
POLYLINE
5
198
100
AcDbEntity
8
1
6
CONTINUOUS
62
5
100
AcDb2dPolyline
66
1
10
0.0
20
0.0
30
0.0
70
0
0
VERTEX
5
199
100
AcDbEntity
8
1
100
AcDbVertex
100
AcDb2dVertex
62
5
10
208.144141
20
331.500000
0
VERTEX
5
19a
100
AcDbEntity
8
1
100
AcDbVertex
100
AcDb2dVertex
62
5
10
209.144141
20
330.875000
0
VERTEX
5
19b
100
AcDbEntity
8
1
100
AcDbVertex
100
AcDb2dVertex
62
5
10
209.144141
20
339.000000
0
VERTEX
5
19c
100
AcDbEntity
8
1
100
AcDbVertex
100
AcDb2dVertex
62
5
10
204.144141
20
339.000000
0
SEQEND
5
19d
100
AcDbEntity
8
1
0
LINE
5
19e
100
AcDbEntity
8
1
100
AcDbLine
6
CONTINUOUS
62
5
10
204.144141
20
336.500000
11
209.144141
21
336.500000
0
LINE
5
19f
100
AcDbEntity
8
1
100
AcDbLine
6
CONTINUOUS
62
5
10
206.644141
20
339.000000
11
206.644141
21
330.875000
0
LINE
5
1a0
100
AcDbEntity
8
1
100
AcDbLine
6
CONTINUOUS
62
5
10
204.144141
20
334.000000
11
209.144141
21
334.000000
0
POLYLINE
5
1a1
100
AcDbEntity
8
1
6
CONTINUOUS
62
5
100
AcDb2dPolyline
66
1
10
0.0
20
0.0
30
0.0
70
0
0
VERTEX
5
1a2
100
AcDbEntity
8
1
100
AcDbVertex
100
AcDb2dVertex
62
5
10
209.894141
20
329.625000
0
VERTEX
5
1a3
100
AcDbEntity
8
1
100
AcDbVertex
100
AcDb2dVertex
62
5
10
209.144141
20
328.375000
0
VERTEX
5
1a4
100
AcDbEntity
8
1
100
AcDbVertex
100
AcDb2dVertex
62
5
10
208.394141
20
327.437500
0
VERTEX
5
1a5
100
AcDbEntity
8
1
100
AcDbVertex
100
AcDb2dVertex
62
5
10
207.394141
20
326.500000
0
SEQEND
5
1a6
100
AcDbEntity
8
1
0
POLYLINE
5
1a7
100
AcDbEntity
8
1
6
CONTINUOUS
62
5
100
AcDb2dPolyline
66
1
10
0.0
20
0.0
30
0.0
70
0
0
VERTEX
5
1a8
100
AcDbEntity
8
1
100
AcDbVertex
100
AcDb2dVertex
62
5
10
209.644141
20
329.000000
0
VERTEX
5
1a9
100
AcDbEntity
8
1
100
AcDbVertex
100
AcDb2dVertex
62
5
10
211.894141
20
329.000000
0
VERTEX
5
1aa
100
AcDbEntity
8
1
100
AcDbVertex
100
AcDb2dVertex
62
5
10
210.644141
20
327.125000
0
SEQEND
5
1ab
100
AcDbEntity
8
1
0
POLYLINE
5
1ac
100
AcDbEntity
8
1
6
CONTINUOUS
62
5
100
AcDb2dPolyline
66
1
10
0.0
20
0.0
30
0.0
70
0
0
VERTEX
5
1ad
100
AcDbEntity
8
1
100
AcDbVertex
100
AcDb2dVertex
62
5
10
208.394141
20
327.125000
0
VERTEX
5
1ae
100
AcDbEntity
8
1
100
AcDbVertex
100
AcDb2dVertex
62
5
10
212.894141
20
327.125000
0
VERTEX
5
1af
100
AcDbEntity
8
1
100
AcDbVertex
100
AcDb2dVertex
62
5
10
212.894141
20
324.312500
0
VERTEX
5
1b0
100
AcDbEntity
8
1
100
AcDbVertex
100
AcDb2dVertex
62
5
10
208.394141
20
324.312500
0
SEQEND
5
1b1
100
AcDbEntity
8
1
0
LINE
5
1b2
100
AcDbEntity
8
1
100
AcDbLine
6
CONTINUOUS
62
5
10
210.644141
20
327.125000
11
210.644141
21
324.312500
0
POLYLINE
5
1b3
100
AcDbEntity
8
1
6
CONTINUOUS
62
5
100
AcDb2dPolyline
66
1
10
0.0
20
0.0
30
0.0
70
0
0
VERTEX
5
1b4
100
AcDbEntity
8
1
100
AcDbVertex
100
AcDb2dVertex
62
5
10
208.394141
20
327.125000
0
VERTEX
5
1b5
100
AcDbEntity
8
1
100
AcDbVertex
100
AcDb2dVertex
62
5
10
208.394141
20
321.812500
0
VERTEX
5
1b6
100
AcDbEntity
8
1
100
AcDbVertex
100
AcDb2dVertex
62
5
10
208.894141
20
321.187500
0
VERTEX
5
1b7
100
AcDbEntity
8
1
100
AcDbVertex
100
AcDb2dVertex
62
5
10
213.894141
20
321.187500
0
VERTEX
5
1b8
100
AcDbEntity
8
1
100
AcDbVertex
100
AcDb2dVertex
62
5
10
213.894141
20
322.437500
0
SEQEND
5
1b9
100
AcDbEntity
8
1
0
POLYLINE
5
1ba
100
AcDbEntity
8
1
6
CONTINUOUS
62
5
100
AcDb2dPolyline
66
1
10
0.0
20
0.0
30
0.0
70
0
0
VERTEX
5
1bb
100
AcDbEntity
8
1
100
AcDbVertex
100
AcDb2dVertex
62
5
10
212.394141
20
337.125000
0
VERTEX
5
1bc
100
AcDbEntity
8
1
100
AcDbVertex
100
AcDb2dVertex
62
5
10
216.394141
20
337.125000
0
VERTEX
5
1bd
100
AcDbEntity
8
1
100
AcDbVertex
100
AcDb2dVertex
62
5
10
216.394141
20
332.750000
0
VERTEX
5
1be
100
AcDbEntity
8
1
100
AcDbVertex
100
AcDb2dVertex
62
5
10
212.394141
20
332.750000
0
SEQEND
5
1bf
100
AcDbEntity
8
1
0
POLYLINE
5
1c0
100
AcDbEntity
8
1
6
DOT2
62
5
100
AcDb2dPolyline
66
1
10
0.0
20
0.0
30
0.0
70
0
0
VERTEX
5
1c1
100
AcDbEntity
8
1
100
AcDbVertex
100
AcDb2dVertex
62
5
10
249.744140
20
240.562500
0
VERTEX
5
1c2
100
AcDbEntity
8
1
100
AcDbVertex
100
AcDb2dVertex
62
5
10
250.056640
20
242.125000
0
VERTEX
5
1c3
100
AcDbEntity
8
1
100
AcDbVertex
100
AcDb2dVertex
62
5
10
250.994140
20
242.750000
0
VERTEX
5
1c4
100
AcDbEntity
8
1
100
AcDbVertex
100
AcDb2dVertex
62
5
10
251.931640
20
242.750000
0
VERTEX
5
1c5
100
AcDbEntity
8
1
100
AcDbVertex
100
AcDb2dVertex
62
5
10
252.556640
20
242.437500
0
VERTEX
5
1c6
100
AcDbEntity
8
1
100
AcDbVertex
100
AcDb2dVertex
62
5
10
252.869140
20
241.500000
0
VERTEX
5
1c7
100
AcDbEntity
8
1
100
AcDbVertex
100
AcDb2dVertex
62
5
10
252.869140
20
240.562500
0
VERTEX
5
1c8
100
AcDbEntity
8
1
100
AcDbVertex
100
AcDb2dVertex
62
5
10
252.556640
20
239.625000
0
VERTEX
5
1c9
100
AcDbEntity
8
1
100
AcDbVertex
100
AcDb2dVertex
62
5
10
249.744140
20
235.250000
0
VERTEX
5
1ca
100
AcDbEntity
8
1
100
AcDbVertex
100
AcDb2dVertex
62
5
10
252.869140
20
235.250000
0
VERTEX
5
1cb
100
AcDbEntity
8
1
100
AcDbVertex
100
AcDb2dVertex
62
5
10
252.869140
20
236.187500
0
SEQEND
5
1cc
100
AcDbEntity
8
1
0
POLYLINE
5
1cd
100
AcDbEntity
8
1
6
DOT2
62
5
100
AcDb2dPolyline
66
1
10
0.0
20
0.0
30
0.0
70
0
0
VERTEX
5
1ce
100
AcDbEntity
8
1
100
AcDbVertex
100
AcDb2dVertex
62
5
10
257.244140
20
242.750000
0
VERTEX
5
1cf
100
AcDbEntity
8
1
100
AcDbVertex
100
AcDb2dVertex
62
5
10
254.431640
20
237.125000
0
VERTEX
5
1d0
100
AcDbEntity
8
1
100
AcDbVertex
100
AcDb2dVertex
62
5
10
258.181640
20
237.125000
0
SEQEND
5
1d1
100
AcDbEntity
8
1
0
LINE
5
1d2
100
AcDbEntity
8
1
100
AcDbLine
6
DOT2
62
5
10
257.244140
20
242.750000
11
257.244140
21
235.250000
0
LINE
5
1d3
100
AcDbEntity
8
1
100
AcDbLine
6
DOT2
62
5
10
256.619140
20
235.250000
11
257.869140
21
235.250000
0
LINE
5
1d4
100
AcDbEntity
8
1
100
AcDbLine
6
CONTINUOUS
62
5
10
214.494143
20
205.750000
11
214.494143
21
236.000000
0
LINE
5
1d5
100
AcDbEntity
8
1
100
AcDbLine
6
CONTINUOUS
62
5
10
238.494140
20
210.500000
11
238.494140
21
236.000000
0
POLYLINE
5
1d6
100
AcDbEntity
8
1
6
CONTINUOUS
62
5
100
AcDb2dPolyline
66
1
10
0.0
20
0.0
30
0.0
70
0
0
VERTEX
5
1d7
100
AcDbEntity
8
1
100
AcDbVertex
100
AcDb2dVertex
62
5
10
259.744140
20
234.000000
0
VERTEX
5
1d8
100
AcDbEntity
8
1
100
AcDbVertex
100
AcDb2dVertex
62
5
10
238.494140
20
234.000000
0
VERTEX
5
1d9
100
AcDbEntity
8
1
100
AcDbVertex
100
AcDb2dVertex
62
5
10
244.494140
20
235.000000
0
VERTEX
5
1da
100
AcDbEntity
8
1
100
AcDbVertex
100
AcDb2dVertex
62
5
10
244.494140
20
233.000000
0
VERTEX
5
1db
100
AcDbEntity
8
1
100
AcDbVertex
100
AcDb2dVertex
62
5
10
238.494140
20
234.000000
0
VERTEX
5
1dc
100
AcDbEntity
8
1
100
AcDbVertex
100
AcDb2dVertex
62
5
10
244.494140
20
234.500000
0
VERTEX
5
1dd
100
AcDbEntity
8
1
100
AcDbVertex
100
AcDb2dVertex
62
5
10
244.494140
20
233.500000
0
VERTEX
5
1de
100
AcDbEntity
8
1
100
AcDbVertex
100
AcDb2dVertex
62
5
10
238.494140
20
234.000000
0
SEQEND
5
1df
100
AcDbEntity
8
1
0
LINE
5
1e0
100
AcDbEntity
8
1
100
AcDbLine
6
CONTINUOUS
62
5
10
238.494140
20
234.000000
11
214.494143
21
234.000000
0
POLYLINE
5
1e1
100
AcDbEntity
8
1
6
CONTINUOUS
62
5
100
AcDb2dPolyline
66
1
10
0.0
20
0.0
30
0.0
70
0
0
VERTEX
5
1e2
100
AcDbEntity
8
1
100
AcDbVertex
100
AcDb2dVertex
62
5
10
205.494143
20
234.000000
0
VERTEX
5
1e3
100
AcDbEntity
8
1
100
AcDbVertex
100
AcDb2dVertex
62
5
10
214.494143
20
234.000000
0
VERTEX
5
1e4
100
AcDbEntity
8
1
100
AcDbVertex
100
AcDb2dVertex
62
5
10
208.494143
20
233.000000
0
VERTEX
5
1e5
100
AcDbEntity
8
1
100
AcDbVertex
100
AcDb2dVertex
62
5
10
208.494143
20
235.000000
0
VERTEX
5
1e6
100
AcDbEntity
8
1
100
AcDbVertex
100
AcDb2dVertex
62
5
10
214.494143
20
234.000000
0
VERTEX
5
1e7
100
AcDbEntity
8
1
100
AcDbVertex
100
AcDb2dVertex
62
5
10
208.494143
20
233.500000
0
VERTEX
5
1e8
100
AcDbEntity
8
1
100
AcDbVertex
100
AcDb2dVertex
62
5
10
208.494143
20
234.500000
0
VERTEX
5
1e9
100
AcDbEntity
8
1
100
AcDbVertex
100
AcDb2dVertex
62
5
10
214.494143
20
234.000000
0
SEQEND
5
1ea
100
AcDbEntity
8
1
0
POLYLINE
5
1eb
100
AcDbEntity
8
1
6
CONTINUOUS
62
5
100
AcDb2dPolyline
66
1
10
0.0
20
0.0
30
0.0
70
0
0
VERTEX
5
1ec
100
AcDbEntity
8
1
100
AcDbVertex
100
AcDb2dVertex
62
5
10
152.394141
20
327.750000
0
VERTEX
5
1ed
100
AcDbEntity
8
1
100
AcDbVertex
100
AcDb2dVertex
62
5
10
152.394141
20
322.437500
0
VERTEX
5
1ee
100
AcDbEntity
8
1
100
AcDbVertex
100
AcDb2dVertex
62
5
10
152.894141
20
321.812500
0
VERTEX
5
1ef
100
AcDbEntity
8
1
100
AcDbVertex
100
AcDb2dVertex
62
5
10
156.394141
20
321.812500
0
SEQEND
5
1f0
100
AcDbEntity
8
1
0
LINE
5
1f1
100
AcDbEntity
8
1
100
AcDbLine
6
CONTINUOUS
62
5
10
155.894141
20
325.875000
11
152.394141
21
324.937500
0
POLYLINE
5
1f2
100
AcDbEntity
8
1
6
CONTINUOUS
62
5
100
AcDb2dPolyline
66
1
10
0.0
20
0.0
30
0.0
70
1
0
VERTEX
5
1f3
100
AcDbEntity
8
1
100
AcDbVertex
100
AcDb2dVertex
62
5
10
155.894141
20
327.750000
0
VERTEX
5
1f4
100
AcDbEntity
8
1
100
AcDbVertex
100
AcDb2dVertex
62
5
10
156.394141
20
328.375000
0
VERTEX
5
1f5
100
AcDbEntity
8
1
100
AcDbVertex
100
AcDb2dVertex
62
5
10
156.644141
20
328.375000
0
VERTEX
5
1f6
100
AcDbEntity
8
1
100
AcDbVertex
100
AcDb2dVertex
62
5
10
157.144141
20
327.750000
0
VERTEX
5
1f7
100
AcDbEntity
8
1
100
AcDbVertex
100
AcDb2dVertex
62
5
10
157.144141
20
327.437500
0
VERTEX
5
1f8
100
AcDbEntity
8
1
100
AcDbVertex
100
AcDb2dVertex
62
5
10
156.644141
20
326.812500
0
VERTEX
5
1f9
100
AcDbEntity
8
1
100
AcDbVertex
100
AcDb2dVertex
62
5
10
156.394141
20
326.812500
0
VERTEX
5
1fa
100
AcDbEntity
8
1
100
AcDbVertex
100
AcDb2dVertex
62
5
10
155.894141
20
327.437500
0
VERTEX
5
1fb
100
AcDbEntity
8
1
100
AcDbVertex
100
AcDb2dVertex
62
5
10
155.894141
20
327.750000
0
SEQEND
5
1fc
100
AcDbEntity
8
1
0
POLYLINE
5
1fd
100
AcDbEntity
8
1
6
CONTINUOUS
62
5
100
AcDb2dPolyline
66
1
10
0.0
20
0.0
30
0.0
70
0
0
VERTEX
5
1fe
100
AcDbEntity
8
1
100
AcDbVertex
100
AcDb2dVertex
62
5
10
161.144141
20
325.562500
0
VERTEX
5
1ff
100
AcDbEntity
8
1
100
AcDbVertex
100
AcDb2dVertex
62
5
10
163.144141
20
325.562500
0
VERTEX
5
200
100
AcDbEntity
8
1
100
AcDbVertex
100
AcDb2dVertex
62
5
10
162.894141
20
322.437500
0
SEQEND
5
201
100
AcDbEntity
8
1
0
LINE
5
202
100
AcDbEntity
8
1
100
AcDbLine
6
CONTINUOUS
62
5
10
160.394141
20
322.437500
11
164.644141
21
322.437500
0
LINE
5
203
100
AcDbEntity
8
1
100
AcDbLine
6
CONTINUOUS
62
5
10
136.894141
20
327.125000
11
139.644141
21
327.750000
0
LINE
5
204
100
AcDbEntity
8
1
100
AcDbLine
6
CONTINUOUS
62
5
10
136.894141
20
325.250000
11
140.394141
21
326.187500
0
POLYLINE
5
205
100
AcDbEntity
8
1
6
CONTINUOUS
62
5
100
AcDb2dPolyline
66
1
10
0.0
20
0.0
30
0.0
70
0
0
VERTEX
5
206
100
AcDbEntity
8
1
100
AcDbVertex
100
AcDb2dVertex
62
5
10
137.894141
20
328.687500
0
VERTEX
5
207
100
AcDbEntity
8
1
100
AcDbVertex
100
AcDb2dVertex
62
5
10
140.144141
20
323.687500
0
VERTEX
5
208
100
AcDbEntity
8
1
100
AcDbVertex
100
AcDb2dVertex
62
5
10
139.644141
20
323.687500
0
VERTEX
5
209
100
AcDbEntity
8
1
100
AcDbVertex
100
AcDb2dVertex
62
5
10
138.144141
20
324.312500
0
VERTEX
5
20a
100
AcDbEntity
8
1
100
AcDbVertex
100
AcDb2dVertex
62
5
10
137.394141
20
324.312500
0
VERTEX
5
20b
100
AcDbEntity
8
1
100
AcDbVertex
100
AcDb2dVertex
62
5
10
136.394141
20
323.375000
0
VERTEX
5
20c
100
AcDbEntity
8
1
100
AcDbVertex
100
AcDb2dVertex
62
5
10
136.394141
20
322.750000
0
VERTEX
5
20d
100
AcDbEntity
8
1
100
AcDbVertex
100
AcDb2dVertex
62
5
10
136.894141
20
322.125000
0
VERTEX
5
20e
100
AcDbEntity
8
1
100
AcDbVertex
100
AcDb2dVertex
62
5
10
137.394141
20
321.812500
0
VERTEX
5
20f
100
AcDbEntity
8
1
100
AcDbVertex
100
AcDb2dVertex
62
5
10
138.894141
20
321.812500
0
SEQEND
5
210
100
AcDbEntity
8
1
0
LINE
5
211
100
AcDbEntity
8
1
100
AcDbLine
6
CONTINUOUS
62
5
10
137.394141
20
338.375000
11
139.394141
21
337.125000
0
LINE
5
212
100
AcDbEntity
8
1
100
AcDbLine
6
CONTINUOUS
62
5
10
137.144141
20
335.875000
11
138.894141
21
334.937500
0
POLYLINE
5
213
100
AcDbEntity
8
1
6
CONTINUOUS
62
5
100
AcDb2dPolyline
66
1
10
0.0
20
0.0
30
0.0
70
0
0
VERTEX
5
214
100
AcDbEntity
8
1
100
AcDbVertex
100
AcDb2dVertex
62
5
10
136.894141
20
333.687500
0
VERTEX
5
215
100
AcDbEntity
8
1
100
AcDbVertex
100
AcDb2dVertex
62
5
10
138.394141
20
332.750000
0
VERTEX
5
216
100
AcDbEntity
8
1
100
AcDbVertex
100
AcDb2dVertex
62
5
10
139.894141
20
331.812500
0
SEQEND
5
217
100
AcDbEntity
8
1
0
LINE
5
218
100
AcDbEntity
8
1
100
AcDbLine
6
CONTINUOUS
62
5
10
143.644141
20
336.187500
11
149.644141
21
336.187500
0
POLYLINE
5
219
100
AcDbEntity
8
1
6
CONTINUOUS
62
5
100
AcDb2dPolyline
66
1
10
0.0
20
0.0
30
0.0
70
0
0
VERTEX
5
21a
100
AcDbEntity
8
1
100
AcDbVertex
100
AcDb2dVertex
62
5
10
146.894141
20
338.375000
0
VERTEX
5
21b
100
AcDbEntity
8
1
100
AcDbVertex
100
AcDb2dVertex
62
5
10
146.894141
20
335.250000
0
VERTEX
5
21c
100
AcDbEntity
8
1
100
AcDbVertex
100
AcDb2dVertex
62
5
10
146.394141
20
333.687500
0
VERTEX
5
21d
100
AcDbEntity
8
1
100
AcDbVertex
100
AcDb2dVertex
62
5
10
145.644141
20
332.437500
0
VERTEX
5
21e
100
AcDbEntity
8
1
100
AcDbVertex
100
AcDb2dVertex
62
5
10
144.894141
20
331.812500
0
SEQEND
5
21f
100
AcDbEntity
8
1
0
POLYLINE
5
220
100
AcDbEntity
8
1
6
CONTINUOUS
62
5
100
AcDb2dPolyline
66
1
10
0.0
20
0.0
30
0.0
70
0
0
VERTEX
5
221
100
AcDbEntity
8
1
100
AcDbVertex
100
AcDb2dVertex
62
5
10
153.144141
20
338.062500
0
VERTEX
5
222
100
AcDbEntity
8
1
100
AcDbVertex
100
AcDb2dVertex
62
5
10
153.144141
20
336.187500
0
VERTEX
5
223
100
AcDbEntity
8
1
100
AcDbVertex
100
AcDb2dVertex
62
5
10
152.894141
20
334.625000
0
VERTEX
5
224
100
AcDbEntity
8
1
100
AcDbVertex
100
AcDb2dVertex
62
5
10
152.394141
20
333.375000
0
VERTEX
5
225
100
AcDbEntity
8
1
100
AcDbVertex
100
AcDb2dVertex
62
5
10
151.644141
20
332.125000
0
VERTEX
5
226
100
AcDbEntity
8
1
100
AcDbVertex
100
AcDb2dVertex
62
5
10
151.394141
20
331.812500
0
SEQEND
5
227
100
AcDbEntity
8
1
0
POLYLINE
5
228
100
AcDbEntity
8
1
6
CONTINUOUS
62
5
100
AcDb2dPolyline
66
1
10
0.0
20
0.0
30
0.0
70
0
0
VERTEX
5
229
100
AcDbEntity
8
1
100
AcDbVertex
100
AcDb2dVertex
62
5
10
154.644141
20
338.375000
0
VERTEX
5
22a
100
AcDbEntity
8
1
100
AcDbVertex
100
AcDb2dVertex
62
5
10
154.644141
20
332.125000
0
VERTEX
5
22b
100
AcDbEntity
8
1
100
AcDbVertex
100
AcDb2dVertex
62
5
10
155.394141
20
332.437500
0
VERTEX
5
22c
100
AcDbEntity
8
1
100
AcDbVertex
100
AcDb2dVertex
62
5
10
156.394141
20
333.375000
0
VERTEX
5
22d
100
AcDbEntity
8
1
100
AcDbVertex
100
AcDb2dVertex
62
5
10
157.144141
20
334.312500
0
VERTEX
5
22e
100
AcDbEntity
8
1
100
AcDbVertex
100
AcDb2dVertex
62
5
10
157.644141
20
335.250000
0
SEQEND
5
22f
100
AcDbEntity
8
1
0
POLYLINE
5
230
100
AcDbEntity
8
1
6
CONTINUOUS
62
5
100
AcDb2dPolyline
66
1
10
0.0
20
0.0
30
0.0
70
0
0
VERTEX
5
231
100
AcDbEntity
8
1
100
AcDbVertex
100
AcDb2dVertex
62
5
10
161.144141
20
339.312500
0
VERTEX
5
232
100
AcDbEntity
8
1
100
AcDbVertex
100
AcDb2dVertex
62
5
10
160.144141
20
336.500000
0
VERTEX
5
233
100
AcDbEntity
8
1
100
AcDbVertex
100
AcDb2dVertex
62
5
10
158.894141
20
334.312500
0
SEQEND
5
234
100
AcDbEntity
8
1
0
LINE
5
235
100
AcDbEntity
8
1
100
AcDbLine
6
CONTINUOUS
62
5
10
160.144141
20
336.500000
11
160.144141
21
330.562500
0
LINE
5
236
100
AcDbEntity
8
1
100
AcDbLine
6
CONTINUOUS
62
5
10
160.894141
20
336.500000
11
166.144141
21
336.500000
0
POLYLINE
5
237
100
AcDbEntity
8
1
6
CONTINUOUS
62
5
100
AcDb2dPolyline
66
1
10
0.0
20
0.0
30
0.0
70
0
0
VERTEX
5
238
100
AcDbEntity
8
1
100
AcDbVertex
100
AcDb2dVertex
62
5
10
164.394141
20
339.312500
0
VERTEX
5
239
100
AcDbEntity
8
1
100
AcDbVertex
100
AcDb2dVertex
62
5
10
164.394141
20
330.875000
0
VERTEX
5
23a
100
AcDbEntity
8
1
100
AcDbVertex
100
AcDb2dVertex
62
5
10
162.894141
20
331.187500
0
SEQEND
5
23b
100
AcDbEntity
8
1
0
LINE
5
23c
100
AcDbEntity
8
1
100
AcDbLine
6
CONTINUOUS
62
5
10
161.894141
20
335.250000
11
162.894141
21
333.375000
0
POLYLINE
5
23d
100
AcDbEntity
8
1
6
CONTINUOUS
62
5
100
AcDb2dPolyline
66
1
10
0.0
20
0.0
30
0.0
70
0
0
VERTEX
5
23e
100
AcDbEntity
8
1
100
AcDbVertex
100
AcDb2dVertex
62
5
10
168.144141
20
338.375000
0
VERTEX
5
23f
100
AcDbEntity
8
1
100
AcDbVertex
100
AcDb2dVertex
62
5
10
168.894141
20
339.000000
0
VERTEX
5
240
100
AcDbEntity
8
1
100
AcDbVertex
100
AcDb2dVertex
62
5
10
168.894141
20
331.500000
0
SEQEND
5
241
100
AcDbEntity
8
1
0
LINE
5
242
100
AcDbEntity
8
1
100
AcDbLine
6
CONTINUOUS
62
5
10
168.394141
20
331.500000
11
169.394141
21
331.500000
0
POLYLINE
5
243
100
AcDbEntity
8
1
6
CONTINUOUS
62
5
100
AcDb2dPolyline
66
1
10
0.0
20
0.0
30
0.0
70
0
0
VERTEX
5
244
100
AcDbEntity
8
1
100
AcDbVertex
100
AcDb2dVertex
62
5
10
113.894141
20
329.312500
0
VERTEX
5
245
100
AcDbEntity
8
1
100
AcDbVertex
100
AcDb2dVertex
62
5
10
112.644141
20
328.687500
0
VERTEX
5
246
100
AcDbEntity
8
1
100
AcDbVertex
100
AcDb2dVertex
62
5
10
111.394141
20
328.375000
0
VERTEX
5
247
100
AcDbEntity
8
1
100
AcDbVertex
100
AcDb2dVertex
62
5
10
111.394141
20
320.875000
0
SEQEND
5
248
100
AcDbEntity
8
1
0
LINE
5
249
100
AcDbEntity
8
1
100
AcDbLine
6
CONTINUOUS
62
5
10
111.394141
20
325.875000
11
114.144141
21
325.875000
0
LINE
5
24a
100
AcDbEntity
8
1
100
AcDbLine
6
CONTINUOUS
62
5
10
111.394141
20
322.750000
11
114.144141
21
322.750000
0
POLYLINE
5
24b
100
AcDbEntity
8
1
6
CONTINUOUS
62
5
100
AcDb2dPolyline
66
1
10
0.0
20
0.0
30
0.0
70
0
0
VERTEX
5
24c
100
AcDbEntity
8
1
100
AcDbVertex
100
AcDb2dVertex
62
5
10
115.144141
20
320.875000
0
VERTEX
5
24d
100
AcDbEntity
8
1
100
AcDbVertex
100
AcDb2dVertex
62
5
10
115.144141
20
329.000000
0
VERTEX
5
24e
100
AcDbEntity
8
1
100
AcDbVertex
100
AcDb2dVertex
62
5
10
117.894141
20
329.000000
0
VERTEX
5
24f
100
AcDbEntity
8
1
100
AcDbVertex
100
AcDb2dVertex
62
5
10
117.894141
20
322.125000
0
VERTEX
5
250
100
AcDbEntity
8
1
100
AcDbVertex
100
AcDb2dVertex
62
5
10
116.894141
20
322.125000
0
SEQEND
5
251
100
AcDbEntity
8
1
0
POLYLINE
5
252
100
AcDbEntity
8
1
6
CONTINUOUS
62
5
100
AcDb2dPolyline
66
1
10
0.0
20
0.0
30
0.0
70
0
0
VERTEX
5
253
100
AcDbEntity
8
1
100
AcDbVertex
100
AcDb2dVertex
62
5
10
119.144141
20
321.500000
0
VERTEX
5
254
100
AcDbEntity
8
1
100
AcDbVertex
100
AcDb2dVertex
62
5
10
119.644141
20
323.062500
0
VERTEX
5
255
100
AcDbEntity
8
1
100
AcDbVertex
100
AcDb2dVertex
62
5
10
119.894141
20
325.250000
0
VERTEX
5
256
100
AcDbEntity
8
1
100
AcDbVertex
100
AcDb2dVertex
62
5
10
119.894141
20
327.125000
0
VERTEX
5
257
100
AcDbEntity
8
1
100
AcDbVertex
100
AcDb2dVertex
62
5
10
119.894141
20
329.000000
0
VERTEX
5
258
100
AcDbEntity
8
1
100
AcDbVertex
100
AcDb2dVertex
62
5
10
123.144141
20
329.000000
0
VERTEX
5
259
100
AcDbEntity
8
1
100
AcDbVertex
100
AcDb2dVertex
62
5
10
123.144141
20
327.125000
0
VERTEX
5
25a
100
AcDbEntity
8
1
100
AcDbVertex
100
AcDb2dVertex
62
5
10
119.894141
20
327.125000
0
SEQEND
5
25b
100
AcDbEntity
8
1
0
POLYLINE
5
25c
100
AcDbEntity
8
1
6
CONTINUOUS
62
5
100
AcDb2dPolyline
66
1
10
0.0
20
0.0
30
0.0
70
0
0
VERTEX
5
25d
100
AcDbEntity
8
1
100
AcDbVertex
100
AcDb2dVertex
62
5
10
120.144141
20
321.812500
0
VERTEX
5
25e
100
AcDbEntity
8
1
100
AcDbVertex
100
AcDb2dVertex
62
5
10
120.144141
20
325.250000
0
VERTEX
5
25f
100
AcDbEntity
8
1
100
AcDbVertex
100
AcDb2dVertex
62
5
10
123.144141
20
325.250000
0
VERTEX
5
260
100
AcDbEntity
8
1
100
AcDbVertex
100
AcDb2dVertex
62
5
10
123.144141
20
322.437500
0
VERTEX
5
261
100
AcDbEntity
8
1
100
AcDbVertex
100
AcDb2dVertex
62
5
10
122.894141
20
321.812500
0
VERTEX
5
262
100
AcDbEntity
8
1
100
AcDbVertex
100
AcDb2dVertex
62
5
10
122.394141
20
321.812500
0
SEQEND
5
263
100
AcDbEntity
8
1
0
LINE
5
264
100
AcDbEntity
8
1
100
AcDbLine
6
CONTINUOUS
62
5
10
121.644141
20
326.500000
11
121.644141
21
320.875000
0
LINE
5
265
100
AcDbEntity
8
1
100
AcDbLine
6
CONTINUOUS
62
5
10
124.144141
20
323.062500
11
124.144141
21
328.687500
0
POLYLINE
5
266
100
AcDbEntity
8
1
6
CONTINUOUS
62
5
100
AcDb2dPolyline
66
1
10
0.0
20
0.0
30
0.0
70
0
0
VERTEX
5
267
100
AcDbEntity
8
1
100
AcDbVertex
100
AcDb2dVertex
62
5
10
125.894141
20
329.312500
0
VERTEX
5
268
100
AcDbEntity
8
1
100
AcDbVertex
100
AcDb2dVertex
62
5
10
125.894141
20
321.812500
0
VERTEX
5
269
100
AcDbEntity
8
1
100
AcDbVertex
100
AcDb2dVertex
62
5
10
125.394141
20
320.875000
0
VERTEX
5
26a
100
AcDbEntity
8
1
100
AcDbVertex
100
AcDb2dVertex
62
5
10
124.644141
20
320.875000
0
SEQEND
5
26b
100
AcDbEntity
8
1
0
POLYLINE
5
26c
100
AcDbEntity
8
1
6
CONTINUOUS
62
5
100
AcDb2dPolyline
66
1
10
0.0
20
0.0
30
0.0
70
0
0
VERTEX
5
26d
100
AcDbEntity
8
1
100
AcDbVertex
100
AcDb2dVertex
62
5
10
112.644141
20
337.125000
0
VERTEX
5
26e
100
AcDbEntity
8
1
100
AcDbVertex
100
AcDb2dVertex
62
5
10
115.894141
20
337.125000
0
VERTEX
5
26f
100
AcDbEntity
8
1
100
AcDbVertex
100
AcDb2dVertex
62
5
10
115.894141
20
336.812500
0
VERTEX
5
270
100
AcDbEntity
8
1
100
AcDbVertex
100
AcDb2dVertex
62
5
10
115.394141
20
335.562500
0
VERTEX
5
271
100
AcDbEntity
8
1
100
AcDbVertex
100
AcDb2dVertex
62
5
10
114.894141
20
334.625000
0
VERTEX
5
272
100
AcDbEntity
8
1
100
AcDbVertex
100
AcDb2dVertex
62
5
10
113.894141
20
333.375000
0
VERTEX
5
273
100
AcDbEntity
8
1
100
AcDbVertex
100
AcDb2dVertex
62
5
10
112.144141
20
331.812500
0
SEQEND
5
274
100
AcDbEntity
8
1
0
LINE
5
275
100
AcDbEntity
8
1
100
AcDbLine
6
CONTINUOUS
62
5
10
114.894141
20
334.625000
11
116.894141
21
331.812500
0
POLYLINE
5
276
100
AcDbEntity
8
1
6
CONTINUOUS
62
5
100
AcDb2dPolyline
66
1
10
0.0
20
0.0
30
0.0
70
0
0
VERTEX
5
277
100
AcDbEntity
8
1
100
AcDbVertex
100
AcDb2dVertex
62
5
10
120.394141
20
334.937500
0
VERTEX
5
278
100
AcDbEntity
8
1
100
AcDbVertex
100
AcDb2dVertex
62
5
10
121.394141
20
336.187500
0
VERTEX
5
279
100
AcDbEntity
8
1
100
AcDbVertex
100
AcDb2dVertex
62
5
10
122.144141
20
337.437500
0
VERTEX
5
27a
100
AcDbEntity
8
1
100
AcDbVertex
100
AcDb2dVertex
62
5
10
124.644141
20
337.437500
0
VERTEX
5
27b
100
AcDbEntity
8
1
100
AcDbVertex
100
AcDb2dVertex
62
5
10
124.644141
20
337.125000
0
VERTEX
5
27c
100
AcDbEntity
8
1
100
AcDbVertex
100
AcDb2dVertex
62
5
10
123.644141
20
334.625000
0
VERTEX
5
27d
100
AcDbEntity
8
1
100
AcDbVertex
100
AcDb2dVertex
62
5
10
122.394141
20
332.750000
0
VERTEX
5
27e
100
AcDbEntity
8
1
100
AcDbVertex
100
AcDb2dVertex
62
5
10
120.894141
20
331.500000
0
SEQEND
5
27f
100
AcDbEntity
8
1
0
LINE
5
280
100
AcDbEntity
8
1
100
AcDbLine
6
CONTINUOUS
62
5
10
122.144141
20
335.562500
11
123.394141
21
334.312500
0
LINE
5
281
100
AcDbEntity
8
1
100
AcDbLine
6
CONTINUOUS
62
5
10
87.394141
20
329.000000
11
88.644141
21
328.062500
0
POLYLINE
5
282
100
AcDbEntity
8
1
6
CONTINUOUS
62
5
100
AcDb2dPolyline
66
1
10
0.0
20
0.0
30
0.0
70
0
0
VERTEX
5
283
100
AcDbEntity
8
1
100
AcDbVertex
100
AcDb2dVertex
62
5
10
86.894141
20
325.875000
0
VERTEX
5
284
100
AcDbEntity
8
1
100
AcDbVertex
100
AcDb2dVertex
62
5
10
88.394141
20
325.875000
0
VERTEX
5
285
100
AcDbEntity
8
1
100
AcDbVertex
100
AcDb2dVertex
62
5
10
88.394141
20
322.750000
0
VERTEX
5
286
100
AcDbEntity
8
1
100
AcDbVertex
100
AcDb2dVertex
62
5
10
86.894141
20
320.875000
0
SEQEND
5
287
100
AcDbEntity
8
1
0
POLYLINE
5
288
100
AcDbEntity
8
1
6
CONTINUOUS
62
5
100
AcDb2dPolyline
66
1
10
0.0
20
0.0
30
0.0
70
0
0
VERTEX
5
289
100
AcDbEntity
8
1
100
AcDbVertex
100
AcDb2dVertex
62
5
10
88.394141
20
322.750000
0
VERTEX
5
28a
100
AcDbEntity
8
1
100
AcDbVertex
100
AcDb2dVertex
62
5
10
89.394141
20
321.500000
0
VERTEX
5
28b
100
AcDbEntity
8
1
100
AcDbVertex
100
AcDb2dVertex
62
5
10
89.894141
20
320.875000
0
VERTEX
5
28c
100
AcDbEntity
8
1
100
AcDbVertex
100
AcDb2dVertex
62
5
10
93.894141
20
320.562500
0
SEQEND
5
28d
100
AcDbEntity
8
1
0
POLYLINE
5
28e
100
AcDbEntity
8
1
6
CONTINUOUS
62
5
100
AcDb2dPolyline
66
1
10
0.0
20
0.0
30
0.0
70
0
0
VERTEX
5
28f
100
AcDbEntity
8
1
100
AcDbVertex
100
AcDb2dVertex
62
5
10
88.894141
20
326.812500
0
VERTEX
5
290
100
AcDbEntity
8
1
100
AcDbVertex
100
AcDb2dVertex
62
5
10
91.394141
20
329.625000
0
VERTEX
5
291
100
AcDbEntity
8
1
100
AcDbVertex
100
AcDb2dVertex
62
5
10
94.144141
20
326.812500
0
SEQEND
5
292
100
AcDbEntity
8
1
0
LINE
5
293
100
AcDbEntity
8
1
100
AcDbLine
6
CONTINUOUS
62
5
10
89.894141
20
327.125000
11
93.144141
21
327.125000
0
LINE
5
294
100
AcDbEntity
8
1
100
AcDbLine
6
CONTINUOUS
62
5
10
89.144141
20
325.250000
11
93.894141
21
325.250000
0
POLYLINE
5
295
100
AcDbEntity
8
1
6
CONTINUOUS
62
5
100
AcDb2dPolyline
66
1
10
0.0
20
0.0
30
0.0
70
0
0
VERTEX
5
296
100
AcDbEntity
8
1
100
AcDbVertex
100
AcDb2dVertex
62
5
10
91.394141
20
327.125000
0
VERTEX
5
297
100
AcDbEntity
8
1
100
AcDbVertex
100
AcDb2dVertex
62
5
10
91.394141
20
321.500000
0
VERTEX
5
298
100
AcDbEntity
8
1
100
AcDbVertex
100
AcDb2dVertex
62
5
10
90.394141
20
321.812500
0
SEQEND
5
299
100
AcDbEntity
8
1
0
POLYLINE
5
29a
100
AcDbEntity
8
1
6
CONTINUOUS
62
5
100
AcDb2dPolyline
66
1
10
0.0
20
0.0
30
0.0
70
0
0
VERTEX
5
29b
100
AcDbEntity
8
1
100
AcDbVertex
100
AcDb2dVertex
62
5
10
90.394141
20
324.625000
0
VERTEX
5
29c
100
AcDbEntity
8
1
100
AcDbVertex
100
AcDb2dVertex
62
5
10
89.894141
20
323.687500
0
VERTEX
5
29d
100
AcDbEntity
8
1
100
AcDbVertex
100
AcDb2dVertex
62
5
10
89.144141
20
322.750000
0
SEQEND
5
29e
100
AcDbEntity
8
1
0
LINE
5
29f
100
AcDbEntity
8
1
100
AcDbLine
6
CONTINUOUS
62
5
10
92.394141
20
324.625000
11
94.144141
21
322.750000
0
LINE
5
2a0
100
AcDbEntity
8
1
100
AcDbLine
6
CONTINUOUS
62
5
10
98.394141
20
329.625000
11
98.394141
21
324.937500
0
LINE
5
2a1
100
AcDbEntity
8
1
100
AcDbLine
6
CONTINUOUS
62
5
10
95.394141
20
328.062500
11
101.394141
21
328.062500
0
LINE
5
2a2
100
AcDbEntity
8
1
100
AcDbLine
6
CONTINUOUS
62
5
10
96.144141
20
326.500000
11
100.894141
21
326.500000
0
LINE
5
2a3
100
AcDbEntity
8
1
100
AcDbLine
6
CONTINUOUS
62
5
10
94.894141
20
324.937500
11
102.144141
21
324.937500
0
POLYLINE
5
2a4
100
AcDbEntity
8
1
6
CONTINUOUS
62
5
100
AcDb2dPolyline
66
1
10
0.0
20
0.0
30
0.0
70
0
0
VERTEX
5
2a5
100
AcDbEntity
8
1
100
AcDbVertex
100
AcDb2dVertex
62
5
10
98.394141
20
324.937500
0
VERTEX
5
2a6
100
AcDbEntity
8
1
100
AcDbVertex
100
AcDb2dVertex
62
5
10
96.894141
20
323.375000
0
VERTEX
5
2a7
100
AcDbEntity
8
1
100
AcDbVertex
100
AcDb2dVertex
62
5
10
94.894141
20
322.125000
0
SEQEND
5
2a8
100
AcDbEntity
8
1
0
LINE
5
2a9
100
AcDbEntity
8
1
100
AcDbLine
6
CONTINUOUS
62
5
10
96.894141
20
323.375000
11
96.894141
21
321.187500
0
POLYLINE
5
2aa
100
AcDbEntity
8
1
6
CONTINUOUS
62
5
100
AcDb2dPolyline
66
1
10
0.0
20
0.0
30
0.0
70
0
0
VERTEX
5
2ab
100
AcDbEntity
8
1
100
AcDbVertex
100
AcDb2dVertex
62
5
10
95.644141
20
320.875000
0
VERTEX
5
2ac
100
AcDbEntity
8
1
100
AcDbVertex
100
AcDb2dVertex
62
5
10
96.894141
20
321.187500
0
VERTEX
5
2ad
100
AcDbEntity
8
1
100
AcDbVertex
100
AcDb2dVertex
62
5
10
97.894141
20
321.500000
0
VERTEX
5
2ae
100
AcDbEntity
8
1
100
AcDbVertex
100
AcDb2dVertex
62
5
10
98.894141
20
322.125000
0
SEQEND
5
2af
100
AcDbEntity
8
1
0
LINE
5
2b0
100
AcDbEntity
8
1
100
AcDbLine
6
CONTINUOUS
62
5
10
101.144141
20
324.000000
11
99.644141
21
322.750000
0
POLYLINE
5
2b1
100
AcDbEntity
8
1
6
CONTINUOUS
62
5
100
AcDb2dPolyline
66
1
10
0.0
20
0.0
30
0.0
70
0
0
VERTEX
5
2b2
100
AcDbEntity
8
1
100
AcDbVertex
100
AcDb2dVertex
62
5
10
98.644141
20
324.312500
0
VERTEX
5
2b3
100
AcDbEntity
8
1
100
AcDbVertex
100
AcDb2dVertex
62
5
10
99.644141
20
322.125000
0
VERTEX
5
2b4
100
AcDbEntity
8
1
100
AcDbVertex
100
AcDb2dVertex
62
5
10
100.894141
20
321.187500
0
VERTEX
5
2b5
100
AcDbEntity
8
1
100
AcDbVertex
100
AcDb2dVertex
62
5
10
101.894141
20
320.875000
0
SEQEND
5
2b6
100
AcDbEntity
8
1
0
POLYLINE
5
2b7
100
AcDbEntity
8
1
6
CONTINUOUS
62
5
100
AcDb2dPolyline
66
1
10
0.0
20
0.0
30
0.0
70
0
0
VERTEX
5
2b8
100
AcDbEntity
8
1
100
AcDbVertex
100
AcDb2dVertex
62
5
10
95.644141
20
337.437500
0
VERTEX
5
2b9
100
AcDbEntity
8
1
100
AcDbVertex
100
AcDb2dVertex
62
5
10
100.894141
20
337.437500
0
VERTEX
5
2ba
100
AcDbEntity
8
1
100
AcDbVertex
100
AcDb2dVertex
62
5
10
100.894141
20
337.125000
0
VERTEX
5
2bb
100
AcDbEntity
8
1
100
AcDbVertex
100
AcDb2dVertex
62
5
10
99.144141
20
335.250000
0
VERTEX
5
2bc
100
AcDbEntity
8
1
100
AcDbVertex
100
AcDb2dVertex
62
5
10
98.394141
20
335.250000
0
SEQEND
5
2bd
100
AcDbEntity
8
1
0
POLYLINE
5
2be
100
AcDbEntity
8
1
6
CONTINUOUS
62
5
100
AcDb2dPolyline
66
1
10
0.0
20
0.0
30
0.0
70
0
0
VERTEX
5
2bf
100
AcDbEntity
8
1
100
AcDbVertex
100
AcDb2dVertex
62
5
10
98.394141
20
336.187500
0
VERTEX
5
2c0
100
AcDbEntity
8
1
100
AcDbVertex
100
AcDb2dVertex
62
5
10
98.394141
20
334.625000
0
VERTEX
5
2c1
100
AcDbEntity
8
1
100
AcDbVertex
100
AcDb2dVertex
62
5
10
97.644141
20
332.750000
0
VERTEX
5
2c2
100
AcDbEntity
8
1
100
AcDbVertex
100
AcDb2dVertex
62
5
10
96.644141
20
331.500000
0
SEQEND
5
2c3
100
AcDbEntity
8
1
0
LINE
5
2c4
100
AcDbEntity
8
1
100
AcDbLine
6
CONTINUOUS
62
5
10
104.144141
20
329.000000
11
108.644141
21
329.000000
0
LINE
5
2c5
100
AcDbEntity
8
1
100
AcDbLine
6
CONTINUOUS
62
5
10
102.894141
20
326.812500
11
109.894141
21
326.812500
0
POLYLINE
5
2c6
100
AcDbEntity
8
1
6
CONTINUOUS
62
5
100
AcDb2dPolyline
66
1
10
0.0
20
0.0
30
0.0
70
0
0
VERTEX
5
2c7
100
AcDbEntity
8
1
100
AcDbVertex
100
AcDb2dVertex
62
5
10
106.394141
20
326.812500
0
VERTEX
5
2c8
100
AcDbEntity
8
1
100
AcDbVertex
100
AcDb2dVertex
62
5
10
106.394141
20
321.187500
0
VERTEX
5
2c9
100
AcDbEntity
8
1
100
AcDbVertex
100
AcDb2dVertex
62
5
10
105.894141
20
320.562500
0
VERTEX
5
2ca
100
AcDbEntity
8
1
100
AcDbVertex
100
AcDb2dVertex
62
5
10
105.394141
20
320.562500
0
SEQEND
5
2cb
100
AcDbEntity
8
1
0
POLYLINE
5
2cc
100
AcDbEntity
8
1
6
CONTINUOUS
62
5
100
AcDb2dPolyline
66
1
10
0.0
20
0.0
30
0.0
70
0
0
VERTEX
5
2cd
100
AcDbEntity
8
1
100
AcDbVertex
100
AcDb2dVertex
62
5
10
104.644141
20
324.312500
0
VERTEX
5
2ce
100
AcDbEntity
8
1
100
AcDbVertex
100
AcDb2dVertex
62
5
10
104.144141
20
323.062500
0
VERTEX
5
2cf
100
AcDbEntity
8
1
100
AcDbVertex
100
AcDb2dVertex
62
5
10
103.144141
20
321.812500
0
SEQEND
5
2d0
100
AcDbEntity
8
1
0
POLYLINE
5
2d1
100
AcDbEntity
8
1
6
CONTINUOUS
62
5
100
AcDb2dPolyline
66
1
10
0.0
20
0.0
30
0.0
70
0
0
VERTEX
5
2d2
100
AcDbEntity
8
1
100
AcDbVertex
100
AcDb2dVertex
62
5
10
107.894141
20
324.312500
0
VERTEX
5
2d3
100
AcDbEntity
8
1
100
AcDbVertex
100
AcDb2dVertex
62
5
10
108.894141
20
323.375000
0
VERTEX
5
2d4
100
AcDbEntity
8
1
100
AcDbVertex
100
AcDb2dVertex
62
5
10
109.644141
20
321.812500
0
SEQEND
5
2d5
100
AcDbEntity
8
1
0
POLYLINE
5
2d6
100
AcDbEntity
8
1
6
CONTINUOUS
62
5
100
AcDb2dPolyline
66
1
10
0.0
20
0.0
30
0.0
70
0
0
VERTEX
5
2d7
100
AcDbEntity
8
1
100
AcDbVertex
100
AcDb2dVertex
62
5
10
103.394141
20
335.562500
0
VERTEX
5
2d8
100
AcDbEntity
8
1
100
AcDbVertex
100
AcDb2dVertex
62
5
10
103.644141
20
335.250000
0
VERTEX
5
2d9
100
AcDbEntity
8
1
100
AcDbVertex
100
AcDb2dVertex
62
5
10
110.394141
20
335.250000
0
SEQEND
5
2da
100
AcDbEntity
8
1
0
POLYLINE
5
2db
100
AcDbEntity
8
1
6
CONTINUOUS
62
5
100
AcDb2dPolyline
66
1
10
0.0
20
0.0
30
0.0
70
0
0
VERTEX
5
2dc
100
AcDbEntity
8
1
100
AcDbVertex
100
AcDb2dVertex
62
5
10
88.144141
20
338.375000
0
VERTEX
5
2dd
100
AcDbEntity
8
1
100
AcDbVertex
100
AcDb2dVertex
62
5
10
88.144141
20
335.562500
0
VERTEX
5
2de
100
AcDbEntity
8
1
100
AcDbVertex
100
AcDb2dVertex
62
5
10
92.644141
20
335.562500
0
VERTEX
5
2df
100
AcDbEntity
8
1
100
AcDbVertex
100
AcDb2dVertex
62
5
10
92.644141
20
338.375000
0
SEQEND
5
2e0
100
AcDbEntity
8
1
0
LINE
5
2e1
100
AcDbEntity
8
1
100
AcDbLine
6
CONTINUOUS
62
5
10
90.394141
20
339.625000
11
90.394141
21
330.875000
0
POLYLINE
5
2e2
100
AcDbEntity
8
1
6
CONTINUOUS
62
5
100
AcDb2dPolyline
66
1
10
0.0
20
0.0
30
0.0
70
0
0
VERTEX
5
2e3
100
AcDbEntity
8
1
100
AcDbVertex
100
AcDb2dVertex
62
5
10
87.644141
20
334.000000
0
VERTEX
5
2e4
100
AcDbEntity
8
1
100
AcDbVertex
100
AcDb2dVertex
62
5
10
87.644141
20
330.875000
0
VERTEX
5
2e5
100
AcDbEntity
8
1
100
AcDbVertex
100
AcDb2dVertex
62
5
10
93.144141
20
330.875000
0
VERTEX
5
2e6
100
AcDbEntity
8
1
100
AcDbVertex
100
AcDb2dVertex
62
5
10
93.144141
20
334.000000
0
SEQEND
5
2e7
100
AcDbEntity
8
1
0
POLYLINE
5
2e8
100
AcDbEntity
8
1
6
CONTINUOUS
62
5
100
AcDb2dPolyline
66
1
10
0.0
20
0.0
30
0.0
70
0
0
VERTEX
5
2e9
100
AcDbEntity
8
1
100
AcDbVertex
100
AcDb2dVertex
62
5
10
129.144141
20
329.312500
0
VERTEX
5
2ea
100
AcDbEntity
8
1
100
AcDbVertex
100
AcDb2dVertex
62
5
10
128.144141
20
326.500000
0
VERTEX
5
2eb
100
AcDbEntity
8
1
100
AcDbVertex
100
AcDb2dVertex
62
5
10
126.894141
20
324.312500
0
SEQEND
5
2ec
100
AcDbEntity
8
1
0
LINE
5
2ed
100
AcDbEntity
8
1
100
AcDbLine
6
CONTINUOUS
62
5
10
128.144141
20
326.500000
11
128.144141
21
320.562500
0
LINE
5
2ee
100
AcDbEntity
8
1
100
AcDbLine
6
CONTINUOUS
62
5
10
128.894141
20
326.500000
11
134.144141
21
326.500000
0
POLYLINE
5
2ef
100
AcDbEntity
8
1
6
CONTINUOUS
62
5
100
AcDb2dPolyline
66
1
10
0.0
20
0.0
30
0.0
70
0
0
VERTEX
5
2f0
100
AcDbEntity
8
1
100
AcDbVertex
100
AcDb2dVertex
62
5
10
132.394141
20
329.312500
0
VERTEX
5
2f1
100
AcDbEntity
8
1
100
AcDbVertex
100
AcDb2dVertex
62
5
10
132.394141
20
320.875000
0
VERTEX
5
2f2
100
AcDbEntity
8
1
100
AcDbVertex
100
AcDb2dVertex
62
5
10
130.894141
20
321.187500
0
SEQEND
5
2f3
100
AcDbEntity
8
1
0
LINE
5
2f4
100
AcDbEntity
8
1
100
AcDbLine
6
CONTINUOUS
62
5
10
129.894141
20
325.250000
11
130.894141
21
323.375000
0
POLYLINE
5
2f5
100
AcDbEntity
8
1
6
CONTINUOUS
62
5
100
AcDb2dPolyline
66
1
10
0.0
20
0.0
30
0.0
70
0
0
VERTEX
5
2f6
100
AcDbEntity
8
1
100
AcDbVertex
100
AcDb2dVertex
62
5
10
127.394141
20
335.562500
0
VERTEX
5
2f7
100
AcDbEntity
8
1
100
AcDbVertex
100
AcDb2dVertex
62
5
10
127.644141
20
335.250000
0
VERTEX
5
2f8
100
AcDbEntity
8
1
100
AcDbVertex
100
AcDb2dVertex
62
5
10
134.394141
20
335.250000
0
SEQEND
5
2f9
100
AcDbEntity
8
1
0
LINE
5
2fa
100
AcDbEntity
8
1
100
AcDbLine
6
CONTINUOUS
62
5
10
100.144141
20
296.750000
11
103.269141
21
296.750000
0
LINE
5
2fb
100
AcDbEntity
8
1
100
AcDbLine
6
CONTINUOUS
62
5
10
85.144141
20
300.500000
11
88.269141
21
300.500000
0
LINE
5
2fc
100
AcDbEntity
8
1
100
AcDbLine
6
CONTINUOUS
62
5
10
86.706641
20
300.500000
11
86.706641
21
293.000000
0
POLYLINE
5
2fd
100
AcDbEntity
8
1
6
CONTINUOUS
62
5
100
AcDb2dPolyline
66
1
10
0.0
20
0.0
30
0.0
70
0
0
VERTEX
5
2fe
100
AcDbEntity
8
1
100
AcDbVertex
100
AcDb2dVertex
62
5
10
92.956641
20
298.937500
0
VERTEX
5
2ff
100
AcDbEntity
8
1
100
AcDbVertex
100
AcDb2dVertex
62
5
10
92.644141
20
299.875000
0
VERTEX
5
300
100
AcDbEntity
8
1
100
AcDbVertex
100
AcDb2dVertex
62
5
10
92.019141
20
300.500000
0
VERTEX
5
301
100
AcDbEntity
8
1
100
AcDbVertex
100
AcDb2dVertex
62
5
10
91.081641
20
300.500000
0
VERTEX
5
302
100
AcDbEntity
8
1
100
AcDbVertex
100
AcDb2dVertex
62
5
10
90.456641
20
299.875000
0
VERTEX
5
303
100
AcDbEntity
8
1
100
AcDbVertex
100
AcDb2dVertex
62
5
10
90.144141
20
299.250000
0
VERTEX
5
304
100
AcDbEntity
8
1
100
AcDbVertex
100
AcDb2dVertex
62
5
10
89.831641
20
297.687500
0
VERTEX
5
305
100
AcDbEntity
8
1
100
AcDbVertex
100
AcDb2dVertex
62
5
10
89.831641
20
295.812500
0
VERTEX
5
306
100
AcDbEntity
8
1
100
AcDbVertex
100
AcDb2dVertex
62
5
10
90.144141
20
294.250000
0
VERTEX
5
307
100
AcDbEntity
8
1
100
AcDbVertex
100
AcDb2dVertex
62
5
10
90.456641
20
293.625000
0
VERTEX
5
308
100
AcDbEntity
8
1
100
AcDbVertex
100
AcDb2dVertex
62
5
10
91.081641
20
293.000000
0
VERTEX
5
309
100
AcDbEntity
8
1
100
AcDbVertex
100
AcDb2dVertex
62
5
10
92.019141
20
293.000000
0
VERTEX
5
30a
100
AcDbEntity
8
1
100
AcDbVertex
100
AcDb2dVertex
62
5
10
92.644141
20
293.625000
0
VERTEX
5
30b
100
AcDbEntity
8
1
100
AcDbVertex
100
AcDb2dVertex
62
5
10
92.956641
20
294.250000
0
SEQEND
5
30c
100
AcDbEntity
8
1
0
LINE
5
30d
100
AcDbEntity
8
1
100
AcDbLine
6
CONTINUOUS
62
5
10
92.331641
20
296.437500
11
93.581641
21
296.437500
0
LINE
5
30e
100
AcDbEntity
8
1
100
AcDbLine
6
CONTINUOUS
62
5
10
92.956641
20
296.437500
11
92.956641
21
293.000000
0
POLYLINE
5
30f
100
AcDbEntity
8
1
6
CONTINUOUS
62
5
100
AcDb2dPolyline
66
1
10
0.0
20
0.0
30
0.0
70
0
0
VERTEX
5
310
100
AcDbEntity
8
1
100
AcDbVertex
100
AcDb2dVertex
62
5
10
98.269141
20
300.500000
0
VERTEX
5
311
100
AcDbEntity
8
1
100
AcDbVertex
100
AcDb2dVertex
62
5
10
95.144141
20
300.500000
0
VERTEX
5
312
100
AcDbEntity
8
1
100
AcDbVertex
100
AcDb2dVertex
62
5
10
95.144141
20
293.000000
0
VERTEX
5
313
100
AcDbEntity
8
1
100
AcDbVertex
100
AcDb2dVertex
62
5
10
98.581641
20
293.000000
0
SEQEND
5
314
100
AcDbEntity
8
1
0
LINE
5
315
100
AcDbEntity
8
1
100
AcDbLine
6
CONTINUOUS
62
5
10
95.144141
20
296.750000
11
97.956641
21
296.750000
0
POLYLINE
5
316
100
AcDbEntity
8
1
6
CONTINUOUS
62
5
100
AcDb2dPolyline
66
1
10
0.0
20
0.0
30
0.0
70
0
0
VERTEX
5
317
100
AcDbEntity
8
1
100
AcDbVertex
100
AcDb2dVertex
62
5
10
105.144141
20
293.000000
0
VERTEX
5
318
100
AcDbEntity
8
1
100
AcDbVertex
100
AcDb2dVertex
62
5
10
105.144141
20
300.500000
0
VERTEX
5
319
100
AcDbEntity
8
1
100
AcDbVertex
100
AcDb2dVertex
62
5
10
106.706641
20
293.000000
0
VERTEX
5
31a
100
AcDbEntity
8
1
100
AcDbVertex
100
AcDb2dVertex
62
5
10
108.269141
20
300.500000
0
VERTEX
5
31b
100
AcDbEntity
8
1
100
AcDbVertex
100
AcDb2dVertex
62
5
10
108.269141
20
293.000000
0
SEQEND
5
31c
100
AcDbEntity
8
1
0
POLYLINE
5
31d
100
AcDbEntity
8
1
6
CONTINUOUS
62
5
100
AcDb2dPolyline
66
1
10
0.0
20
0.0
30
0.0
70
0
0
VERTEX
5
31e
100
AcDbEntity
8
1
100
AcDbVertex
100
AcDb2dVertex
62
5
10
113.269141
20
298.937500
0
VERTEX
5
31f
100
AcDbEntity
8
1
100
AcDbVertex
100
AcDb2dVertex
62
5
10
112.956641
20
299.875000
0
VERTEX
5
320
100
AcDbEntity
8
1
100
AcDbVertex
100
AcDb2dVertex
62
5
10
112.331641
20
300.500000
0
VERTEX
5
321
100
AcDbEntity
8
1
100
AcDbVertex
100
AcDb2dVertex
62
5
10
111.394141
20
300.500000
0
VERTEX
5
322
100
AcDbEntity
8
1
100
AcDbVertex
100
AcDb2dVertex
62
5
10
110.456641
20
299.562500
0
VERTEX
5
323
100
AcDbEntity
8
1
100
AcDbVertex
100
AcDb2dVertex
62
5
10
110.144141
20
298.000000
0
VERTEX
5
324
100
AcDbEntity
8
1
100
AcDbVertex
100
AcDb2dVertex
62
5
10
110.144141
20
295.500000
0
VERTEX
5
325
100
AcDbEntity
8
1
100
AcDbVertex
100
AcDb2dVertex
62
5
10
110.456641
20
293.937500
0
VERTEX
5
326
100
AcDbEntity
8
1
100
AcDbVertex
100
AcDb2dVertex
62
5
10
111.394141
20
293.000000
0
VERTEX
5
327
100
AcDbEntity
8
1
100
AcDbVertex
100
AcDb2dVertex
62
5
10
112.331641
20
293.000000
0
VERTEX
5
328
100
AcDbEntity
8
1
100
AcDbVertex
100
AcDb2dVertex
62
5
10
112.956641
20
293.625000
0
VERTEX
5
329
100
AcDbEntity
8
1
100
AcDbVertex
100
AcDb2dVertex
62
5
10
113.581641
20
295.187500
0
SEQEND
5
32a
100
AcDbEntity
8
1
0
LINE
5
32b
100
AcDbEntity
8
1
100
AcDbLine
6
CONTINUOUS
62
5
10
120.144141
20
300.500000
11
120.144141
21
293.000000
0
POLYLINE
5
32c
100
AcDbEntity
8
1
6
CONTINUOUS
62
5
100
AcDb2dPolyline
66
1
10
0.0
20
0.0
30
0.0
70
0
0
VERTEX
5
32d
100
AcDbEntity
8
1
100
AcDbVertex
100
AcDb2dVertex
62
5
10
120.144141
20
300.500000
0
VERTEX
5
32e
100
AcDbEntity
8
1
100
AcDbVertex
100
AcDb2dVertex
62
5
10
121.394141
20
300.500000
0
VERTEX
5
32f
100
AcDbEntity
8
1
100
AcDbVertex
100
AcDb2dVertex
62
5
10
122.331641
20
300.187500
0
VERTEX
5
330
100
AcDbEntity
8
1
100
AcDbVertex
100
AcDb2dVertex
62
5
10
122.956641
20
299.562500
0
VERTEX
5
331
100
AcDbEntity
8
1
100
AcDbVertex
100
AcDb2dVertex
62
5
10
123.269141
20
298.937500
0
VERTEX
5
332
100
AcDbEntity
8
1
100
AcDbVertex
100
AcDb2dVertex
62
5
10
123.269141
20
298.000000
0
VERTEX
5
333
100
AcDbEntity
8
1
100
AcDbVertex
100
AcDb2dVertex
62
5
10
122.956641
20
297.375000
0
VERTEX
5
334
100
AcDbEntity
8
1
100
AcDbVertex
100
AcDb2dVertex
62
5
10
122.331641
20
296.750000
0
VERTEX
5
335
100
AcDbEntity
8
1
100
AcDbVertex
100
AcDb2dVertex
62
5
10
121.394141
20
296.437500
0
VERTEX
5
336
100
AcDbEntity
8
1
100
AcDbVertex
100
AcDb2dVertex
62
5
10
120.144141
20
296.437500
0
SEQEND
5
337
100
AcDbEntity
8
1
0
POLYLINE
5
338
100
AcDbEntity
8
1
6
CONTINUOUS
62
5
100
AcDb2dPolyline
66
1
10
0.0
20
0.0
30
0.0
70
0
0
VERTEX
5
339
100
AcDbEntity
8
1
100
AcDbVertex
100
AcDb2dVertex
62
5
10
124.831641
20
300.500000
0
VERTEX
5
33a
100
AcDbEntity
8
1
100
AcDbVertex
100
AcDb2dVertex
62
5
10
125.769141
20
293.000000
0
VERTEX
5
33b
100
AcDbEntity
8
1
100
AcDbVertex
100
AcDb2dVertex
62
5
10
126.706641
20
300.500000
0
VERTEX
5
33c
100
AcDbEntity
8
1
100
AcDbVertex
100
AcDb2dVertex
62
5
10
127.644141
20
293.000000
0
VERTEX
5
33d
100
AcDbEntity
8
1
100
AcDbVertex
100
AcDb2dVertex
62
5
10
128.581641
20
300.500000
0
SEQEND
5
33e
100
AcDbEntity
8
1
0
LINE
5
33f
100
AcDbEntity
8
1
100
AcDbLine
6
CONTINUOUS
62
5
10
52.644141
20
350.000000
11
52.644141
21
318.000000
0
LINE
5
340
100
AcDbEntity
8
1
100
AcDbLine
6
CONTINUOUS
62
5
10
75.144141
20
296.750000
11
78.269141
21
296.750000
0
POLYLINE
5
341
100
AcDbEntity
8
1
6
CONTINUOUS
62
5
100
AcDb2dPolyline
66
1
10
0.0
20
0.0
30
0.0
70
0
0
VERTEX
5
342
100
AcDbEntity
8
1
100
AcDbVertex
100
AcDb2dVertex
62
5
10
68.269141
20
298.937500
0
VERTEX
5
343
100
AcDbEntity
8
1
100
AcDbVertex
100
AcDb2dVertex
62
5
10
67.956641
20
299.875000
0
VERTEX
5
344
100
AcDbEntity
8
1
100
AcDbVertex
100
AcDb2dVertex
62
5
10
67.331641
20
300.500000
0
VERTEX
5
345
100
AcDbEntity
8
1
100
AcDbVertex
100
AcDb2dVertex
62
5
10
66.394141
20
300.500000
0
VERTEX
5
346
100
AcDbEntity
8
1
100
AcDbVertex
100
AcDb2dVertex
62
5
10
65.456641
20
299.562500
0
VERTEX
5
347
100
AcDbEntity
8
1
100
AcDbVertex
100
AcDb2dVertex
62
5
10
65.144141
20
298.000000
0
VERTEX
5
348
100
AcDbEntity
8
1
100
AcDbVertex
100
AcDb2dVertex
62
5
10
65.144141
20
295.500000
0
VERTEX
5
349
100
AcDbEntity
8
1
100
AcDbVertex
100
AcDb2dVertex
62
5
10
65.456641
20
293.937500
0
VERTEX
5
34a
100
AcDbEntity
8
1
100
AcDbVertex
100
AcDb2dVertex
62
5
10
66.394141
20
293.000000
0
VERTEX
5
34b
100
AcDbEntity
8
1
100
AcDbVertex
100
AcDb2dVertex
62
5
10
67.331641
20
293.000000
0
VERTEX
5
34c
100
AcDbEntity
8
1
100
AcDbVertex
100
AcDb2dVertex
62
5
10
67.956641
20
293.625000
0
VERTEX
5
34d
100
AcDbEntity
8
1
100
AcDbVertex
100
AcDb2dVertex
62
5
10
68.581641
20
295.187500
0
SEQEND
5
34e
100
AcDbEntity
8
1
0
POLYLINE
5
34f
100
AcDbEntity
8
1
6
CONTINUOUS
62
5
100
AcDb2dPolyline
66
1
10
0.0
20
0.0
30
0.0
70
0
0
VERTEX
5
350
100
AcDbEntity
8
1
100
AcDbVertex
100
AcDb2dVertex
62
5
10
73.269141
20
298.937500
0
VERTEX
5
351
100
AcDbEntity
8
1
100
AcDbVertex
100
AcDb2dVertex
62
5
10
72.644141
20
300.187500
0
VERTEX
5
352
100
AcDbEntity
8
1
100
AcDbVertex
100
AcDb2dVertex
62
5
10
71.706641
20
300.500000
0
VERTEX
5
353
100
AcDbEntity
8
1
100
AcDbVertex
100
AcDb2dVertex
62
5
10
71.081641
20
300.500000
0
VERTEX
5
354
100
AcDbEntity
8
1
100
AcDbVertex
100
AcDb2dVertex
62
5
10
70.456641
20
300.187500
0
VERTEX
5
355
100
AcDbEntity
8
1
100
AcDbVertex
100
AcDb2dVertex
62
5
10
69.831641
20
299.250000
0
VERTEX
5
356
100
AcDbEntity
8
1
100
AcDbVertex
100
AcDb2dVertex
62
5
10
69.831641
20
298.312500
0
VERTEX
5
357
100
AcDbEntity
8
1
100
AcDbVertex
100
AcDb2dVertex
62
5
10
70.456641
20
297.375000
0
VERTEX
5
358
100
AcDbEntity
8
1
100
AcDbVertex
100
AcDb2dVertex
62
5
10
72.644141
20
296.125000
0
VERTEX
5
359
100
AcDbEntity
8
1
100
AcDbVertex
100
AcDb2dVertex
62
5
10
73.269141
20
295.187500
0
VERTEX
5
35a
100
AcDbEntity
8
1
100
AcDbVertex
100
AcDb2dVertex
62
5
10
73.269141
20
294.250000
0
VERTEX
5
35b
100
AcDbEntity
8
1
100
AcDbVertex
100
AcDb2dVertex
62
5
10
72.644141
20
293.312500
0
VERTEX
5
35c
100
AcDbEntity
8
1
100
AcDbVertex
100
AcDb2dVertex
62
5
10
71.706641
20
293.000000
0
VERTEX
5
35d
100
AcDbEntity
8
1
100
AcDbVertex
100
AcDb2dVertex
62
5
10
71.081641
20
293.000000
0
VERTEX
5
35e
100
AcDbEntity
8
1
100
AcDbVertex
100
AcDb2dVertex
62
5
10
70.144141
20
293.625000
0
VERTEX
5
35f
100
AcDbEntity
8
1
100
AcDbVertex
100
AcDb2dVertex
62
5
10
69.831641
20
294.875000
0
SEQEND
5
360
100
AcDbEntity
8
1
0
LINE
5
361
100
AcDbEntity
8
1
100
AcDbLine
6
CONTINUOUS
62
5
10
80.769141
20
300.500000
11
82.644141
21
300.500000
0
LINE
5
362
100
AcDbEntity
8
1
100
AcDbLine
6
CONTINUOUS
62
5
10
81.706641
20
300.500000
11
81.706641
21
293.000000
0
LINE
5
363
100
AcDbEntity
8
1
100
AcDbLine
6
CONTINUOUS
62
5
10
80.769141
20
293.000000
11
82.644141
21
293.000000
0
POLYLINE
5
364
100
AcDbEntity
8
1
6
CONTINUOUS
62
5
100
AcDb2dPolyline
66
1
10
0.0
20
0.0
30
0.0
70
0
0
VERTEX
5
365
100
AcDbEntity
8
1
100
AcDbVertex
100
AcDb2dVertex
62
5
10
80.144141
20
329.000000
0
VERTEX
5
366
100
AcDbEntity
8
1
100
AcDbVertex
100
AcDb2dVertex
62
5
10
80.144141
20
323.375000
0
VERTEX
5
367
100
AcDbEntity
8
1
100
AcDbVertex
100
AcDb2dVertex
62
5
10
79.644141
20
322.125000
0
VERTEX
5
368
100
AcDbEntity
8
1
100
AcDbVertex
100
AcDb2dVertex
62
5
10
79.144141
20
321.187500
0
SEQEND
5
369
100
AcDbEntity
8
1
0
POLYLINE
5
36a
100
AcDbEntity
8
1
6
CONTINUOUS
62
5
100
AcDb2dPolyline
66
1
10
0.0
20
0.0
30
0.0
70
0
0
VERTEX
5
36b
100
AcDbEntity
8
1
100
AcDbVertex
100
AcDb2dVertex
62
5
10
84.144141
20
321.500000
0
VERTEX
5
36c
100
AcDbEntity
8
1
100
AcDbVertex
100
AcDb2dVertex
62
5
10
85.144141
20
320.875000
0
VERTEX
5
36d
100
AcDbEntity
8
1
100
AcDbVertex
100
AcDb2dVertex
62
5
10
85.144141
20
329.000000
0
VERTEX
5
36e
100
AcDbEntity
8
1
100
AcDbVertex
100
AcDb2dVertex
62
5
10
80.144141
20
329.000000
0
SEQEND
5
36f
100
AcDbEntity
8
1
0
LINE
5
370
100
AcDbEntity
8
1
100
AcDbLine
6
CONTINUOUS
62
5
10
80.144141
20
326.500000
11
85.144141
21
326.500000
0
LINE
5
371
100
AcDbEntity
8
1
100
AcDbLine
6
CONTINUOUS
62
5
10
82.644141
20
329.000000
11
82.644141
21
320.875000
0
LINE
5
372
100
AcDbEntity
8
1
100
AcDbLine
6
CONTINUOUS
62
5
10
80.144141
20
324.000000
11
85.144141
21
324.000000
0
LINE
5
373
100
AcDbEntity
8
1
100
AcDbLine
6
CONTINUOUS
62
5
10
79.644141
20
339.312500
11
85.394141
21
339.312500
0
POLYLINE
5
374
100
AcDbEntity
8
1
6
CONTINUOUS
62
5
100
AcDb2dPolyline
66
1
10
0.0
20
0.0
30
0.0
70
0
0
VERTEX
5
375
100
AcDbEntity
8
1
100
AcDbVertex
100
AcDb2dVertex
62
5
10
79.394141
20
336.500000
0
VERTEX
5
376
100
AcDbEntity
8
1
100
AcDbVertex
100
AcDb2dVertex
62
5
10
79.394141
20
338.375000
0
VERTEX
5
377
100
AcDbEntity
8
1
100
AcDbVertex
100
AcDb2dVertex
62
5
10
85.894141
20
338.375000
0
VERTEX
5
378
100
AcDbEntity
8
1
100
AcDbVertex
100
AcDb2dVertex
62
5
10
85.894141
20
336.500000
0
SEQEND
5
379
100
AcDbEntity
8
1
0
LINE
5
37a
100
AcDbEntity
8
1
100
AcDbLine
6
CONTINUOUS
62
5
10
82.644141
20
339.312500
11
82.644141
21
335.875000
0
LINE
5
37b
100
AcDbEntity
8
1
100
AcDbLine
6
CONTINUOUS
62
5
10
80.144141
20
337.437500
11
81.894141
21
337.437500
0
LINE
5
37c
100
AcDbEntity
8
1
100
AcDbLine
6
CONTINUOUS
62
5
10
80.144141
20
336.500000
11
81.894141
21
336.500000
0
LINE
5
37d
100
AcDbEntity
8
1
100
AcDbLine
6
CONTINUOUS
62
5
10
83.394141
20
337.437500
11
85.144141
21
337.437500
0
LINE
5
37e
100
AcDbEntity
8
1
100
AcDbLine
6
CONTINUOUS
62
5
10
83.394141
20
336.500000
11
85.144141
21
336.500000
0
POLYLINE
5
37f
100
AcDbEntity
8
1
6
CONTINUOUS
62
5
100
AcDb2dPolyline
66
1
10
0.0
20
0.0
30
0.0
70
1
0
VERTEX
5
380
100
AcDbEntity
8
1
100
AcDbVertex
100
AcDb2dVertex
62
5
10
79.644141
20
335.250000
0
VERTEX
5
381
100
AcDbEntity
8
1
100
AcDbVertex
100
AcDb2dVertex
62
5
10
79.644141
20
334.000000
0
VERTEX
5
382
100
AcDbEntity
8
1
100
AcDbVertex
100
AcDb2dVertex
62
5
10
81.644141
20
334.000000
0
VERTEX
5
383
100
AcDbEntity
8
1
100
AcDbVertex
100
AcDb2dVertex
62
5
10
81.644141
20
335.250000
0
VERTEX
5
384
100
AcDbEntity
8
1
100
AcDbVertex
100
AcDb2dVertex
62
5
10
79.644141
20
335.250000
0
SEQEND
5
385
100
AcDbEntity
8
1
0
LINE
5
386
100
AcDbEntity
8
1
100
AcDbLine
6
CONTINUOUS
62
5
10
80.644141
20
334.000000
11
80.644141
21
331.500000
0
LINE
5
387
100
AcDbEntity
8
1
100
AcDbLine
6
CONTINUOUS
62
5
10
80.644141
20
333.062500
11
81.644141
21
333.062500
0
LINE
5
388
100
AcDbEntity
8
1
100
AcDbLine
6
CONTINUOUS
62
5
10
79.644141
20
333.375000
11
79.644141
21
331.187500
0
LINE
5
389
100
AcDbEntity
8
1
100
AcDbLine
6
CONTINUOUS
62
5
10
79.144141
20
330.875000
11
81.644141
21
331.812500
0
POLYLINE
5
38a
100
AcDbEntity
8
1
6
CONTINUOUS
62
5
100
AcDb2dPolyline
66
1
10
0.0
20
0.0
30
0.0
70
0
0
VERTEX
5
38b
100
AcDbEntity
8
1
100
AcDbVertex
100
AcDb2dVertex
62
5
10
83.644141
20
335.562500
0
VERTEX
5
38c
100
AcDbEntity
8
1
100
AcDbVertex
100
AcDb2dVertex
62
5
10
83.394141
20
334.937500
0
VERTEX
5
38d
100
AcDbEntity
8
1
100
AcDbVertex
100
AcDb2dVertex
62
5
10
82.894141
20
334.312500
0
VERTEX
5
38e
100
AcDbEntity
8
1
100
AcDbVertex
100
AcDb2dVertex
62
5
10
82.394141
20
334.000000
0
SEQEND
5
38f
100
AcDbEntity
8
1
0
POLYLINE
5
390
100
AcDbEntity
8
1
6
CONTINUOUS
62
5
100
AcDb2dPolyline
66
1
10
0.0
20
0.0
30
0.0
70
0
0
VERTEX
5
391
100
AcDbEntity
8
1
100
AcDbVertex
100
AcDb2dVertex
62
5
10
83.394141
20
334.937500
0
VERTEX
5
392
100
AcDbEntity
8
1
100
AcDbVertex
100
AcDb2dVertex
62
5
10
85.394141
20
334.937500
0
VERTEX
5
393
100
AcDbEntity
8
1
100
AcDbVertex
100
AcDb2dVertex
62
5
10
84.644141
20
334.000000
0
VERTEX
5
394
100
AcDbEntity
8
1
100
AcDbVertex
100
AcDb2dVertex
62
5
10
83.894141
20
333.375000
0
VERTEX
5
395
100
AcDbEntity
8
1
100
AcDbVertex
100
AcDb2dVertex
62
5
10
82.144141
20
332.750000
0
SEQEND
5
396
100
AcDbEntity
8
1
0
POLYLINE
5
397
100
AcDbEntity
8
1
6
CONTINUOUS
62
5
100
AcDb2dPolyline
66
1
10
0.0
20
0.0
30
0.0
70
0
0
VERTEX
5
398
100
AcDbEntity
8
1
100
AcDbVertex
100
AcDb2dVertex
62
5
10
83.144141
20
334.625000
0
VERTEX
5
399
100
AcDbEntity
8
1
100
AcDbVertex
100
AcDb2dVertex
62
5
10
83.644141
20
334.000000
0
VERTEX
5
39a
100
AcDbEntity
8
1
100
AcDbVertex
100
AcDb2dVertex
62
5
10
84.394141
20
333.375000
0
VERTEX
5
39b
100
AcDbEntity
8
1
100
AcDbVertex
100
AcDb2dVertex
62
5
10
86.144141
20
332.750000
0
SEQEND
5
39c
100
AcDbEntity
8
1
0
POLYLINE
5
39d
100
AcDbEntity
8
1
6
CONTINUOUS
62
5
100
AcDb2dPolyline
66
1
10
0.0
20
0.0
30
0.0
70
1
0
VERTEX
5
39e
100
AcDbEntity
8
1
100
AcDbVertex
100
AcDb2dVertex
62
5
10
82.894141
20
332.750000
0
VERTEX
5
39f
100
AcDbEntity
8
1
100
AcDbVertex
100
AcDb2dVertex
62
5
10
82.894141
20
331.187500
0
VERTEX
5
3a0
100
AcDbEntity
8
1
100
AcDbVertex
100
AcDb2dVertex
62
5
10
85.394141
20
331.187500
0
VERTEX
5
3a1
100
AcDbEntity
8
1
100
AcDbVertex
100
AcDb2dVertex
62
5
10
85.394141
20
332.750000
0
VERTEX
5
3a2
100
AcDbEntity
8
1
100
AcDbVertex
100
AcDb2dVertex
62
5
10
82.894141
20
332.750000
0
SEQEND
5
3a3
100
AcDbEntity
8
1
0
LINE
5
3a4
100
AcDbEntity
8
1
100
AcDbLine
6
DOT2
62
5
10
129.044143
20
242.750000
11
131.856643
21
242.750000
0
POLYLINE
5
3a5
100
AcDbEntity
8
1
6
DOT2
62
5
100
AcDb2dPolyline
66
1
10
0.0
20
0.0
30
0.0
70
0
0
VERTEX
5
3a6
100
AcDbEntity
8
1
100
AcDbVertex
100
AcDb2dVertex
62
5
10
129.044143
20
242.750000
0
VERTEX
5
3a7
100
AcDbEntity
8
1
100
AcDbVertex
100
AcDb2dVertex
62
5
10
129.044143
20
239.000000
0
VERTEX
5
3a8
100
AcDbEntity
8
1
100
AcDbVertex
100
AcDb2dVertex
62
5
10
129.669143
20
239.625000
0
VERTEX
5
3a9
100
AcDbEntity
8
1
100
AcDbVertex
100
AcDb2dVertex
62
5
10
130.294143
20
239.937500
0
VERTEX
5
3aa
100
AcDbEntity
8
1
100
AcDbVertex
100
AcDb2dVertex
62
5
10
131.231643
20
239.937500
0
VERTEX
5
3ab
100
AcDbEntity
8
1
100
AcDbVertex
100
AcDb2dVertex
62
5
10
131.856643
20
239.625000
0
VERTEX
5
3ac
100
AcDbEntity
8
1
100
AcDbVertex
100
AcDb2dVertex
62
5
10
132.169143
20
238.687500
0
VERTEX
5
3ad
100
AcDbEntity
8
1
100
AcDbVertex
100
AcDb2dVertex
62
5
10
132.169143
20
236.812500
0
VERTEX
5
3ae
100
AcDbEntity
8
1
100
AcDbVertex
100
AcDb2dVertex
62
5
10
131.544143
20
235.875000
0
VERTEX
5
3af
100
AcDbEntity
8
1
100
AcDbVertex
100
AcDb2dVertex
62
5
10
130.606643
20
235.250000
0
VERTEX
5
3b0
100
AcDbEntity
8
1
100
AcDbVertex
100
AcDb2dVertex
62
5
10
129.044143
20
235.250000
0
SEQEND
5
3b1
100
AcDbEntity
8
1
0
POLYLINE
5
3b2
100
AcDbEntity
8
1
6
DOT2
62
5
100
AcDb2dPolyline
66
1
10
0.0
20
0.0
30
0.0
70
0
0
VERTEX
5
3b3
100
AcDbEntity
8
1
100
AcDbVertex
100
AcDb2dVertex
62
5
10
134.044143
20
240.562500
0
VERTEX
5
3b4
100
AcDbEntity
8
1
100
AcDbVertex
100
AcDb2dVertex
62
5
10
134.356643
20
242.125000
0
VERTEX
5
3b5
100
AcDbEntity
8
1
100
AcDbVertex
100
AcDb2dVertex
62
5
10
135.294143
20
242.750000
0
VERTEX
5
3b6
100
AcDbEntity
8
1
100
AcDbVertex
100
AcDb2dVertex
62
5
10
136.231643
20
242.750000
0
VERTEX
5
3b7
100
AcDbEntity
8
1
100
AcDbVertex
100
AcDb2dVertex
62
5
10
136.856643
20
242.437500
0
VERTEX
5
3b8
100
AcDbEntity
8
1
100
AcDbVertex
100
AcDb2dVertex
62
5
10
137.169143
20
241.500000
0
VERTEX
5
3b9
100
AcDbEntity
8
1
100
AcDbVertex
100
AcDb2dVertex
62
5
10
137.169143
20
240.562500
0
VERTEX
5
3ba
100
AcDbEntity
8
1
100
AcDbVertex
100
AcDb2dVertex
62
5
10
136.856643
20
239.625000
0
VERTEX
5
3bb
100
AcDbEntity
8
1
100
AcDbVertex
100
AcDb2dVertex
62
5
10
134.044143
20
235.250000
0
VERTEX
5
3bc
100
AcDbEntity
8
1
100
AcDbVertex
100
AcDb2dVertex
62
5
10
137.169143
20
235.250000
0
VERTEX
5
3bd
100
AcDbEntity
8
1
100
AcDbVertex
100
AcDb2dVertex
62
5
10
137.169143
20
236.187500
0
SEQEND
5
3be
100
AcDbEntity
8
1
0
POLYLINE
5
3bf
100
AcDbEntity
8
1
6
CONTINUOUS
62
5
100
AcDb2dPolyline
66
1
10
0.0
20
0.0
30
0.0
70
0
0
VERTEX
5
3c0
100
AcDbEntity
8
1
100
AcDbVertex
100
AcDb2dVertex
62
5
10
128.489341
20
199.312500
0
VERTEX
5
3c1
100
AcDbEntity
8
1
100
AcDbVertex
100
AcDb2dVertex
62
5
10
128.489341
20
197.343750
0
VERTEX
5
3c2
100
AcDbEntity
8
1
100
AcDbVertex
100
AcDb2dVertex
62
5
10
128.270591
20
196.906250
0
VERTEX
5
3c3
100
AcDbEntity
8
1
100
AcDbVertex
100
AcDb2dVertex
62
5
10
128.051841
20
196.578125
0
SEQEND
5
3c4
100
AcDbEntity
8
1
0
POLYLINE
5
3c5
100
AcDbEntity
8
1
6
CONTINUOUS
62
5
100
AcDb2dPolyline
66
1
10
0.0
20
0.0
30
0.0
70
0
0
VERTEX
5
3c6
100
AcDbEntity
8
1
100
AcDbVertex
100
AcDb2dVertex
62
5
10
130.239341
20
196.687500
0
VERTEX
5
3c7
100
AcDbEntity
8
1
100
AcDbVertex
100
AcDb2dVertex
62
5
10
130.676841
20
196.468750
0
VERTEX
5
3c8
100
AcDbEntity
8
1
100
AcDbVertex
100
AcDb2dVertex
62
5
10
130.676841
20
199.312500
0
VERTEX
5
3c9
100
AcDbEntity
8
1
100
AcDbVertex
100
AcDb2dVertex
62
5
10
128.489341
20
199.312500
0
SEQEND
5
3ca
100
AcDbEntity
8
1
0
LINE
5
3cb
100
AcDbEntity
8
1
100
AcDbLine
6
CONTINUOUS
62
5
10
128.489341
20
198.437500
11
130.676841
21
198.437500
0
LINE
5
3cc
100
AcDbEntity
8
1
100
AcDbLine
6
CONTINUOUS
62
5
10
129.583091
20
199.312500
11
129.583091
21
196.468750
0
LINE
5
3cd
100
AcDbEntity
8
1
100
AcDbLine
6
CONTINUOUS
62
5
10
128.489341
20
197.562500
11
130.676841
21
197.562500
0
POLYLINE
5
3ce
100
AcDbEntity
8
1
6
CONTINUOUS
62
5
100
AcDb2dPolyline
66
1
10
0.0
20
0.0
30
0.0
70
0
0
VERTEX
5
3cf
100
AcDbEntity
8
1
100
AcDbVertex
100
AcDb2dVertex
62
5
10
132.098716
20
198.656250
0
VERTEX
5
3d0
100
AcDbEntity
8
1
100
AcDbVertex
100
AcDb2dVertex
62
5
10
133.848716
20
198.656250
0
VERTEX
5
3d1
100
AcDbEntity
8
1
100
AcDbVertex
100
AcDb2dVertex
62
5
10
133.848716
20
197.125000
0
VERTEX
5
3d2
100
AcDbEntity
8
1
100
AcDbVertex
100
AcDb2dVertex
62
5
10
132.098716
20
197.125000
0
SEQEND
5
3d3
100
AcDbEntity
8
1
0
LINE
5
3d4
100
AcDbEntity
8
1
100
AcDbLine
6
CONTINUOUS
62
5
10
135.598716
20
198.765625
11
136.036216
21
198.328125
0
POLYLINE
5
3d5
100
AcDbEntity
8
1
6
CONTINUOUS
62
5
100
AcDb2dPolyline
66
1
10
0.0
20
0.0
30
0.0
70
0
0
VERTEX
5
3d6
100
AcDbEntity
8
1
100
AcDbVertex
100
AcDb2dVertex
62
5
10
135.489341
20
197.015625
0
VERTEX
5
3d7
100
AcDbEntity
8
1
100
AcDbVertex
100
AcDb2dVertex
62
5
10
136.254966
20
197.343750
0
VERTEX
5
3d8
100
AcDbEntity
8
1
100
AcDbVertex
100
AcDb2dVertex
62
5
10
136.911216
20
197.781250
0
VERTEX
5
3d9
100
AcDbEntity
8
1
100
AcDbVertex
100
AcDb2dVertex
62
5
10
137.567466
20
198.328125
0
SEQEND
5
3da
100
AcDbEntity
8
1
0
POLYLINE
5
3db
100
AcDbEntity
8
1
6
CONTINUOUS
62
5
100
AcDb2dPolyline
66
1
10
0.0
20
0.0
30
0.0
70
0
0
VERTEX
5
3dc
100
AcDbEntity
8
1
100
AcDbVertex
100
AcDb2dVertex
62
5
10
138.770591
20
198.109375
0
VERTEX
5
3dd
100
AcDbEntity
8
1
100
AcDbVertex
100
AcDb2dVertex
62
5
10
141.067466
20
198.328125
0
VERTEX
5
3de
100
AcDbEntity
8
1
100
AcDbVertex
100
AcDb2dVertex
62
5
10
141.067466
20
198.218750
0
VERTEX
5
3df
100
AcDbEntity
8
1
100
AcDbVertex
100
AcDb2dVertex
62
5
10
140.520591
20
197.671875
0
SEQEND
5
3e0
100
AcDbEntity
8
1
0
POLYLINE
5
3e1
100
AcDbEntity
8
1
6
CONTINUOUS
62
5
100
AcDb2dPolyline
66
1
10
0.0
20
0.0
30
0.0
70
0
0
VERTEX
5
3e2
100
AcDbEntity
8
1
100
AcDbVertex
100
AcDb2dVertex
62
5
10
139.645591
20
199.093750
0
VERTEX
5
3e3
100
AcDbEntity
8
1
100
AcDbVertex
100
AcDb2dVertex
62
5
10
139.645591
20
197.015625
0
VERTEX
5
3e4
100
AcDbEntity
8
1
100
AcDbVertex
100
AcDb2dVertex
62
5
10
139.864341
20
196.796875
0
VERTEX
5
3e5
100
AcDbEntity
8
1
100
AcDbVertex
100
AcDb2dVertex
62
5
10
141.067466
20
196.796875
0
SEQEND
5
3e6
100
AcDbEntity
8
1
0
LINE
5
3e7
100
AcDbEntity
8
1
100
AcDbLine
6
CONTINUOUS
62
5
10
142.598716
20
198.765625
11
143.036216
21
198.328125
0
POLYLINE
5
3e8
100
AcDbEntity
8
1
6
CONTINUOUS
62
5
100
AcDb2dPolyline
66
1
10
0.0
20
0.0
30
0.0
70
0
0
VERTEX
5
3e9
100
AcDbEntity
8
1
100
AcDbVertex
100
AcDb2dVertex
62
5
10
142.489341
20
197.015625
0
VERTEX
5
3ea
100
AcDbEntity
8
1
100
AcDbVertex
100
AcDb2dVertex
62
5
10
143.254966
20
197.343750
0
VERTEX
5
3eb
100
AcDbEntity
8
1
100
AcDbVertex
100
AcDb2dVertex
62
5
10
143.911216
20
197.781250
0
VERTEX
5
3ec
100
AcDbEntity
8
1
100
AcDbVertex
100
AcDb2dVertex
62
5
10
144.567466
20
198.328125
0
SEQEND
5
3ed
100
AcDbEntity
8
1
0
POLYLINE
5
3ee
100
AcDbEntity
8
1
6
CONTINUOUS
62
5
100
AcDb2dPolyline
66
1
10
0.0
20
0.0
30
0.0
70
0
0
VERTEX
5
3ef
100
AcDbEntity
8
1
100
AcDbVertex
100
AcDb2dVertex
62
5
10
146.754966
20
198.328125
0
VERTEX
5
3f0
100
AcDbEntity
8
1
100
AcDbVertex
100
AcDb2dVertex
62
5
10
146.864341
20
198.328125
0
VERTEX
5
3f1
100
AcDbEntity
8
1
100
AcDbVertex
100
AcDb2dVertex
62
5
10
147.629966
20
197.890625
0
SEQEND
5
3f2
100
AcDbEntity
8
1
0
LINE
5
3f3
100
AcDbEntity
8
1
100
AcDbLine
6
CONTINUOUS
62
5
10
146.754966
20
199.312500
11
146.754966
21
196.687500
0
POLYLINE
5
3f4
100
AcDbEntity
8
1
6
CONTINUOUS
62
5
100
AcDb2dPolyline
66
1
10
0.0
20
0.0
30
0.0
70
0
0
VERTEX
5
3f5
100
AcDbEntity
8
1
100
AcDbVertex
100
AcDb2dVertex
62
5
10
117.879966
20
198.656250
0
VERTEX
5
3f6
100
AcDbEntity
8
1
100
AcDbVertex
100
AcDb2dVertex
62
5
10
118.426841
20
198.875000
0
VERTEX
5
3f7
100
AcDbEntity
8
1
100
AcDbVertex
100
AcDb2dVertex
62
5
10
118.754966
20
199.203125
0
VERTEX
5
3f8
100
AcDbEntity
8
1
100
AcDbVertex
100
AcDb2dVertex
62
5
10
118.973716
20
199.531250
0
SEQEND
5
3f9
100
AcDbEntity
8
1
0
POLYLINE
5
3fa
100
AcDbEntity
8
1
6
CONTINUOUS
62
5
100
AcDb2dPolyline
66
1
10
0.0
20
0.0
30
0.0
70
0
0
VERTEX
5
3fb
100
AcDbEntity
8
1
100
AcDbVertex
100
AcDb2dVertex
62
5
10
118.754966
20
199.203125
0
VERTEX
5
3fc
100
AcDbEntity
8
1
100
AcDbVertex
100
AcDb2dVertex
62
5
10
120.286216
20
199.203125
0
VERTEX
5
3fd
100
AcDbEntity
8
1
100
AcDbVertex
100
AcDb2dVertex
62
5
10
119.848716
20
198.765625
0
VERTEX
5
3fe
100
AcDbEntity
8
1
100
AcDbVertex
100
AcDb2dVertex
62
5
10
119.192466
20
198.437500
0
VERTEX
5
3ff
100
AcDbEntity
8
1
100
AcDbVertex
100
AcDb2dVertex
62
5
10
118.536216
20
198.109375
0
VERTEX
5
400
100
AcDbEntity
8
1
100
AcDbVertex
100
AcDb2dVertex
62
5
10
117.879966
20
197.890625
0
SEQEND
5
401
100
AcDbEntity
8
1
0
POLYLINE
5
402
100
AcDbEntity
8
1
6
CONTINUOUS
62
5
100
AcDb2dPolyline
66
1
10
0.0
20
0.0
30
0.0
70
0
0
VERTEX
5
403
100
AcDbEntity
8
1
100
AcDbVertex
100
AcDb2dVertex
62
5
10
118.645591
20
198.765625
0
VERTEX
5
404
100
AcDbEntity
8
1
100
AcDbVertex
100
AcDb2dVertex
62
5
10
118.973716
20
198.656250
0
VERTEX
5
405
100
AcDbEntity
8
1
100
AcDbVertex
100
AcDb2dVertex
62
5
10
119.192466
20
198.437500
0
SEQEND
5
406
100
AcDbEntity
8
1
0
POLYLINE
5
407
100
AcDbEntity
8
1
6
CONTINUOUS
62
5
100
AcDb2dPolyline
66
1
10
0.0
20
0.0
30
0.0
70
0
0
VERTEX
5
408
100
AcDbEntity
8
1
100
AcDbVertex
100
AcDb2dVertex
62
5
10
119.192466
20
198.218750
0
VERTEX
5
409
100
AcDbEntity
8
1
100
AcDbVertex
100
AcDb2dVertex
62
5
10
118.864341
20
197.890625
0
VERTEX
5
40a
100
AcDbEntity
8
1
100
AcDbVertex
100
AcDb2dVertex
62
5
10
118.645591
20
197.671875
0
VERTEX
5
40b
100
AcDbEntity
8
1
100
AcDbVertex
100
AcDb2dVertex
62
5
10
117.989341
20
197.343750
0
SEQEND
5
40c
100
AcDbEntity
8
1
0
POLYLINE
5
40d
100
AcDbEntity
8
1
6
CONTINUOUS
62
5
100
AcDb2dPolyline
66
1
10
0.0
20
0.0
30
0.0
70
0
0
VERTEX
5
40e
100
AcDbEntity
8
1
100
AcDbVertex
100
AcDb2dVertex
62
5
10
118.864341
20
197.890625
0
VERTEX
5
40f
100
AcDbEntity
8
1
100
AcDbVertex
100
AcDb2dVertex
62
5
10
120.504966
20
197.890625
0
VERTEX
5
410
100
AcDbEntity
8
1
100
AcDbVertex
100
AcDb2dVertex
62
5
10
119.958091
20
197.343750
0
VERTEX
5
411
100
AcDbEntity
8
1
100
AcDbVertex
100
AcDb2dVertex
62
5
10
119.411216
20
197.015625
0
VERTEX
5
412
100
AcDbEntity
8
1
100
AcDbVertex
100
AcDb2dVertex
62
5
10
118.645591
20
196.687500
0
VERTEX
5
413
100
AcDbEntity
8
1
100
AcDbVertex
100
AcDb2dVertex
62
5
10
118.208091
20
196.578125
0
VERTEX
5
414
100
AcDbEntity
8
1
100
AcDbVertex
100
AcDb2dVertex
62
5
10
117.879966
20
196.578125
0
SEQEND
5
415
100
AcDbEntity
8
1
0
POLYLINE
5
416
100
AcDbEntity
8
1
6
CONTINUOUS
62
5
100
AcDb2dPolyline
66
1
10
0.0
20
0.0
30
0.0
70
0
0
VERTEX
5
417
100
AcDbEntity
8
1
100
AcDbVertex
100
AcDb2dVertex
62
5
10
118.754966
20
197.453125
0
VERTEX
5
418
100
AcDbEntity
8
1
100
AcDbVertex
100
AcDb2dVertex
62
5
10
119.083091
20
197.343750
0
VERTEX
5
419
100
AcDbEntity
8
1
100
AcDbVertex
100
AcDb2dVertex
62
5
10
119.301841
20
197.125000
0
VERTEX
5
41a
100
AcDbEntity
8
1
100
AcDbVertex
100
AcDb2dVertex
62
5
10
119.411216
20
197.015625
0
SEQEND
5
41b
100
AcDbEntity
8
1
0
POLYLINE
5
41c
100
AcDbEntity
8
1
6
CONTINUOUS
62
5
100
AcDb2dPolyline
66
1
10
0.0
20
0.0
30
0.0
70
1
0
VERTEX
5
41d
100
AcDbEntity
8
1
100
AcDbVertex
100
AcDb2dVertex
62
5
10
121.598716
20
199.421875
0
VERTEX
5
41e
100
AcDbEntity
8
1
100
AcDbVertex
100
AcDb2dVertex
62
5
10
121.598716
20
196.468750
0
VERTEX
5
41f
100
AcDbEntity
8
1
100
AcDbVertex
100
AcDb2dVertex
62
5
10
123.676841
20
196.468750
0
VERTEX
5
420
100
AcDbEntity
8
1
100
AcDbVertex
100
AcDb2dVertex
62
5
10
123.676841
20
199.421875
0
VERTEX
5
421
100
AcDbEntity
8
1
100
AcDbVertex
100
AcDb2dVertex
62
5
10
121.598716
20
199.421875
0
SEQEND
5
422
100
AcDbEntity
8
1
0
LINE
5
423
100
AcDbEntity
8
1
100
AcDbLine
6
CONTINUOUS
62
5
10
121.598716
20
198.437500
11
123.676841
21
198.437500
0
LINE
5
424
100
AcDbEntity
8
1
100
AcDbLine
6
CONTINUOUS
62
5
10
123.676841
20
197.453125
11
121.598716
21
197.453125
0
LINE
5
425
100
AcDbEntity
8
1
100
AcDbLine
6
CONTINUOUS
62
5
10
125.426841
20
199.531250
11
124.989341
21
198.875000
0
POLYLINE
5
426
100
AcDbEntity
8
1
6
CONTINUOUS
62
5
100
AcDb2dPolyline
66
1
10
0.0
20
0.0
30
0.0
70
1
0
VERTEX
5
427
100
AcDbEntity
8
1
100
AcDbVertex
100
AcDb2dVertex
62
5
10
124.661216
20
198.875000
0
VERTEX
5
428
100
AcDbEntity
8
1
100
AcDbVertex
100
AcDb2dVertex
62
5
10
124.661216
20
196.578125
0
VERTEX
5
429
100
AcDbEntity
8
1
100
AcDbVertex
100
AcDb2dVertex
62
5
10
125.754966
20
196.578125
0
VERTEX
5
42a
100
AcDbEntity
8
1
100
AcDbVertex
100
AcDb2dVertex
62
5
10
125.754966
20
198.875000
0
VERTEX
5
42b
100
AcDbEntity
8
1
100
AcDbVertex
100
AcDb2dVertex
62
5
10
124.661216
20
198.875000
0
SEQEND
5
42c
100
AcDbEntity
8
1
0
LINE
5
42d
100
AcDbEntity
8
1
100
AcDbLine
6
CONTINUOUS
62
5
10
124.661216
20
197.781250
11
125.754966
21
197.781250
0
POLYLINE
5
42e
100
AcDbEntity
8
1
6
CONTINUOUS
62
5
100
AcDb2dPolyline
66
1
10
0.0
20
0.0
30
0.0
70
0
0
VERTEX
5
42f
100
AcDbEntity
8
1
100
AcDbVertex
100
AcDb2dVertex
62
5
10
126.629966
20
199.531250
0
VERTEX
5
430
100
AcDbEntity
8
1
100
AcDbVertex
100
AcDb2dVertex
62
5
10
126.301841
20
198.765625
0
VERTEX
5
431
100
AcDbEntity
8
1
100
AcDbVertex
100
AcDb2dVertex
62
5
10
125.973716
20
198.218750
0
SEQEND
5
432
100
AcDbEntity
8
1
0
POLYLINE
5
433
100
AcDbEntity
8
1
6
CONTINUOUS
62
5
100
AcDb2dPolyline
66
1
10
0.0
20
0.0
30
0.0
70
0
0
VERTEX
5
434
100
AcDbEntity
8
1
100
AcDbVertex
100
AcDb2dVertex
62
5
10
126.301841
20
198.765625
0
VERTEX
5
435
100
AcDbEntity
8
1
100
AcDbVertex
100
AcDb2dVertex
62
5
10
127.504966
20
198.765625
0
VERTEX
5
436
100
AcDbEntity
8
1
100
AcDbVertex
100
AcDb2dVertex
62
5
10
127.504966
20
197.343750
0
VERTEX
5
437
100
AcDbEntity
8
1
100
AcDbVertex
100
AcDb2dVertex
62
5
10
127.395591
20
196.578125
0
VERTEX
5
438
100
AcDbEntity
8
1
100
AcDbVertex
100
AcDb2dVertex
62
5
10
127.176841
20
196.359375
0
VERTEX
5
439
100
AcDbEntity
8
1
100
AcDbVertex
100
AcDb2dVertex
62
5
10
126.848716
20
196.359375
0
VERTEX
5
43a
100
AcDbEntity
8
1
100
AcDbVertex
100
AcDb2dVertex
62
5
10
126.411216
20
196.578125
0
SEQEND
5
43b
100
AcDbEntity
8
1
0
LINE
5
43c
100
AcDbEntity
8
1
100
AcDbLine
6
CONTINUOUS
62
5
10
126.411216
20
198.000000
11
126.848716
21
197.343750
0
LINE
5
43d
100
AcDbEntity
8
1
100
AcDbLine
6
CONTINUOUS
62
5
10
121.794143
20
209.000000
11
121.794143
21
208.800000
0
LINE
5
43e
100
AcDbEntity
8
1
100
AcDbLine
6
CONTINUOUS
62
5
10
143.794143
20
208.800000
11
143.794143
21
209.000000
0
LINE
5
43f
100
AcDbEntity
8
1
100
AcDbLine
6
CONTINUOUS
62
5
10
158.794143
20
203.300000
11
158.794143
21
236.000000
0
LINE
5
440
100
AcDbEntity
8
1
100
AcDbLine
6
CONTINUOUS
62
5
10
106.794143
20
203.300000
11
106.794143
21
236.000000
0
POLYLINE
5
441
100
AcDbEntity
8
1
6
CONTINUOUS
62
5
100
AcDb2dPolyline
66
1
10
0.0
20
0.0
30
0.0
70
0
0
VERTEX
5
442
100
AcDbEntity
8
1
100
AcDbVertex
100
AcDb2dVertex
62
5
10
132.794143
20
234.000000
0
VERTEX
5
443
100
AcDbEntity
8
1
100
AcDbVertex
100
AcDb2dVertex
62
5
10
106.794143
20
234.000000
0
VERTEX
5
444
100
AcDbEntity
8
1
100
AcDbVertex
100
AcDb2dVertex
62
5
10
112.794143
20
235.000000
0
VERTEX
5
445
100
AcDbEntity
8
1
100
AcDbVertex
100
AcDb2dVertex
62
5
10
112.794143
20
233.000000
0
VERTEX
5
446
100
AcDbEntity
8
1
100
AcDbVertex
100
AcDb2dVertex
62
5
10
106.794143
20
234.000000
0
VERTEX
5
447
100
AcDbEntity
8
1
100
AcDbVertex
100
AcDb2dVertex
62
5
10
112.794143
20
234.500000
0
VERTEX
5
448
100
AcDbEntity
8
1
100
AcDbVertex
100
AcDb2dVertex
62
5
10
112.794143
20
233.500000
0
VERTEX
5
449
100
AcDbEntity
8
1
100
AcDbVertex
100
AcDb2dVertex
62
5
10
106.794143
20
234.000000
0
SEQEND
5
44a
100
AcDbEntity
8
1
0
POLYLINE
5
44b
100
AcDbEntity
8
1
6
CONTINUOUS
62
5
100
AcDb2dPolyline
66
1
10
0.0
20
0.0
30
0.0
70
0
0
VERTEX
5
44c
100
AcDbEntity
8
1
100
AcDbVertex
100
AcDb2dVertex
62
5
10
132.794143
20
234.000000
0
VERTEX
5
44d
100
AcDbEntity
8
1
100
AcDbVertex
100
AcDb2dVertex
62
5
10
158.794143
20
234.000000
0
VERTEX
5
44e
100
AcDbEntity
8
1
100
AcDbVertex
100
AcDb2dVertex
62
5
10
152.794143
20
233.000000
0
VERTEX
5
44f
100
AcDbEntity
8
1
100
AcDbVertex
100
AcDb2dVertex
62
5
10
152.794143
20
235.000000
0
VERTEX
5
450
100
AcDbEntity
8
1
100
AcDbVertex
100
AcDb2dVertex
62
5
10
158.794143
20
234.000000
0
VERTEX
5
451
100
AcDbEntity
8
1
100
AcDbVertex
100
AcDb2dVertex
62
5
10
152.794143
20
233.500000
0
VERTEX
5
452
100
AcDbEntity
8
1
100
AcDbVertex
100
AcDb2dVertex
62
5
10
152.794143
20
234.500000
0
VERTEX
5
453
100
AcDbEntity
8
1
100
AcDbVertex
100
AcDb2dVertex
62
5
10
158.794143
20
234.000000
0
SEQEND
5
454
100
AcDbEntity
8
1
0
POLYLINE
5
455
100
AcDbEntity
8
1
6
CONTINUOUS
62
5
100
AcDb2dPolyline
66
1
10
0.0
20
0.0
30
0.0
70
0
0
VERTEX
5
456
100
AcDbEntity
8
1
100
AcDbVertex
100
AcDb2dVertex
62
5
10
167.644141
20
327.437500
0
VERTEX
5
457
100
AcDbEntity
8
1
100
AcDbVertex
100
AcDb2dVertex
62
5
10
172.894141
20
327.437500
0
VERTEX
5
458
100
AcDbEntity
8
1
100
AcDbVertex
100
AcDb2dVertex
62
5
10
172.894141
20
327.125000
0
VERTEX
5
459
100
AcDbEntity
8
1
100
AcDbVertex
100
AcDb2dVertex
62
5
10
171.144141
20
325.250000
0
VERTEX
5
45a
100
AcDbEntity
8
1
100
AcDbVertex
100
AcDb2dVertex
62
5
10
170.394141
20
325.250000
0
SEQEND
5
45b
100
AcDbEntity
8
1
0
POLYLINE
5
45c
100
AcDbEntity
8
1
6
CONTINUOUS
62
5
100
AcDb2dPolyline
66
1
10
0.0
20
0.0
30
0.0
70
0
0
VERTEX
5
45d
100
AcDbEntity
8
1
100
AcDbVertex
100
AcDb2dVertex
62
5
10
170.394141
20
326.187500
0
VERTEX
5
45e
100
AcDbEntity
8
1
100
AcDbVertex
100
AcDb2dVertex
62
5
10
170.394141
20
324.625000
0
VERTEX
5
45f
100
AcDbEntity
8
1
100
AcDbVertex
100
AcDb2dVertex
62
5
10
169.644141
20
322.750000
0
VERTEX
5
460
100
AcDbEntity
8
1
100
AcDbVertex
100
AcDb2dVertex
62
5
10
168.644141
20
321.500000
0
SEQEND
5
461
100
AcDbEntity
8
1
0
LINE
5
462
100
AcDbEntity
8
1
100
AcDbLine
6
CONTINUOUS
62
5
10
12.644141
20
318.000000
11
332.644141
21
318.000000
0
ARC
5
463
100
AcDbEntity
8
1
100
AcDbCircle
6
CONTINUOUS
62
5
10
214.494143
20
177.750000
40
0.700000
100
AcDbArc
50
89.999999
51
-179.999998
0
LINE
5
464
100
AcDbEntity
8
1
100
AcDbLine
6
CONTINUOUS
62
5
10
213.794143
20
177.750000
11
213.794143
21
122.350000
0
ARC
5
465
100
AcDbEntity
8
1
100
AcDbCircle
6
CONTINUOUS
62
5
10
214.494143
20
122.350000
40
0.700000
100
AcDbArc
50
179.999998
51
-89.999955
0
LINE
5
466
100
AcDbEntity
8
1
100
AcDbLine
6
CONTINUOUS
62
5
10
146.794143
20
178.450000
11
146.794143
21
178.600000
0
LINE
5
467
100
AcDbEntity
8
1
100
AcDbLine
6
CONTINUOUS
62
5
10
146.294143
20
178.450000
11
146.294143
21
178.600000
0
ARC
5
468
100
AcDbEntity
8
1
100
AcDbCircle
6
CONTINUOUS
62
5
10
138.644168
20
172.800000
40
1.000000
100
AcDbArc
50
89.999999
51
126.869955
0
ARC
5
469
100
AcDbEntity
8
1
100
AcDbCircle
6
CONTINUOUS
62
5
10
138.644168
20
168.400000
40
1.000000
100
AcDbArc
50
-126.869955
51
-89.999999
0
LINE
5
46a
100
AcDbEntity
8
1
100
AcDbLine
6
CONTINUOUS
62
5
10
139.144168
20
173.800000
11
139.144168
21
167.400000
0
ARC
5
46b
100
AcDbEntity
8
1
100
AcDbCircle
6
CONTINUOUS
62
5
10
139.644168
20
172.800000
40
1.000000
100
AcDbArc
50
53.130161
51
89.999999
0
ARC
5
46c
100
AcDbEntity
8
1
100
AcDbCircle
6
CONTINUOUS
62
5
10
139.644168
20
168.400000
40
1.000000
100
AcDbArc
50
-89.999999
51
-53.130161
0
LINE
5
46d
100
AcDbEntity
8
1
100
AcDbLine
6
CONTINUOUS
62
5
10
138.044167
20
173.800000
11
140.244167
21
173.800000
0
LINE
5
46e
100
AcDbEntity
8
1
100
AcDbLine
6
CONTINUOUS
62
5
10
138.044167
20
167.400000
11
140.244167
21
167.400000
0
POLYLINE
5
46f
100
AcDbEntity
8
1
6
CONTINUOUS
62
5
100
AcDb2dPolyline
66
1
10
0.0
20
0.0
30
0.0
70
1
0
VERTEX
5
470
100
AcDbEntity
8
1
100
AcDbVertex
100
AcDb2dVertex
62
5
10
138.044167
20
167.100000
0
VERTEX
5
471
100
AcDbEntity
8
1
100
AcDbVertex
100
AcDb2dVertex
62
5
10
138.044167
20
174.100000
0
VERTEX
5
472
100
AcDbEntity
8
1
100
AcDbVertex
100
AcDb2dVertex
62
5
10
140.244167
20
174.100000
0
VERTEX
5
473
100
AcDbEntity
8
1
100
AcDbVertex
100
AcDb2dVertex
62
5
10
140.244167
20
167.100000
0
SEQEND
5
474
100
AcDbEntity
8
1
0
ARC
5
475
100
AcDbEntity
8
1
100
AcDbCircle
6
CONTINUOUS
62
5
10
135.094143
20
239.300000
40
75.000000
100
AcDbArc
50
-89.155220
51
-81.968006
0
ARC
5
476
100
AcDbEntity
8
1
100
AcDbCircle
6
CONTINUOUS
62
5
10
145.294143
20
167.016115
40
2.000000
100
AcDbArc
50
-81.968006
51
0.000000
0
LINE
5
477
100
AcDbEntity
8
1
100
AcDbLine
6
CONTINUOUS
62
5
10
147.294143
20
167.016115
11
147.294143
21
174.500000
0
ARC
5
478
100
AcDbEntity
8
1
100
AcDbCircle
6
CONTINUOUS
62
5
10
145.294143
20
174.500000
40
2.000000
100
AcDbArc
50
0.000000
51
89.999999
0
LINE
5
479
100
AcDbEntity
8
1
100
AcDbLine
6
CONTINUOUS
62
5
10
145.294143
20
176.500000
11
136.148396
21
176.500000
0
ARC
5
47a
100
AcDbEntity
8
1
100
AcDbCircle
6
CONTINUOUS
62
5
10
136.148396
20
174.500000
40
2.000000
100
AcDbArc
50
89.999999
51
176.937533
0
ARC
5
47b
100
AcDbEntity
8
1
100
AcDbCircle
6
CONTINUOUS
62
5
10
209.044143
20
170.600000
40
75.000000
100
AcDbArc
50
176.937533
51
-176.629325
0
ARC
5
47c
100
AcDbEntity
8
1
100
AcDbCircle
6
CONTINUOUS
62
5
10
136.170429
20
166.307935
40
2.000000
100
AcDbArc
50
-176.629325
51
-89.155220
0
LINE
5
47d
100
AcDbEntity
8
1
100
AcDbLine
6
CONTINUOUS
62
5
10
143.994143
20
137.050000
11
143.994143
21
139.350000
0
LINE
5
47e
100
AcDbEntity
8
1
100
AcDbLine
6
CONTINUOUS
62
5
10
144.144136
20
136.200009
11
143.994143
21
136.200009
0
ARC
5
47f
100
AcDbEntity
8
1
100
AcDbCircle
6
CONTINUOUS
62
5
10
131.644143
20
136.083964
40
0.350000
100
AcDbArc
50
89.999999
51
-89.999999
0
LINE
5
480
100
AcDbEntity
8
1
100
AcDbLine
6
CONTINUOUS
62
5
10
131.644143
20
135.733964
11
134.857784
21
135.733964
0
ARC
5
481
100
AcDbEntity
8
1
100
AcDbCircle
6
CONTINUOUS
62
5
10
134.857784
20
136.083964
40
0.350000
100
AcDbArc
50
-89.999999
51
89.999999
0
LINE
5
482
100
AcDbEntity
8
1
100
AcDbLine
6
CONTINUOUS
62
5
10
134.857784
20
136.433964
11
131.644143
21
136.433964
0
LINE
5
483
100
AcDbEntity
8
1
100
AcDbLine
6
CONTINUOUS
62
5
10
131.044167
20
156.000000
11
131.044167
21
160.756088
0
LINE
5
484
100
AcDbEntity
8
1
100
AcDbLine
6
CONTINUOUS
62
5
10
134.544167
20
156.000000
11
134.544167
21
160.756088
0
ARC
5
485
100
AcDbEntity
8
1
100
AcDbCircle
6
CONTINUOUS
62
5
10
132.794167
20
158.700000
40
2.700000
100
AcDbArc
50
0.000000
51
179.999998
0
POLYLINE
5
486
100
AcDbEntity
8
1
6
CONTINUOUS
62
5
100
AcDb2dPolyline
66
1
10
0.0
20
0.0
30
0.0
70
0
0
VERTEX
5
487
100
AcDbEntity
8
1
100
AcDbVertex
100
AcDb2dVertex
62
5
10
135.494167
20
158.700000
0
VERTEX
5
488
100
AcDbEntity
8
1
100
AcDbVertex
100
AcDb2dVertex
62
5
10
135.494167
20
156.000000
0
VERTEX
5
489
100
AcDbEntity
8
1
100
AcDbVertex
100
AcDb2dVertex
62
5
10
130.094167
20
156.000000
0
VERTEX
5
48a
100
AcDbEntity
8
1
100
AcDbVertex
100
AcDb2dVertex
62
5
10
130.094167
20
158.700000
0
SEQEND
5
48b
100
AcDbEntity
8
1
0
LINE
5
48c
100
AcDbEntity
8
1
100
AcDbLine
6
CONTINUOUS
62
5
10
125.694167
20
171.342771
11
125.344167
21
171.999021
0
LINE
5
48d
100
AcDbEntity
8
1
100
AcDbLine
6
CONTINUOUS
62
5
10
125.344167
20
169.200979
11
125.694167
21
169.857229
0
LINE
5
48e
100
AcDbEntity
8
1
100
AcDbLine
6
CONTINUOUS
62
5
10
125.106987
20
169.500000
11
125.694167
21
170.600000
0
LINE
5
48f
100
AcDbEntity
8
1
100
AcDbLine
6
CONTINUOUS
62
5
10
125.694167
20
170.600000
11
125.106987
21
171.700000
0
LINE
5
490
100
AcDbEntity
8
1
100
AcDbLine
6
CONTINUOUS
62
5
10
125.694167
20
166.350000
11
125.694167
21
174.850000
0
LINE
5
491
100
AcDbEntity
8
1
100
AcDbLine
6
CONTINUOUS
62
5
10
119.944167
20
171.436521
11
120.084689
21
171.700000
0
LINE
5
492
100
AcDbEntity
8
1
100
AcDbLine
6
CONTINUOUS
62
5
10
119.944167
20
169.763479
11
120.084689
21
169.500000
0
LINE
5
493
100
AcDbEntity
8
1
100
AcDbLine
6
CONTINUOUS
62
5
10
119.944167
20
170.506250
11
120.481347
21
169.500000
0
LINE
5
494
100
AcDbEntity
8
1
100
AcDbLine
6
CONTINUOUS
62
5
10
119.944167
20
170.693750
11
120.481347
21
171.700000
0
LINE
5
495
100
AcDbEntity
8
1
100
AcDbLine
6
CONTINUOUS
62
5
10
119.944167
20
170.600000
11
125.694167
21
170.600000
0
POLYLINE
5
496
100
AcDbEntity
8
1
6
CONTINUOUS
62
5
100
AcDb2dPolyline
66
1
10
0.0
20
0.0
30
0.0
70
1
0
VERTEX
5
497
100
AcDbEntity
8
1
100
AcDbVertex
100
AcDb2dVertex
62
5
10
121.594143
20
137.050000
0
VERTEX
5
498
100
AcDbEntity
8
1
100
AcDbVertex
100
AcDb2dVertex
62
5
10
121.594143
20
139.350000
0
SEQEND
5
499
100
AcDbEntity
8
1
0
LINE
5
49a
100
AcDbEntity
8
1
100
AcDbLine
6
CONTINUOUS
62
5
10
121.444150
20
136.200009
11
121.594143
21
136.200009
0
POLYLINE
5
49b
100
AcDbEntity
8
1
6
CONTINUOUS
62
5
100
AcDb2dPolyline
66
1
10
0.0
20
0.0
30
0.0
70
0
0
VERTEX
5
49c
100
AcDbEntity
8
1
100
AcDbVertex
100
AcDb2dVertex
62
5
10
116.144143
20
144.750000
0
VERTEX
5
49d
100
AcDbEntity
8
1
100
AcDbVertex
100
AcDb2dVertex
62
5
10
116.294143
20
144.900000
0
VERTEX
5
49e
100
AcDbEntity
8
1
100
AcDbVertex
100
AcDb2dVertex
62
5
10
116.144143
20
144.900000
0
SEQEND
5
49f
100
AcDbEntity
8
1
0
ARC
5
4a0
100
AcDbEntity
8
1
100
AcDbCircle
6
CONTINUOUS
62
5
10
126.894167
20
173.000000
40
1.000000
100
AcDbArc
50
49.458389
51
89.999999
0
ARC
5
4a1
100
AcDbEntity
8
1
100
AcDbCircle
6
CONTINUOUS
62
5
10
126.894167
20
168.200000
40
1.000000
100
AcDbArc
50
-89.999999
51
-49.458389
0
POLYLINE
5
4a2
100
AcDbEntity
8
1
6
CONTINUOUS
62
5
100
AcDb2dPolyline
66
1
10
0.0
20
0.0
30
0.0
70
0
0
VERTEX
5
4a3
100
AcDbEntity
8
1
100
AcDbVertex
100
AcDb2dVertex
62
5
10
127.544167
20
174.000000
0
VERTEX
5
4a4
100
AcDbEntity
8
1
100
AcDbVertex
100
AcDb2dVertex
62
5
10
126.394167
20
174.000000
0
VERTEX
5
4a5
100
AcDbEntity
8
1
100
AcDbVertex
100
AcDb2dVertex
62
5
10
126.394167
20
167.200000
0
VERTEX
5
4a6
100
AcDbEntity
8
1
100
AcDbVertex
100
AcDb2dVertex
62
5
10
127.544167
20
167.200000
0
SEQEND
5
4a7
100
AcDbEntity
8
1
0
POLYLINE
5
4a8
100
AcDbEntity
8
1
6
CONTINUOUS
62
5
100
AcDb2dPolyline
66
1
10
0.0
20
0.0
30
0.0
70
1
0
VERTEX
5
4a9
100
AcDbEntity
8
1
100
AcDbVertex
100
AcDb2dVertex
62
5
10
119.944167
20
171.700000
0
VERTEX
5
4aa
100
AcDbEntity
8
1
100
AcDbVertex
100
AcDb2dVertex
62
5
10
125.344167
20
171.700000
0
VERTEX
5
4ab
100
AcDbEntity
8
1
100
AcDbVertex
100
AcDb2dVertex
62
5
10
125.344167
20
174.850000
0
VERTEX
5
4ac
100
AcDbEntity
8
1
100
AcDbVertex
100
AcDb2dVertex
62
5
10
127.544167
20
174.850000
0
VERTEX
5
4ad
100
AcDbEntity
8
1
100
AcDbVertex
100
AcDb2dVertex
62
5
10
127.544167
20
166.350000
0
VERTEX
5
4ae
100
AcDbEntity
8
1
100
AcDbVertex
100
AcDb2dVertex
62
5
10
125.344167
20
166.350000
0
VERTEX
5
4af
100
AcDbEntity
8
1
100
AcDbVertex
100
AcDb2dVertex
62
5
10
125.344167
20
169.500000
0
VERTEX
5
4b0
100
AcDbEntity
8
1
100
AcDbVertex
100
AcDb2dVertex
62
5
10
119.944167
20
169.500000
0
SEQEND
5
4b1
100
AcDbEntity
8
1
0
ARC
5
4b2
100
AcDbEntity
8
1
100
AcDbCircle
6
CONTINUOUS
62
5
10
120.294143
20
167.016115
40
2.000000
100
AcDbArc
50
179.999998
51
-98.031992
0
LINE
5
4b3
100
AcDbEntity
8
1
100
AcDbLine
6
CONTINUOUS
62
5
10
118.294143
20
167.016115
11
118.294143
21
174.500000
0
ARC
5
4b4
100
AcDbEntity
8
1
100
AcDbCircle
6
CONTINUOUS
62
5
10
120.294143
20
174.500000
40
2.000000
100
AcDbArc
50
89.999999
51
179.999998
0
LINE
5
4b5
100
AcDbEntity
8
1
100
AcDbLine
6
CONTINUOUS
62
5
10
120.294143
20
176.500000
11
129.439891
21
176.500000
0
ARC
5
4b6
100
AcDbEntity
8
1
100
AcDbCircle
6
CONTINUOUS
62
5
10
129.439891
20
174.500000
40
2.000000
100
AcDbArc
50
3.062465
51
89.999999
0
ARC
5
4b7
100
AcDbEntity
8
1
100
AcDbCircle
6
CONTINUOUS
62
5
10
56.544143
20
170.600000
40
75.000000
100
AcDbArc
50
-3.370673
51
3.062465
0
ARC
5
4b8
100
AcDbEntity
8
1
100
AcDbCircle
6
CONTINUOUS
62
5
10
129.417857
20
166.307935
40
2.000000
100
AcDbArc
50
-90.844778
51
-3.370673
0
ARC
5
4b9
100
AcDbEntity
8
1
100
AcDbCircle
6
CONTINUOUS
62
5
10
130.494143
20
239.300000
40
75.000000
100
AcDbArc
50
-98.031992
51
-90.844778
0
LINE
5
4ba
100
AcDbEntity
8
1
100
AcDbLine
6
CONTINUOUS
62
5
10
121.594143
20
140.090983
11
143.994143
21
140.090983
0
ARC
5
4bb
100
AcDbEntity
8
1
100
AcDbCircle
6
CONTINUOUS
62
5
10
145.294143
20
156.400000
40
2.000000
100
AcDbArc
50
-89.999999
51
0.000000
0
LINE
5
4bc
100
AcDbEntity
8
1
100
AcDbLine
6
CONTINUOUS
62
5
10
145.294143
20
154.400000
11
120.294143
21
154.400000
0
ARC
5
4bd
100
AcDbEntity
8
1
100
AcDbCircle
6
CONTINUOUS
62
5
10
120.294143
20
156.400000
40
2.000000
100
AcDbArc
50
179.999998
51
-89.999999
0
LINE
5
4be
100
AcDbEntity
8
1
100
AcDbLine
6
CONTINUOUS
62
5
10
118.294143
20
156.400000
11
118.294143
21
161.000000
0
ARC
5
4bf
100
AcDbEntity
8
1
100
AcDbCircle
6
CONTINUOUS
62
5
10
120.294143
20
161.000000
40
2.000000
100
AcDbArc
50
89.999999
51
179.999998
0
LINE
5
4c0
100
AcDbEntity
8
1
100
AcDbLine
6
CONTINUOUS
62
5
10
120.294143
20
163.000000
11
145.294143
21
163.000000
0
ARC
5
4c1
100
AcDbEntity
8
1
100
AcDbCircle
6
CONTINUOUS
62
5
10
145.294143
20
161.000000
40
2.000000
100
AcDbArc
50
0.000000
51
89.999999
0
LINE
5
4c2
100
AcDbEntity
8
1
100
AcDbLine
6
CONTINUOUS
62
5
10
147.294143
20
161.000000
11
147.294143
21
156.400000
0
LINE
5
4c3
100
AcDbEntity
8
1
100
AcDbLine
6
CONTINUOUS
62
5
10
144.144150
20
128.700009
11
143.994143
21
128.700009
0
LINE
5
4c4
100
AcDbEntity
8
1
100
AcDbLine
6
CONTINUOUS
62
5
10
144.144136
20
126.700009
11
143.994143
21
126.700009
0
LINE
5
4c5
100
AcDbEntity
8
1
100
AcDbLine
6
CONTINUOUS
62
5
10
140.494150
20
126.250009
11
140.644141
21
126.400000
0
POLYLINE
5
4c6
100
AcDbEntity
8
1
6
CONTINUOUS
62
5
100
AcDb2dPolyline
66
1
10
0.0
20
0.0
30
0.0
70
0
0
VERTEX
5
4c7
100
AcDbEntity
8
1
100
AcDbVertex
100
AcDb2dVertex
62
5
10
137.244143
20
121.500000
0
VERTEX
5
4c8
100
AcDbEntity
8
1
100
AcDbVertex
100
AcDb2dVertex
62
5
10
137.094143
20
121.650000
0
VERTEX
5
4c9
100
AcDbEntity
8
1
100
AcDbVertex
100
AcDb2dVertex
62
5
10
137.094143
20
121.500000
0
SEQEND
5
4ca
100
AcDbEntity
8
1
0
POLYLINE
5
4cb
100
AcDbEntity
8
1
6
CONTINUOUS
62
5
100
AcDb2dPolyline
66
1
10
0.0
20
0.0
30
0.0
70
0
0
VERTEX
5
4cc
100
AcDbEntity
8
1
100
AcDbVertex
100
AcDb2dVertex
62
5
10
133.149257
20
129.405378
0
VERTEX
5
4cd
100
AcDbEntity
8
1
100
AcDbVertex
100
AcDb2dVertex
62
5
10
133.149257
20
128.486628
0
VERTEX
5
4ce
100
AcDbEntity
8
1
100
AcDbVertex
100
AcDb2dVertex
62
5
10
133.083632
20
128.158503
0
VERTEX
5
4cf
100
AcDbEntity
8
1
100
AcDbVertex
100
AcDb2dVertex
62
5
10
132.886757
20
127.896003
0
SEQEND
5
4d0
100
AcDbEntity
8
1
0
LINE
5
4d1
100
AcDbEntity
8
1
100
AcDbLine
6
CONTINUOUS
62
5
10
132.689882
20
128.880378
11
133.477382
21
128.946003
0
POLYLINE
5
4d2
100
AcDbEntity
8
1
6
CONTINUOUS
62
5
100
AcDb2dPolyline
66
1
10
0.0
20
0.0
30
0.0
70
0
0
VERTEX
5
4d3
100
AcDbEntity
8
1
100
AcDbVertex
100
AcDb2dVertex
62
5
10
132.230507
20
129.339753
0
VERTEX
5
4d4
100
AcDbEntity
8
1
100
AcDbVertex
100
AcDb2dVertex
62
5
10
132.230507
20
129.208503
0
VERTEX
5
4d5
100
AcDbEntity
8
1
100
AcDbVertex
100
AcDb2dVertex
62
5
10
132.164882
20
128.946003
0
VERTEX
5
4d6
100
AcDbEntity
8
1
100
AcDbVertex
100
AcDb2dVertex
62
5
10
132.164882
20
128.421003
0
VERTEX
5
4d7
100
AcDbEntity
8
1
100
AcDbVertex
100
AcDb2dVertex
62
5
10
132.296132
20
128.027253
0
SEQEND
5
4d8
100
AcDbEntity
8
1
0
POLYLINE
5
4d9
100
AcDbEntity
8
1
6
CONTINUOUS
62
5
100
AcDb2dPolyline
66
1
10
0.0
20
0.0
30
0.0
70
0
0
VERTEX
5
4da
100
AcDbEntity
8
1
100
AcDbVertex
100
AcDb2dVertex
62
5
10
130.433632
20
128.880378
0
VERTEX
5
4db
100
AcDbEntity
8
1
100
AcDbVertex
100
AcDb2dVertex
62
5
10
130.368007
20
128.683503
0
VERTEX
5
4dc
100
AcDbEntity
8
1
100
AcDbVertex
100
AcDb2dVertex
62
5
10
130.236757
20
128.486628
0
VERTEX
5
4dd
100
AcDbEntity
8
1
100
AcDbVertex
100
AcDb2dVertex
62
5
10
130.105507
20
128.289753
0
VERTEX
5
4de
100
AcDbEntity
8
1
100
AcDbVertex
100
AcDb2dVertex
62
5
10
129.711757
20
128.027253
0
VERTEX
5
4df
100
AcDbEntity
8
1
100
AcDbVertex
100
AcDb2dVertex
62
5
10
129.646132
20
128.027253
0
VERTEX
5
4e0
100
AcDbEntity
8
1
100
AcDbVertex
100
AcDb2dVertex
62
5
10
129.580507
20
128.158503
0
VERTEX
5
4e1
100
AcDbEntity
8
1
100
AcDbVertex
100
AcDb2dVertex
62
5
10
129.580507
20
128.355378
0
VERTEX
5
4e2
100
AcDbEntity
8
1
100
AcDbVertex
100
AcDb2dVertex
62
5
10
129.646132
20
128.486628
0
VERTEX
5
4e3
100
AcDbEntity
8
1
100
AcDbVertex
100
AcDb2dVertex
62
5
10
129.777382
20
128.617878
0
VERTEX
5
4e4
100
AcDbEntity
8
1
100
AcDbVertex
100
AcDb2dVertex
62
5
10
129.974257
20
128.749128
0
VERTEX
5
4e5
100
AcDbEntity
8
1
100
AcDbVertex
100
AcDb2dVertex
62
5
10
130.236757
20
128.814753
0
VERTEX
5
4e6
100
AcDbEntity
8
1
100
AcDbVertex
100
AcDb2dVertex
62
5
10
130.499257
20
128.814753
0
VERTEX
5
4e7
100
AcDbEntity
8
1
100
AcDbVertex
100
AcDb2dVertex
62
5
10
130.761757
20
128.617878
0
VERTEX
5
4e8
100
AcDbEntity
8
1
100
AcDbVertex
100
AcDb2dVertex
62
5
10
130.827382
20
128.486628
0
VERTEX
5
4e9
100
AcDbEntity
8
1
100
AcDbVertex
100
AcDb2dVertex
62
5
10
130.827382
20
128.289753
0
VERTEX
5
4ea
100
AcDbEntity
8
1
100
AcDbVertex
100
AcDb2dVertex
62
5
10
130.630507
20
128.027253
0
VERTEX
5
4eb
100
AcDbEntity
8
1
100
AcDbVertex
100
AcDb2dVertex
62
5
10
130.368007
20
127.961628
0
SEQEND
5
4ec
100
AcDbEntity
8
1
0
POLYLINE
5
4ed
100
AcDbEntity
8
1
6
CONTINUOUS
62
5
100
AcDb2dPolyline
66
1
10
0.0
20
0.0
30
0.0
70
0
0
VERTEX
5
4ee
100
AcDbEntity
8
1
100
AcDbVertex
100
AcDb2dVertex
62
5
10
130.039882
20
129.339753
0
VERTEX
5
4ef
100
AcDbEntity
8
1
100
AcDbVertex
100
AcDb2dVertex
62
5
10
129.974257
20
128.749128
0
VERTEX
5
4f0
100
AcDbEntity
8
1
100
AcDbVertex
100
AcDb2dVertex
62
5
10
129.974257
20
128.289753
0
VERTEX
5
4f1
100
AcDbEntity
8
1
100
AcDbVertex
100
AcDb2dVertex
62
5
10
130.039882
20
128.027253
0
SEQEND
5
4f2
100
AcDbEntity
8
1
0
LINE
5
4f3
100
AcDbEntity
8
1
100
AcDbLine
6
CONTINUOUS
62
5
10
129.580507
20
129.011628
11
130.499257
21
129.077253
0
POLYLINE
5
4f4
100
AcDbEntity
8
1
6
CONTINUOUS
62
5
100
AcDb2dPolyline
66
1
10
0.0
20
0.0
30
0.0
70
0
0
VERTEX
5
4f5
100
AcDbEntity
8
1
100
AcDbVertex
100
AcDb2dVertex
62
5
10
134.994143
20
129.274128
0
VERTEX
5
4f6
100
AcDbEntity
8
1
100
AcDbVertex
100
AcDb2dVertex
62
5
10
135.650393
20
129.339753
0
VERTEX
5
4f7
100
AcDbEntity
8
1
100
AcDbVertex
100
AcDb2dVertex
62
5
10
134.928518
20
128.617878
0
VERTEX
5
4f8
100
AcDbEntity
8
1
100
AcDbVertex
100
AcDb2dVertex
62
5
10
135.256643
20
128.814753
0
VERTEX
5
4f9
100
AcDbEntity
8
1
100
AcDbVertex
100
AcDb2dVertex
62
5
10
135.453518
20
128.880378
0
VERTEX
5
4fa
100
AcDbEntity
8
1
100
AcDbVertex
100
AcDb2dVertex
62
5
10
135.650393
20
128.880378
0
VERTEX
5
4fb
100
AcDbEntity
8
1
100
AcDbVertex
100
AcDb2dVertex
62
5
10
135.847268
20
128.814753
0
VERTEX
5
4fc
100
AcDbEntity
8
1
100
AcDbVertex
100
AcDb2dVertex
62
5
10
135.978518
20
128.683503
0
VERTEX
5
4fd
100
AcDbEntity
8
1
100
AcDbVertex
100
AcDb2dVertex
62
5
10
136.044143
20
128.552253
0
VERTEX
5
4fe
100
AcDbEntity
8
1
100
AcDbVertex
100
AcDb2dVertex
62
5
10
136.044143
20
128.421003
0
VERTEX
5
4ff
100
AcDbEntity
8
1
100
AcDbVertex
100
AcDb2dVertex
62
5
10
135.978518
20
128.224128
0
VERTEX
5
500
100
AcDbEntity
8
1
100
AcDbVertex
100
AcDb2dVertex
62
5
10
135.847268
20
128.092878
0
VERTEX
5
501
100
AcDbEntity
8
1
100
AcDbVertex
100
AcDb2dVertex
62
5
10
135.650393
20
128.027253
0
VERTEX
5
502
100
AcDbEntity
8
1
100
AcDbVertex
100
AcDb2dVertex
62
5
10
135.322268
20
128.027253
0
VERTEX
5
503
100
AcDbEntity
8
1
100
AcDbVertex
100
AcDb2dVertex
62
5
10
135.191018
20
128.092878
0
VERTEX
5
504
100
AcDbEntity
8
1
100
AcDbVertex
100
AcDb2dVertex
62
5
10
135.125393
20
128.224128
0
VERTEX
5
505
100
AcDbEntity
8
1
100
AcDbVertex
100
AcDb2dVertex
62
5
10
135.125393
20
128.289753
0
VERTEX
5
506
100
AcDbEntity
8
1
100
AcDbVertex
100
AcDb2dVertex
62
5
10
135.191018
20
128.355378
0
VERTEX
5
507
100
AcDbEntity
8
1
100
AcDbVertex
100
AcDb2dVertex
62
5
10
135.322268
20
128.421003
0
VERTEX
5
508
100
AcDbEntity
8
1
100
AcDbVertex
100
AcDb2dVertex
62
5
10
135.453518
20
128.421003
0
VERTEX
5
509
100
AcDbEntity
8
1
100
AcDbVertex
100
AcDb2dVertex
62
5
10
135.584768
20
128.355378
0
VERTEX
5
50a
100
AcDbEntity
8
1
100
AcDbVertex
100
AcDb2dVertex
62
5
10
135.650393
20
128.289753
0
VERTEX
5
50b
100
AcDbEntity
8
1
100
AcDbVertex
100
AcDb2dVertex
62
5
10
135.716018
20
128.158503
0
VERTEX
5
50c
100
AcDbEntity
8
1
100
AcDbVertex
100
AcDb2dVertex
62
5
10
135.716018
20
128.092878
0
SEQEND
5
50d
100
AcDbEntity
8
1
0
POLYLINE
5
50e
100
AcDbEntity
8
1
6
CONTINUOUS
62
5
100
AcDb2dPolyline
66
1
10
0.0
20
0.0
30
0.0
70
1
0
VERTEX
5
50f
100
AcDbEntity
8
1
100
AcDbVertex
100
AcDb2dVertex
62
5
10
132.794143
20
132.900000
0
VERTEX
5
510
100
AcDbEntity
8
1
100
AcDbVertex
100
AcDb2dVertex
62
5
10
131.294143
20
131.400000
0
VERTEX
5
511
100
AcDbEntity
8
1
100
AcDbVertex
100
AcDb2dVertex
62
5
10
131.794143
20
131.400000
0
VERTEX
5
512
100
AcDbEntity
8
1
100
AcDbVertex
100
AcDb2dVertex
62
5
10
131.794143
20
130.400000
0
VERTEX
5
513
100
AcDbEntity
8
1
100
AcDbVertex
100
AcDb2dVertex
62
5
10
133.794143
20
130.400000
0
VERTEX
5
514
100
AcDbEntity
8
1
100
AcDbVertex
100
AcDb2dVertex
62
5
10
133.794143
20
131.400000
0
VERTEX
5
515
100
AcDbEntity
8
1
100
AcDbVertex
100
AcDb2dVertex
62
5
10
134.294143
20
131.400000
0
SEQEND
5
516
100
AcDbEntity
8
1
0
POLYLINE
5
517
100
AcDbEntity
8
1
6
CONTINUOUS
62
5
100
AcDb2dPolyline
66
1
10
0.0
20
0.0
30
0.0
70
0
0
VERTEX
5
518
100
AcDbEntity
8
1
100
AcDbVertex
100
AcDb2dVertex
62
5
10
138.794143
20
126.400000
0
VERTEX
5
519
100
AcDbEntity
8
1
100
AcDbVertex
100
AcDb2dVertex
62
5
10
138.794143
20
125.900000
0
VERTEX
5
51a
100
AcDbEntity
8
1
100
AcDbVertex
100
AcDb2dVertex
62
5
10
139.344143
20
122.650000
0
SEQEND
5
51b
100
AcDbEntity
8
1
0
POLYLINE
5
51c
100
AcDbEntity
8
1
6
CONTINUOUS
62
5
100
AcDb2dPolyline
66
1
10
0.0
20
0.0
30
0.0
70
0
0
VERTEX
5
51d
100
AcDbEntity
8
1
100
AcDbVertex
100
AcDb2dVertex
62
5
10
128.494143
20
121.500000
0
VERTEX
5
51e
100
AcDbEntity
8
1
100
AcDbVertex
100
AcDb2dVertex
62
5
10
128.494143
20
121.650000
0
VERTEX
5
51f
100
AcDbEntity
8
1
100
AcDbVertex
100
AcDb2dVertex
62
5
10
128.344143
20
121.500000
0
SEQEND
5
520
100
AcDbEntity
8
1
0
ARC
5
521
100
AcDbEntity
8
1
100
AcDbCircle
6
CONTINUOUS
62
5
10
125.244143
20
128.850000
40
0.150000
100
AcDbArc
50
89.999999
51
-89.999999
0
LINE
5
522
100
AcDbEntity
8
1
100
AcDbLine
6
CONTINUOUS
62
5
10
125.244143
20
129.000000
11
125.944143
21
129.000000
0
ARC
5
523
100
AcDbEntity
8
1
100
AcDbCircle
6
CONTINUOUS
62
5
10
125.944143
20
128.850000
40
0.150000
100
AcDbArc
50
-89.999999
51
89.999999
0
LINE
5
524
100
AcDbEntity
8
1
100
AcDbLine
6
CONTINUOUS
62
5
10
125.944143
20
128.700000
11
125.244143
21
128.700000
0
ARC
5
525
100
AcDbEntity
8
1
100
AcDbCircle
6
CONTINUOUS
62
5
10
124.744143
20
129.550000
40
0.150000
100
AcDbArc
50
89.999999
51
-89.999999
0
LINE
5
526
100
AcDbEntity
8
1
100
AcDbLine
6
CONTINUOUS
62
5
10
124.744143
20
129.400000
11
126.444143
21
129.400000
0
ARC
5
527
100
AcDbEntity
8
1
100
AcDbCircle
6
CONTINUOUS
62
5
10
126.444143
20
129.550000
40
0.150000
100
AcDbArc
50
-89.999999
51
89.999999
0
LINE
5
528
100
AcDbEntity
8
1
100
AcDbLine
6
CONTINUOUS
62
5
10
126.444143
20
129.700000
11
124.744143
21
129.700000
0
LINE
5
529
100
AcDbEntity
8
1
100
AcDbLine
6
CONTINUOUS
62
5
10
125.094150
20
126.250009
11
124.944159
21
126.400000
0
POLYLINE
5
52a
100
AcDbEntity
8
1
6
CONTINUOUS
62
5
100
AcDb2dPolyline
66
1
10
0.0
20
0.0
30
0.0
70
0
0
VERTEX
5
52b
100
AcDbEntity
8
1
100
AcDbVertex
100
AcDb2dVertex
62
5
10
126.794143
20
126.400000
0
VERTEX
5
52c
100
AcDbEntity
8
1
100
AcDbVertex
100
AcDb2dVertex
62
5
10
126.794143
20
125.900000
0
VERTEX
5
52d
100
AcDbEntity
8
1
100
AcDbVertex
100
AcDb2dVertex
62
5
10
126.244143
20
122.650000
0
SEQEND
5
52e
100
AcDbEntity
8
1
0
POLYLINE
5
52f
100
AcDbEntity
8
1
6
CONTINUOUS
62
5
100
AcDb2dPolyline
66
1
10
0.0
20
0.0
30
0.0
70
0
0
VERTEX
5
530
100
AcDbEntity
8
1
100
AcDbVertex
100
AcDb2dVertex
62
5
10
121.444150
20
128.700009
0
VERTEX
5
531
100
AcDbEntity
8
1
100
AcDbVertex
100
AcDb2dVertex
62
5
10
121.444150
20
128.700009
0
VERTEX
5
532
100
AcDbEntity
8
1
100
AcDbVertex
100
AcDb2dVertex
62
5
10
121.594143
20
128.700009
0
SEQEND
5
533
100
AcDbEntity
8
1
0
LINE
5
534
100
AcDbEntity
8
1
100
AcDbLine
6
CONTINUOUS
62
5
10
121.444150
20
126.700009
11
121.594143
21
126.700009
0
ARC
5
535
100
AcDbEntity
8
1
100
AcDbCircle
6
CONTINUOUS
62
5
10
123.994143
20
130.400000
40
0.150000
100
AcDbArc
50
89.999999
51
-89.999999
0
LINE
5
536
100
AcDbEntity
8
1
100
AcDbLine
6
CONTINUOUS
62
5
10
123.994143
20
130.250000
11
127.194143
21
130.250000
0
ARC
5
537
100
AcDbEntity
8
1
100
AcDbCircle
6
CONTINUOUS
62
5
10
127.194143
20
130.400000
40
0.150000
100
AcDbArc
50
-89.999999
51
89.999999
0
POLYLINE
5
538
100
AcDbEntity
8
1
6
CONTINUOUS
62
5
100
AcDb2dPolyline
66
1
10
0.0
20
0.0
30
0.0
70
0
0
VERTEX
5
539
100
AcDbEntity
8
1
100
AcDbVertex
100
AcDb2dVertex
62
5
10
127.194143
20
130.550000
0
VERTEX
5
53a
100
AcDbEntity
8
1
100
AcDbVertex
100
AcDb2dVertex
62
5
10
125.744143
20
130.550000
0
VERTEX
5
53b
100
AcDbEntity
8
1
100
AcDbVertex
100
AcDb2dVertex
62
5
10
125.744143
20
131.900000
0
SEQEND
5
53c
100
AcDbEntity
8
1
0
ARC
5
53d
100
AcDbEntity
8
1
100
AcDbCircle
6
CONTINUOUS
62
5
10
125.594143
20
131.900000
40
0.150000
100
AcDbArc
50
0.000000
51
179.999998
0
POLYLINE
5
53e
100
AcDbEntity
8
1
6
CONTINUOUS
62
5
100
AcDb2dPolyline
66
1
10
0.0
20
0.0
30
0.0
70
0
0
VERTEX
5
53f
100
AcDbEntity
8
1
100
AcDbVertex
100
AcDb2dVertex
62
5
10
125.444143
20
131.900000
0
VERTEX
5
540
100
AcDbEntity
8
1
100
AcDbVertex
100
AcDb2dVertex
62
5
10
125.444143
20
130.550000
0
VERTEX
5
541
100
AcDbEntity
8
1
100
AcDbVertex
100
AcDb2dVertex
62
5
10
123.994143
20
130.550000
0
SEQEND
5
542
100
AcDbEntity
8
1
0
CIRCLE
5
543
100
AcDbEntity
8
1
100
AcDbCircle
6
CONTINUOUS
62
5
10
125.594143
20
130.400000
40
2.100000
0
LINE
5
544
100
AcDbEntity
8
1
100
AcDbLine
6
CONTINUOUS
62
5
10
126.794143
20
125.900000
11
138.794143
21
125.900000
0
CIRCLE
5
545
100
AcDbEntity
8
1
100
AcDbCircle
6
CONTINUOUS
62
5
10
125.594143
20
130.400000
40
2.400000
0
LINE
5
546
100
AcDbEntity
8
1
100
AcDbLine
6
CONTINUOUS
62
5
10
126.244147
20
122.649999
11
139.344143
21
122.650000
0
ARC
5
547
100
AcDbEntity
8
1
100
AcDbCircle
6
CONTINUOUS
62
5
10
127.144143
20
137.550000
40
0.350000
100
AcDbArc
50
89.999999
51
-89.999999
0
LINE
5
548
100
AcDbEntity
8
1
100
AcDbLine
6
CONTINUOUS
62
5
10
127.144143
20
137.900000
11
131.190774
21
137.900000
0
ARC
5
549
100
AcDbEntity
8
1
100
AcDbCircle
6
CONTINUOUS
62
5
10
131.190774
20
137.550000
40
0.350000
100
AcDbArc
50
0.000000
51
89.999999
0
LINE
5
54a
100
AcDbEntity
8
1
100
AcDbLine
6
CONTINUOUS
62
5
10
131.540774
20
137.550000
11
131.540774
21
137.359513
0
ARC
5
54b
100
AcDbEntity
8
1
100
AcDbCircle
6
CONTINUOUS
62
5
10
131.190774
20
137.359513
40
0.350000
100
AcDbArc
50
-49.002404
51
0.000000
0
LINE
5
54c
100
AcDbEntity
8
1
100
AcDbLine
6
CONTINUOUS
62
5
10
131.420384
20
137.095355
11
129.953381
21
135.820217
0
ARC
5
54d
100
AcDbEntity
8
1
100
AcDbCircle
6
CONTINUOUS
62
5
10
129.723771
20
136.084375
40
0.350000
100
AcDbArc
50
-89.999999
51
-49.002404
0
POLYLINE
5
54e
100
AcDbEntity
8
1
6
CONTINUOUS
62
5
100
AcDb2dPolyline
66
1
10
0.0
20
0.0
30
0.0
70
0
0
VERTEX
5
54f
100
AcDbEntity
8
1
100
AcDbVertex
100
AcDb2dVertex
62
5
10
129.723771
20
135.734375
0
VERTEX
5
550
100
AcDbEntity
8
1
100
AcDbVertex
100
AcDb2dVertex
62
5
10
129.447024
20
135.734375
0
VERTEX
5
551
100
AcDbEntity
8
1
100
AcDbVertex
100
AcDb2dVertex
62
5
10
129.447024
20
135.583001
0
VERTEX
5
552
100
AcDbEntity
8
1
100
AcDbVertex
100
AcDb2dVertex
62
5
10
128.756548
20
134.202049
0
VERTEX
5
553
100
AcDbEntity
8
1
100
AcDbVertex
100
AcDb2dVertex
62
5
10
128.553527
20
133.999027
0
SEQEND
5
554
100
AcDbEntity
8
1
0
ARC
5
555
100
AcDbEntity
8
1
100
AcDbCircle
6
CONTINUOUS
62
5
10
128.306039
20
134.246515
40
0.350000
100
AcDbArc
50
134.999999
51
-45.000000
0
POLYLINE
5
556
100
AcDbEntity
8
1
6
CONTINUOUS
62
5
100
AcDb2dPolyline
66
1
10
0.0
20
0.0
30
0.0
70
0
0
VERTEX
5
557
100
AcDbEntity
8
1
100
AcDbVertex
100
AcDb2dVertex
62
5
10
128.058552
20
134.494002
0
VERTEX
5
558
100
AcDbEntity
8
1
100
AcDbVertex
100
AcDb2dVertex
62
5
10
128.181250
20
134.616701
0
VERTEX
5
559
100
AcDbEntity
8
1
100
AcDbVertex
100
AcDb2dVertex
62
5
10
128.747024
20
135.706959
0
VERTEX
5
55a
100
AcDbEntity
8
1
100
AcDbVertex
100
AcDb2dVertex
62
5
10
128.747024
20
136.362500
0
SEQEND
5
55b
100
AcDbEntity
8
1
0
ARC
5
55c
100
AcDbEntity
8
1
100
AcDbCircle
6
CONTINUOUS
62
5
10
129.097024
20
136.362500
40
0.350000
100
AcDbArc
50
0.000000
51
179.999998
0
POLYLINE
5
55d
100
AcDbEntity
8
1
6
CONTINUOUS
62
5
100
AcDb2dPolyline
66
1
10
0.0
20
0.0
30
0.0
70
0
0
VERTEX
5
55e
100
AcDbEntity
8
1
100
AcDbVertex
100
AcDb2dVertex
62
5
10
129.447024
20
136.362500
0
VERTEX
5
55f
100
AcDbEntity
8
1
100
AcDbVertex
100
AcDb2dVertex
62
5
10
129.447024
20
136.434375
0
VERTEX
5
560
100
AcDbEntity
8
1
100
AcDbVertex
100
AcDb2dVertex
62
5
10
129.595676
20
136.434375
0
VERTEX
5
561
100
AcDbEntity
8
1
100
AcDbVertex
100
AcDb2dVertex
62
5
10
130.488905
20
137.200000
0
VERTEX
5
562
100
AcDbEntity
8
1
100
AcDbVertex
100
AcDb2dVertex
62
5
10
127.144143
20
137.200000
0
SEQEND
5
563
100
AcDbEntity
8
1
0
ARC
5
564
100
AcDbEntity
8
1
100
AcDbCircle
6
CONTINUOUS
62
5
10
135.467417
20
137.550000
40
0.350000
100
AcDbArc
50
89.999999
51
-89.999999
0
LINE
5
565
100
AcDbEntity
8
1
100
AcDbLine
6
CONTINUOUS
62
5
10
135.467417
20
137.900000
11
137.839292
21
137.900000
0
ARC
5
566
100
AcDbEntity
8
1
100
AcDbCircle
6
CONTINUOUS
62
5
10
137.839292
20
137.550000
40
0.350000
100
AcDbArc
50
-0.000000
51
89.999999
0
POLYLINE
5
567
100
AcDbEntity
8
1
6
CONTINUOUS
62
5
100
AcDb2dPolyline
66
1
10
0.0
20
0.0
30
0.0
70
0
0
VERTEX
5
568
100
AcDbEntity
8
1
100
AcDbVertex
100
AcDb2dVertex
62
5
10
138.189292
20
137.550000
0
VERTEX
5
569
100
AcDbEntity
8
1
100
AcDbVertex
100
AcDb2dVertex
62
5
10
138.189292
20
137.258001
0
VERTEX
5
56a
100
AcDbEntity
8
1
100
AcDbVertex
100
AcDb2dVertex
62
5
10
137.723846
20
136.327110
0
VERTEX
5
56b
100
AcDbEntity
8
1
100
AcDbVertex
100
AcDb2dVertex
62
5
10
137.442855
20
135.905623
0
VERTEX
5
56c
100
AcDbEntity
8
1
100
AcDbVertex
100
AcDb2dVertex
62
5
10
138.705858
20
134.484745
0
SEQEND
5
56d
100
AcDbEntity
8
1
0
ARC
5
56e
100
AcDbEntity
8
1
100
AcDbCircle
6
CONTINUOUS
62
5
10
138.444264
20
134.252218
40
0.350000
100
AcDbArc
50
-138.366459
51
41.633539
0
POLYLINE
5
56f
100
AcDbEntity
8
1
6
CONTINUOUS
62
5
100
AcDb2dPolyline
66
1
10
0.0
20
0.0
30
0.0
70
0
0
VERTEX
5
570
100
AcDbEntity
8
1
100
AcDbVertex
100
AcDb2dVertex
62
5
10
138.182671
20
134.019691
0
VERTEX
5
571
100
AcDbEntity
8
1
100
AcDbVertex
100
AcDb2dVertex
62
5
10
136.992059
20
135.359129
0
VERTEX
5
572
100
AcDbEntity
8
1
100
AcDbVertex
100
AcDb2dVertex
62
5
10
136.391296
20
134.769530
0
VERTEX
5
573
100
AcDbEntity
8
1
100
AcDbVertex
100
AcDb2dVertex
62
5
10
135.390340
20
134.054561
0
SEQEND
5
574
100
AcDbEntity
8
1
0
ARC
5
575
100
AcDbEntity
8
1
100
AcDbCircle
6
CONTINUOUS
62
5
10
135.186907
20
134.339368
40
0.350000
100
AcDbArc
50
125.537677
51
-54.462322
0
POLYLINE
5
576
100
AcDbEntity
8
1
6
CONTINUOUS
62
5
100
AcDb2dPolyline
66
1
10
0.0
20
0.0
30
0.0
70
0
0
VERTEX
5
577
100
AcDbEntity
8
1
100
AcDbVertex
100
AcDb2dVertex
62
5
10
134.983473
20
134.624174
0
VERTEX
5
578
100
AcDbEntity
8
1
100
AcDbVertex
100
AcDb2dVertex
62
5
10
135.937287
20
135.305470
0
VERTEX
5
579
100
AcDbEntity
8
1
100
AcDbVertex
100
AcDb2dVertex
62
5
10
136.729798
20
136.097981
0
VERTEX
5
57a
100
AcDbEntity
8
1
100
AcDbVertex
100
AcDb2dVertex
62
5
10
137.117237
20
136.679139
0
VERTEX
5
57b
100
AcDbEntity
8
1
100
AcDbVertex
100
AcDb2dVertex
62
5
10
137.489292
20
137.200000
0
VERTEX
5
57c
100
AcDbEntity
8
1
100
AcDbVertex
100
AcDb2dVertex
62
5
10
135.467417
20
137.200000
0
SEQEND
5
57d
100
AcDbEntity
8
1
0
POLYLINE
5
57e
100
AcDbEntity
8
1
6
CONTINUOUS
62
5
100
AcDb2dPolyline
66
1
10
0.0
20
0.0
30
0.0
70
1
0
VERTEX
5
57f
100
AcDbEntity
8
1
100
AcDbVertex
100
AcDb2dVertex
62
5
10
121.444150
20
137.050000
0
VERTEX
5
580
100
AcDbEntity
8
1
100
AcDbVertex
100
AcDb2dVertex
62
5
10
121.444150
20
139.350000
0
VERTEX
5
581
100
AcDbEntity
8
1
100
AcDbVertex
100
AcDb2dVertex
62
5
10
121.594143
20
139.350000
0
VERTEX
5
582
100
AcDbEntity
8
1
100
AcDbVertex
100
AcDb2dVertex
62
5
10
121.594143
20
140.900000
0
VERTEX
5
583
100
AcDbEntity
8
1
100
AcDbVertex
100
AcDb2dVertex
62
5
10
143.994143
20
140.900000
0
VERTEX
5
584
100
AcDbEntity
8
1
100
AcDbVertex
100
AcDb2dVertex
62
5
10
143.994143
20
139.350000
0
VERTEX
5
585
100
AcDbEntity
8
1
100
AcDbVertex
100
AcDb2dVertex
62
5
10
144.144136
20
139.350000
0
VERTEX
5
586
100
AcDbEntity
8
1
100
AcDbVertex
100
AcDb2dVertex
62
5
10
144.144136
20
137.050000
0
VERTEX
5
587
100
AcDbEntity
8
1
100
AcDbVertex
100
AcDb2dVertex
62
5
10
143.994143
20
137.050000
0
VERTEX
5
588
100
AcDbEntity
8
1
100
AcDbVertex
100
AcDb2dVertex
62
5
10
143.994143
20
126.400000
0
VERTEX
5
589
100
AcDbEntity
8
1
100
AcDbVertex
100
AcDb2dVertex
62
5
10
121.594143
20
126.400000
0
VERTEX
5
58a
100
AcDbEntity
8
1
100
AcDbVertex
100
AcDb2dVertex
62
5
10
121.594143
20
137.050000
0
VERTEX
5
58b
100
AcDbEntity
8
1
100
AcDbVertex
100
AcDb2dVertex
62
5
10
121.444150
20
137.050000
0
SEQEND
5
58c
100
AcDbEntity
8
1
0
ARC
5
58d
100
AcDbEntity
8
1
100
AcDbCircle
6
CONTINUOUS
62
5
10
125.244148
20
122.649999
40
0.999999
100
AcDbArc
50
-89.999999
51
0.000000
0
LINE
5
58e
100
AcDbEntity
8
1
100
AcDbLine
6
CONTINUOUS
62
5
10
126.244147
20
122.649999
11
126.244147
21
125.250009
0
ARC
5
58f
100
AcDbEntity
8
1
100
AcDbCircle
6
CONTINUOUS
62
5
10
125.244148
20
125.250009
40
0.999999
100
AcDbArc
50
0.000000
51
89.999999
0
POLYLINE
5
590
100
AcDbEntity
8
1
6
CONTINUOUS
62
5
100
AcDb2dPolyline
66
1
10
0.0
20
0.0
30
0.0
70
0
0
VERTEX
5
591
100
AcDbEntity
8
1
100
AcDbVertex
100
AcDb2dVertex
62
5
10
125.244148
20
126.250009
0
VERTEX
5
592
100
AcDbEntity
8
1
100
AcDbVertex
100
AcDb2dVertex
62
5
10
121.444150
20
126.250009
0
VERTEX
5
593
100
AcDbEntity
8
1
100
AcDbVertex
100
AcDb2dVertex
62
5
10
121.444150
20
141.100000
0
VERTEX
5
594
100
AcDbEntity
8
1
100
AcDbVertex
100
AcDb2dVertex
62
5
10
144.144136
20
141.100000
0
VERTEX
5
595
100
AcDbEntity
8
1
100
AcDbVertex
100
AcDb2dVertex
62
5
10
144.144136
20
126.250009
0
VERTEX
5
596
100
AcDbEntity
8
1
100
AcDbVertex
100
AcDb2dVertex
62
5
10
140.344139
20
126.250009
0
SEQEND
5
597
100
AcDbEntity
8
1
0
ARC
5
598
100
AcDbEntity
8
1
100
AcDbCircle
6
CONTINUOUS
62
5
10
140.344139
20
125.250009
40
0.999999
100
AcDbArc
50
89.999999
51
179.999998
0
LINE
5
599
100
AcDbEntity
8
1
100
AcDbLine
6
CONTINUOUS
62
5
10
139.344139
20
125.250009
11
139.344139
21
122.649999
0
ARC
5
59a
100
AcDbEntity
8
1
100
AcDbCircle
6
CONTINUOUS
62
5
10
140.344139
20
122.649999
40
0.999999
100
AcDbArc
50
179.999998
51
-89.999999
0
ARC
5
59b
100
AcDbEntity
8
1
100
AcDbCircle
6
CONTINUOUS
62
5
10
118.294143
20
176.450000
40
2.150000
100
AcDbArc
50
89.999999
51
-179.999998
0
LINE
5
59c
100
AcDbEntity
8
1
100
AcDbLine
6
CONTINUOUS
62
5
10
118.294143
20
178.600000
11
147.294143
21
178.600000
0
ARC
5
59d
100
AcDbEntity
8
1
100
AcDbCircle
6
CONTINUOUS
62
5
10
147.294143
20
176.450000
40
2.150000
100
AcDbArc
50
0.000000
51
89.999999
0
LINE
5
59e
100
AcDbEntity
8
1
100
AcDbLine
6
CONTINUOUS
62
5
10
149.444143
20
176.450000
11
149.444143
21
123.650000
0
ARC
5
59f
100
AcDbEntity
8
1
100
AcDbCircle
6
CONTINUOUS
62
5
10
147.294143
20
123.650000
40
2.150000
100
AcDbArc
50
-89.999999
51
0.000000
0
LINE
5
5a0
100
AcDbEntity
8
1
100
AcDbLine
6
CONTINUOUS
62
5
10
147.294143
20
121.500000
11
118.294143
21
121.500000
0
ARC
5
5a1
100
AcDbEntity
8
1
100
AcDbCircle
6
CONTINUOUS
62
5
10
118.294143
20
123.650000
40
2.150000
100
AcDbArc
50
179.999998
51
-89.999999
0
LINE
5
5a2
100
AcDbEntity
8
1
100
AcDbLine
6
CONTINUOUS
62
5
10
116.144143
20
123.650000
11
116.144143
21
176.450000
0
ARC
5
5a3
100
AcDbEntity
8
1
100
AcDbCircle
6
CONTINUOUS
62
5
10
118.294143
20
123.650000
40
2.000000
100
AcDbArc
50
179.999998
51
-89.999999
0
LINE
5
5a4
100
AcDbEntity
8
1
100
AcDbLine
6
CONTINUOUS
62
5
10
116.294143
20
123.650000
11
116.294143
21
176.450000
0
ARC
5
5a5
100
AcDbEntity
8
1
100
AcDbCircle
6
CONTINUOUS
62
5
10
118.294143
20
176.450000
40
2.000000
100
AcDbArc
50
89.999999
51
179.999998
0
LINE
5
5a6
100
AcDbEntity
8
1
100
AcDbLine
6
CONTINUOUS
62
5
10
118.294143
20
178.450000
11
147.294143
21
178.450000
0
ARC
5
5a7
100
AcDbEntity
8
1
100
AcDbCircle
6
CONTINUOUS
62
5
10
147.294143
20
176.450000
40
2.000000
100
AcDbArc
50
0.000000
51
89.999999
0
LINE
5
5a8
100
AcDbEntity
8
1
100
AcDbLine
6
CONTINUOUS
62
5
10
149.294143
20
176.450000
11
149.294143
21
123.650000
0
ARC
5
5a9
100
AcDbEntity
8
1
100
AcDbCircle
6
CONTINUOUS
62
5
10
147.294143
20
123.650000
40
2.000000
100
AcDbArc
50
-89.999999
51
0.000000
0
LINE
5
5aa
100
AcDbEntity
8
1
100
AcDbLine
6
CONTINUOUS
62
5
10
147.294143
20
121.650000
11
118.294143
21
121.650000
0
POLYLINE
5
5ab
100
AcDbEntity
8
1
6
DOT2
62
5
100
AcDb2dPolyline
66
1
10
0.0
20
0.0
30
0.0
70
1
0
VERTEX
5
5ac
100
AcDbEntity
8
1
100
AcDbVertex
100
AcDb2dVertex
62
5
10
73.044143
20
162.500000
0
VERTEX
5
5ad
100
AcDbEntity
8
1
100
AcDbVertex
100
AcDb2dVertex
62
5
10
73.044143
20
163.125000
0
VERTEX
5
5ae
100
AcDbEntity
8
1
100
AcDbVertex
100
AcDb2dVertex
62
5
10
73.356643
20
163.750000
0
VERTEX
5
5af
100
AcDbEntity
8
1
100
AcDbVertex
100
AcDb2dVertex
62
5
10
73.981643
20
164.062500
0
VERTEX
5
5b0
100
AcDbEntity
8
1
100
AcDbVertex
100
AcDb2dVertex
62
5
10
75.231643
20
164.062500
0
VERTEX
5
5b1
100
AcDbEntity
8
1
100
AcDbVertex
100
AcDb2dVertex
62
5
10
75.856643
20
163.750000
0
VERTEX
5
5b2
100
AcDbEntity
8
1
100
AcDbVertex
100
AcDb2dVertex
62
5
10
77.106643
20
161.875000
0
VERTEX
5
5b3
100
AcDbEntity
8
1
100
AcDbVertex
100
AcDb2dVertex
62
5
10
78.044143
20
161.250000
0
VERTEX
5
5b4
100
AcDbEntity
8
1
100
AcDbVertex
100
AcDb2dVertex
62
5
10
79.294143
20
161.250000
0
VERTEX
5
5b5
100
AcDbEntity
8
1
100
AcDbVertex
100
AcDb2dVertex
62
5
10
79.919143
20
161.562500
0
VERTEX
5
5b6
100
AcDbEntity
8
1
100
AcDbVertex
100
AcDb2dVertex
62
5
10
80.231643
20
161.875000
0
VERTEX
5
5b7
100
AcDbEntity
8
1
100
AcDbVertex
100
AcDb2dVertex
62
5
10
80.544143
20
162.500000
0
VERTEX
5
5b8
100
AcDbEntity
8
1
100
AcDbVertex
100
AcDb2dVertex
62
5
10
80.544143
20
163.125000
0
VERTEX
5
5b9
100
AcDbEntity
8
1
100
AcDbVertex
100
AcDb2dVertex
62
5
10
80.231643
20
163.750000
0
VERTEX
5
5ba
100
AcDbEntity
8
1
100
AcDbVertex
100
AcDb2dVertex
62
5
10
79.919143
20
164.062500
0
VERTEX
5
5bb
100
AcDbEntity
8
1
100
AcDbVertex
100
AcDb2dVertex
62
5
10
79.294143
20
164.375000
0
VERTEX
5
5bc
100
AcDbEntity
8
1
100
AcDbVertex
100
AcDb2dVertex
62
5
10
78.044143
20
164.375000
0
VERTEX
5
5bd
100
AcDbEntity
8
1
100
AcDbVertex
100
AcDb2dVertex
62
5
10
77.106643
20
163.750000
0
VERTEX
5
5be
100
AcDbEntity
8
1
100
AcDbVertex
100
AcDb2dVertex
62
5
10
75.856643
20
161.875000
0
VERTEX
5
5bf
100
AcDbEntity
8
1
100
AcDbVertex
100
AcDb2dVertex
62
5
10
75.231643
20
161.562500
0
VERTEX
5
5c0
100
AcDbEntity
8
1
100
AcDbVertex
100
AcDb2dVertex
62
5
10
73.981643
20
161.562500
0
VERTEX
5
5c1
100
AcDbEntity
8
1
100
AcDbVertex
100
AcDb2dVertex
62
5
10
73.356643
20
161.875000
0
VERTEX
5
5c2
100
AcDbEntity
8
1
100
AcDbVertex
100
AcDb2dVertex
62
5
10
73.044143
20
162.500000
0
SEQEND
5
5c3
100
AcDbEntity
8
1
0
POLYLINE
5
5c4
100
AcDbEntity
8
1
6
DOT2
62
5
100
AcDb2dPolyline
66
1
10
0.0
20
0.0
30
0.0
70
0
0
VERTEX
5
5c5
100
AcDbEntity
8
1
100
AcDbVertex
100
AcDb2dVertex
62
5
10
77.106643
20
159.375000
0
VERTEX
5
5c6
100
AcDbEntity
8
1
100
AcDbVertex
100
AcDb2dVertex
62
5
10
77.106643
20
159.375000
0
VERTEX
5
5c7
100
AcDbEntity
8
1
100
AcDbVertex
100
AcDb2dVertex
62
5
10
77.419143
20
158.125000
0
VERTEX
5
5c8
100
AcDbEntity
8
1
100
AcDbVertex
100
AcDb2dVertex
62
5
10
77.419143
20
157.187500
0
VERTEX
5
5c9
100
AcDbEntity
8
1
100
AcDbVertex
100
AcDb2dVertex
62
5
10
77.106643
20
156.562500
0
VERTEX
5
5ca
100
AcDbEntity
8
1
100
AcDbVertex
100
AcDb2dVertex
62
5
10
76.169143
20
156.250000
0
VERTEX
5
5cb
100
AcDbEntity
8
1
100
AcDbVertex
100
AcDb2dVertex
62
5
10
74.606643
20
156.250000
0
VERTEX
5
5cc
100
AcDbEntity
8
1
100
AcDbVertex
100
AcDb2dVertex
62
5
10
73.669143
20
156.562500
0
VERTEX
5
5cd
100
AcDbEntity
8
1
100
AcDbVertex
100
AcDb2dVertex
62
5
10
73.356643
20
156.875000
0
VERTEX
5
5ce
100
AcDbEntity
8
1
100
AcDbVertex
100
AcDb2dVertex
62
5
10
73.044143
20
157.500000
0
VERTEX
5
5cf
100
AcDbEntity
8
1
100
AcDbVertex
100
AcDb2dVertex
62
5
10
73.044143
20
158.125000
0
VERTEX
5
5d0
100
AcDbEntity
8
1
100
AcDbVertex
100
AcDb2dVertex
62
5
10
73.356643
20
158.750000
0
VERTEX
5
5d1
100
AcDbEntity
8
1
100
AcDbVertex
100
AcDb2dVertex
62
5
10
73.669143
20
159.062500
0
VERTEX
5
5d2
100
AcDbEntity
8
1
100
AcDbVertex
100
AcDb2dVertex
62
5
10
74.606643
20
159.375000
0
VERTEX
5
5d3
100
AcDbEntity
8
1
100
AcDbVertex
100
AcDb2dVertex
62
5
10
78.044143
20
159.375000
0
VERTEX
5
5d4
100
AcDbEntity
8
1
100
AcDbVertex
100
AcDb2dVertex
62
5
10
79.606643
20
159.062500
0
VERTEX
5
5d5
100
AcDbEntity
8
1
100
AcDbVertex
100
AcDb2dVertex
62
5
10
80.231643
20
158.437500
0
VERTEX
5
5d6
100
AcDbEntity
8
1
100
AcDbVertex
100
AcDb2dVertex
62
5
10
80.544143
20
157.500000
0
VERTEX
5
5d7
100
AcDbEntity
8
1
100
AcDbVertex
100
AcDb2dVertex
62
5
10
80.544143
20
156.875000
0
SEQEND
5
5d8
100
AcDbEntity
8
1
0
LINE
5
5d9
100
AcDbEntity
8
1
100
AcDbLine
6
CONTINUOUS
62
5
10
130.144141
20
42.000000
11
133.269141
21
42.000000
0
POLYLINE
5
5da
100
AcDbEntity
8
1
6
CONTINUOUS
62
5
100
AcDb2dPolyline
66
1
10
0.0
20
0.0
30
0.0
70
0
0
VERTEX
5
5db
100
AcDbEntity
8
1
100
AcDbVertex
100
AcDb2dVertex
62
5
10
115.144141
20
43.562500
0
VERTEX
5
5dc
100
AcDbEntity
8
1
100
AcDbVertex
100
AcDb2dVertex
62
5
10
115.456641
20
45.125000
0
VERTEX
5
5dd
100
AcDbEntity
8
1
100
AcDbVertex
100
AcDb2dVertex
62
5
10
116.394141
20
45.750000
0
VERTEX
5
5de
100
AcDbEntity
8
1
100
AcDbVertex
100
AcDb2dVertex
62
5
10
117.331641
20
45.750000
0
VERTEX
5
5df
100
AcDbEntity
8
1
100
AcDbVertex
100
AcDb2dVertex
62
5
10
117.956641
20
45.437500
0
VERTEX
5
5e0
100
AcDbEntity
8
1
100
AcDbVertex
100
AcDb2dVertex
62
5
10
118.269141
20
44.500000
0
VERTEX
5
5e1
100
AcDbEntity
8
1
100
AcDbVertex
100
AcDb2dVertex
62
5
10
118.269141
20
43.562500
0
VERTEX
5
5e2
100
AcDbEntity
8
1
100
AcDbVertex
100
AcDb2dVertex
62
5
10
117.956641
20
42.625000
0
VERTEX
5
5e3
100
AcDbEntity
8
1
100
AcDbVertex
100
AcDb2dVertex
62
5
10
115.144141
20
38.250000
0
VERTEX
5
5e4
100
AcDbEntity
8
1
100
AcDbVertex
100
AcDb2dVertex
62
5
10
118.269141
20
38.250000
0
VERTEX
5
5e5
100
AcDbEntity
8
1
100
AcDbVertex
100
AcDb2dVertex
62
5
10
118.269141
20
39.187500
0
SEQEND
5
5e6
100
AcDbEntity
8
1
0
POLYLINE
5
5e7
100
AcDbEntity
8
1
6
CONTINUOUS
62
5
100
AcDb2dPolyline
66
1
10
0.0
20
0.0
30
0.0
70
1
0
VERTEX
5
5e8
100
AcDbEntity
8
1
100
AcDbVertex
100
AcDb2dVertex
62
5
10
121.394141
20
45.750000
0
VERTEX
5
5e9
100
AcDbEntity
8
1
100
AcDbVertex
100
AcDb2dVertex
62
5
10
122.019141
20
45.750000
0
VERTEX
5
5ea
100
AcDbEntity
8
1
100
AcDbVertex
100
AcDb2dVertex
62
5
10
122.331641
20
45.437500
0
VERTEX
5
5eb
100
AcDbEntity
8
1
100
AcDbVertex
100
AcDb2dVertex
62
5
10
122.956641
20
44.187500
0
VERTEX
5
5ec
100
AcDbEntity
8
1
100
AcDbVertex
100
AcDb2dVertex
62
5
10
123.269141
20
42.937500
0
VERTEX
5
5ed
100
AcDbEntity
8
1
100
AcDbVertex
100
AcDb2dVertex
62
5
10
123.269141
20
41.062500
0
VERTEX
5
5ee
100
AcDbEntity
8
1
100
AcDbVertex
100
AcDb2dVertex
62
5
10
122.956641
20
39.812500
0
VERTEX
5
5ef
100
AcDbEntity
8
1
100
AcDbVertex
100
AcDb2dVertex
62
5
10
122.331641
20
38.562500
0
VERTEX
5
5f0
100
AcDbEntity
8
1
100
AcDbVertex
100
AcDb2dVertex
62
5
10
122.019141
20
38.250000
0
VERTEX
5
5f1
100
AcDbEntity
8
1
100
AcDbVertex
100
AcDb2dVertex
62
5
10
121.394141
20
38.250000
0
VERTEX
5
5f2
100
AcDbEntity
8
1
100
AcDbVertex
100
AcDb2dVertex
62
5
10
121.081641
20
38.562500
0
VERTEX
5
5f3
100
AcDbEntity
8
1
100
AcDbVertex
100
AcDb2dVertex
62
5
10
120.456641
20
39.812500
0
VERTEX
5
5f4
100
AcDbEntity
8
1
100
AcDbVertex
100
AcDb2dVertex
62
5
10
120.144141
20
41.062500
0
VERTEX
5
5f5
100
AcDbEntity
8
1
100
AcDbVertex
100
AcDb2dVertex
62
5
10
120.144141
20
42.937500
0
VERTEX
5
5f6
100
AcDbEntity
8
1
100
AcDbVertex
100
AcDb2dVertex
62
5
10
120.456641
20
44.187500
0
VERTEX
5
5f7
100
AcDbEntity
8
1
100
AcDbVertex
100
AcDb2dVertex
62
5
10
121.081641
20
45.437500
0
VERTEX
5
5f8
100
AcDbEntity
8
1
100
AcDbVertex
100
AcDb2dVertex
62
5
10
121.394141
20
45.750000
0
SEQEND
5
5f9
100
AcDbEntity
8
1
0
POLYLINE
5
5fa
100
AcDbEntity
8
1
6
CONTINUOUS
62
5
100
AcDb2dPolyline
66
1
10
0.0
20
0.0
30
0.0
70
0
0
VERTEX
5
5fb
100
AcDbEntity
8
1
100
AcDbVertex
100
AcDb2dVertex
62
5
10
125.144141
20
38.250000
0
VERTEX
5
5fc
100
AcDbEntity
8
1
100
AcDbVertex
100
AcDb2dVertex
62
5
10
126.706641
20
45.750000
0
VERTEX
5
5fd
100
AcDbEntity
8
1
100
AcDbVertex
100
AcDb2dVertex
62
5
10
128.269141
20
38.250000
0
SEQEND
5
5fe
100
AcDbEntity
8
1
0
LINE
5
5ff
100
AcDbEntity
8
1
100
AcDbLine
6
CONTINUOUS
62
5
10
125.769141
20
40.750000
11
127.644141
21
40.750000
0
POLYLINE
5
600
100
AcDbEntity
8
1
6
CONTINUOUS
62
5
100
AcDb2dPolyline
66
1
10
0.0
20
0.0
30
0.0
70
0
0
VERTEX
5
601
100
AcDbEntity
8
1
100
AcDbVertex
100
AcDb2dVertex
62
5
10
135.769141
20
45.125000
0
VERTEX
5
602
100
AcDbEntity
8
1
100
AcDbVertex
100
AcDb2dVertex
62
5
10
136.706641
20
45.750000
0
VERTEX
5
603
100
AcDbEntity
8
1
100
AcDbVertex
100
AcDb2dVertex
62
5
10
136.706641
20
38.250000
0
SEQEND
5
604
100
AcDbEntity
8
1
0
LINE
5
605
100
AcDbEntity
8
1
100
AcDbLine
6
CONTINUOUS
62
5
10
136.081641
20
38.250000
11
137.331641
21
38.250000
0
POLYLINE
5
606
100
AcDbEntity
8
1
6
CONTINUOUS
62
5
100
AcDb2dPolyline
66
1
10
0.0
20
0.0
30
0.0
70
0
0
VERTEX
5
607
100
AcDbEntity
8
1
100
AcDbVertex
100
AcDb2dVertex
62
5
10
140.144141
20
43.562500
0
VERTEX
5
608
100
AcDbEntity
8
1
100
AcDbVertex
100
AcDb2dVertex
62
5
10
140.456641
20
45.125000
0
VERTEX
5
609
100
AcDbEntity
8
1
100
AcDbVertex
100
AcDb2dVertex
62
5
10
141.394141
20
45.750000
0
VERTEX
5
60a
100
AcDbEntity
8
1
100
AcDbVertex
100
AcDb2dVertex
62
5
10
142.331641
20
45.750000
0
VERTEX
5
60b
100
AcDbEntity
8
1
100
AcDbVertex
100
AcDb2dVertex
62
5
10
142.956641
20
45.437500
0
VERTEX
5
60c
100
AcDbEntity
8
1
100
AcDbVertex
100
AcDb2dVertex
62
5
10
143.269141
20
44.500000
0
VERTEX
5
60d
100
AcDbEntity
8
1
100
AcDbVertex
100
AcDb2dVertex
62
5
10
143.269141
20
43.562500
0
VERTEX
5
60e
100
AcDbEntity
8
1
100
AcDbVertex
100
AcDb2dVertex
62
5
10
142.956641
20
42.625000
0
VERTEX
5
60f
100
AcDbEntity
8
1
100
AcDbVertex
100
AcDb2dVertex
62
5
10
140.144141
20
38.250000
0
VERTEX
5
610
100
AcDbEntity
8
1
100
AcDbVertex
100
AcDb2dVertex
62
5
10
143.269141
20
38.250000
0
VERTEX
5
611
100
AcDbEntity
8
1
100
AcDbVertex
100
AcDb2dVertex
62
5
10
143.269141
20
39.187500
0
SEQEND
5
612
100
AcDbEntity
8
1
0
LINE
5
613
100
AcDbEntity
8
1
100
AcDbLine
6
CONTINUOUS
62
5
10
145.144141
20
45.750000
11
147.956641
21
45.750000
0
POLYLINE
5
614
100
AcDbEntity
8
1
6
CONTINUOUS
62
5
100
AcDb2dPolyline
66
1
10
0.0
20
0.0
30
0.0
70
0
0
VERTEX
5
615
100
AcDbEntity
8
1
100
AcDbVertex
100
AcDb2dVertex
62
5
10
145.144141
20
45.750000
0
VERTEX
5
616
100
AcDbEntity
8
1
100
AcDbVertex
100
AcDb2dVertex
62
5
10
145.144141
20
42.000000
0
VERTEX
5
617
100
AcDbEntity
8
1
100
AcDbVertex
100
AcDb2dVertex
62
5
10
145.769141
20
42.625000
0
VERTEX
5
618
100
AcDbEntity
8
1
100
AcDbVertex
100
AcDb2dVertex
62
5
10
146.394141
20
42.937500
0
VERTEX
5
619
100
AcDbEntity
8
1
100
AcDbVertex
100
AcDb2dVertex
62
5
10
147.331641
20
42.937500
0
VERTEX
5
61a
100
AcDbEntity
8
1
100
AcDbVertex
100
AcDb2dVertex
62
5
10
147.956641
20
42.625000
0
VERTEX
5
61b
100
AcDbEntity
8
1
100
AcDbVertex
100
AcDb2dVertex
62
5
10
148.269141
20
41.687500
0
VERTEX
5
61c
100
AcDbEntity
8
1
100
AcDbVertex
100
AcDb2dVertex
62
5
10
148.269141
20
39.812500
0
VERTEX
5
61d
100
AcDbEntity
8
1
100
AcDbVertex
100
AcDb2dVertex
62
5
10
147.644141
20
38.875000
0
VERTEX
5
61e
100
AcDbEntity
8
1
100
AcDbVertex
100
AcDb2dVertex
62
5
10
146.706641
20
38.250000
0
VERTEX
5
61f
100
AcDbEntity
8
1
100
AcDbVertex
100
AcDb2dVertex
62
5
10
145.144141
20
38.250000
0
SEQEND
5
620
100
AcDbEntity
8
1
0
POLYLINE
5
621
100
AcDbEntity
8
1
6
CONTINUOUS
62
5
100
AcDb2dPolyline
66
1
10
0.0
20
0.0
30
0.0
70
0
0
VERTEX
5
622
100
AcDbEntity
8
1
100
AcDbVertex
100
AcDb2dVertex
62
5
10
150.144141
20
45.750000
0
VERTEX
5
623
100
AcDbEntity
8
1
100
AcDbVertex
100
AcDb2dVertex
62
5
10
151.706641
20
38.250000
0
VERTEX
5
624
100
AcDbEntity
8
1
100
AcDbVertex
100
AcDb2dVertex
62
5
10
153.269141
20
45.750000
0
SEQEND
5
625
100
AcDbEntity
8
1
0
POLYLINE
5
626
100
AcDbEntity
8
1
6
CONTINUOUS
62
5
100
AcDb2dPolyline
66
1
10
0.0
20
0.0
30
0.0
70
0
0
VERTEX
5
627
100
AcDbEntity
8
1
100
AcDbVertex
100
AcDb2dVertex
62
5
10
160.144141
20
38.250000
0
VERTEX
5
628
100
AcDbEntity
8
1
100
AcDbVertex
100
AcDb2dVertex
62
5
10
161.706641
20
45.750000
0
VERTEX
5
629
100
AcDbEntity
8
1
100
AcDbVertex
100
AcDb2dVertex
62
5
10
163.269141
20
38.250000
0
SEQEND
5
62a
100
AcDbEntity
8
1
0
LINE
5
62b
100
AcDbEntity
8
1
100
AcDbLine
6
CONTINUOUS
62
5
10
160.769141
20
40.750000
11
162.644141
21
40.750000
0
POLYLINE
5
62c
100
AcDbEntity
8
1
6
CONTINUOUS
62
5
100
AcDb2dPolyline
66
1
10
0.0
20
0.0
30
0.0
70
0
0
VERTEX
5
62d
100
AcDbEntity
8
1
100
AcDbVertex
100
AcDb2dVertex
62
5
10
168.269141
20
44.187500
0
VERTEX
5
62e
100
AcDbEntity
8
1
100
AcDbVertex
100
AcDb2dVertex
62
5
10
167.956641
20
45.125000
0
VERTEX
5
62f
100
AcDbEntity
8
1
100
AcDbVertex
100
AcDb2dVertex
62
5
10
167.331641
20
45.750000
0
VERTEX
5
630
100
AcDbEntity
8
1
100
AcDbVertex
100
AcDb2dVertex
62
5
10
166.394141
20
45.750000
0
VERTEX
5
631
100
AcDbEntity
8
1
100
AcDbVertex
100
AcDb2dVertex
62
5
10
165.456641
20
44.812500
0
VERTEX
5
632
100
AcDbEntity
8
1
100
AcDbVertex
100
AcDb2dVertex
62
5
10
165.144141
20
43.250000
0
VERTEX
5
633
100
AcDbEntity
8
1
100
AcDbVertex
100
AcDb2dVertex
62
5
10
165.144141
20
40.750000
0
VERTEX
5
634
100
AcDbEntity
8
1
100
AcDbVertex
100
AcDb2dVertex
62
5
10
165.456641
20
39.187500
0
VERTEX
5
635
100
AcDbEntity
8
1
100
AcDbVertex
100
AcDb2dVertex
62
5
10
166.394141
20
38.250000
0
VERTEX
5
636
100
AcDbEntity
8
1
100
AcDbVertex
100
AcDb2dVertex
62
5
10
167.331641
20
38.250000
0
VERTEX
5
637
100
AcDbEntity
8
1
100
AcDbVertex
100
AcDb2dVertex
62
5
10
167.956641
20
38.875000
0
VERTEX
5
638
100
AcDbEntity
8
1
100
AcDbVertex
100
AcDb2dVertex
62
5
10
168.581641
20
40.437500
0
SEQEND
5
639
100
AcDbEntity
8
1
0
LINE
5
63a
100
AcDbEntity
8
1
100
AcDbLine
6
CONTINUOUS
62
5
10
102.644141
20
54.000000
11
102.644141
21
30.000000
0
LINE
5
63b
100
AcDbEntity
8
1
100
AcDbLine
6
CONTINUOUS
62
5
10
67.331641
20
46.375000
11
67.331641
21
45.437500
0
POLYLINE
5
63c
100
AcDbEntity
8
1
6
CONTINUOUS
62
5
100
AcDb2dPolyline
66
1
10
0.0
20
0.0
30
0.0
70
0
0
VERTEX
5
63d
100
AcDbEntity
8
1
100
AcDbVertex
100
AcDb2dVertex
62
5
10
63.581641
20
43.250000
0
VERTEX
5
63e
100
AcDbEntity
8
1
100
AcDbVertex
100
AcDb2dVertex
62
5
10
63.581641
20
45.437500
0
VERTEX
5
63f
100
AcDbEntity
8
1
100
AcDbVertex
100
AcDb2dVertex
62
5
10
71.081641
20
45.437500
0
VERTEX
5
640
100
AcDbEntity
8
1
100
AcDbVertex
100
AcDb2dVertex
62
5
10
71.081641
20
43.250000
0
SEQEND
5
641
100
AcDbEntity
8
1
0
LINE
5
642
100
AcDbEntity
8
1
100
AcDbLine
6
CONTINUOUS
62
5
10
64.519141
20
43.562500
11
70.144141
21
43.562500
0
LINE
5
643
100
AcDbEntity
8
1
100
AcDbLine
6
CONTINUOUS
62
5
10
67.331641
20
43.562500
11
67.331641
21
38.250000
0
LINE
5
644
100
AcDbEntity
8
1
100
AcDbLine
6
CONTINUOUS
62
5
10
67.331641
20
41.062500
11
70.144141
21
41.062500
0
POLYLINE
5
645
100
AcDbEntity
8
1
6
CONTINUOUS
62
5
100
AcDb2dPolyline
66
1
10
0.0
20
0.0
30
0.0
70
0
0
VERTEX
5
646
100
AcDbEntity
8
1
100
AcDbVertex
100
AcDb2dVertex
62
5
10
65.144141
20
41.687500
0
VERTEX
5
647
100
AcDbEntity
8
1
100
AcDbVertex
100
AcDb2dVertex
62
5
10
64.831641
20
39.812500
0
VERTEX
5
648
100
AcDbEntity
8
1
100
AcDbVertex
100
AcDb2dVertex
62
5
10
64.206641
20
38.562500
0
VERTEX
5
649
100
AcDbEntity
8
1
100
AcDbVertex
100
AcDb2dVertex
62
5
10
63.269141
20
37.625000
0
SEQEND
5
64a
100
AcDbEntity
8
1
0
POLYLINE
5
64b
100
AcDbEntity
8
1
6
CONTINUOUS
62
5
100
AcDb2dPolyline
66
1
10
0.0
20
0.0
30
0.0
70
0
0
VERTEX
5
64c
100
AcDbEntity
8
1
100
AcDbVertex
100
AcDb2dVertex
62
5
10
64.831641
20
39.812500
0
VERTEX
5
64d
100
AcDbEntity
8
1
100
AcDbVertex
100
AcDb2dVertex
62
5
10
67.331641
20
38.250000
0
VERTEX
5
64e
100
AcDbEntity
8
1
100
AcDbVertex
100
AcDb2dVertex
62
5
10
68.581641
20
37.937500
0
VERTEX
5
64f
100
AcDbEntity
8
1
100
AcDbVertex
100
AcDb2dVertex
62
5
10
71.706641
20
37.625000
0
SEQEND
5
650
100
AcDbEntity
8
1
0
LINE
5
651
100
AcDbEntity
8
1
100
AcDbLine
6
CONTINUOUS
62
5
10
83.269141
20
44.187500
11
86.394141
21
44.187500
0
LINE
5
652
100
AcDbEntity
8
1
100
AcDbLine
6
CONTINUOUS
62
5
10
85.144141
20
46.375000
11
85.144141
21
37.625000
0
POLYLINE
5
653
100
AcDbEntity
8
1
6
CONTINUOUS
62
5
100
AcDb2dPolyline
66
1
10
0.0
20
0.0
30
0.0
70
0
0
VERTEX
5
654
100
AcDbEntity
8
1
100
AcDbVertex
100
AcDb2dVertex
62
5
10
85.144141
20
44.187500
0
VERTEX
5
655
100
AcDbEntity
8
1
100
AcDbVertex
100
AcDb2dVertex
62
5
10
84.206641
20
42.000000
0
VERTEX
5
656
100
AcDbEntity
8
1
100
AcDbVertex
100
AcDb2dVertex
62
5
10
83.269141
20
40.750000
0
SEQEND
5
657
100
AcDbEntity
8
1
0
LINE
5
658
100
AcDbEntity
8
1
100
AcDbLine
6
CONTINUOUS
62
5
10
85.144141
20
43.250000
11
86.081641
21
42.000000
0
POLYLINE
5
659
100
AcDbEntity
8
1
6
CONTINUOUS
62
5
100
AcDb2dPolyline
66
1
10
0.0
20
0.0
30
0.0
70
0
0
VERTEX
5
65a
100
AcDbEntity
8
1
100
AcDbVertex
100
AcDb2dVertex
62
5
10
88.581641
20
46.375000
0
VERTEX
5
65b
100
AcDbEntity
8
1
100
AcDbVertex
100
AcDb2dVertex
62
5
10
87.956641
20
45.125000
0
VERTEX
5
65c
100
AcDbEntity
8
1
100
AcDbVertex
100
AcDb2dVertex
62
5
10
86.394141
20
43.250000
0
SEQEND
5
65d
100
AcDbEntity
8
1
0
POLYLINE
5
65e
100
AcDbEntity
8
1
6
CONTINUOUS
62
5
100
AcDb2dPolyline
66
1
10
0.0
20
0.0
30
0.0
70
0
0
VERTEX
5
65f
100
AcDbEntity
8
1
100
AcDbVertex
100
AcDb2dVertex
62
5
10
87.956641
20
45.125000
0
VERTEX
5
660
100
AcDbEntity
8
1
100
AcDbVertex
100
AcDb2dVertex
62
5
10
91.081641
20
45.125000
0
VERTEX
5
661
100
AcDbEntity
8
1
100
AcDbVertex
100
AcDb2dVertex
62
5
10
90.144141
20
43.562500
0
VERTEX
5
662
100
AcDbEntity
8
1
100
AcDbVertex
100
AcDb2dVertex
62
5
10
88.581641
20
42.000000
0
VERTEX
5
663
100
AcDbEntity
8
1
100
AcDbVertex
100
AcDb2dVertex
62
5
10
86.394141
20
40.750000
0
SEQEND
5
664
100
AcDbEntity
8
1
0
POLYLINE
5
665
100
AcDbEntity
8
1
6
CONTINUOUS
62
5
100
AcDb2dPolyline
66
1
10
0.0
20
0.0
30
0.0
70
0
0
VERTEX
5
666
100
AcDbEntity
8
1
100
AcDbVertex
100
AcDb2dVertex
62
5
10
87.956641
20
45.125000
0
VERTEX
5
667
100
AcDbEntity
8
1
100
AcDbVertex
100
AcDb2dVertex
62
5
10
88.581641
20
43.562500
0
VERTEX
5
668
100
AcDbEntity
8
1
100
AcDbVertex
100
AcDb2dVertex
62
5
10
89.831641
20
42.000000
0
VERTEX
5
669
100
AcDbEntity
8
1
100
AcDbVertex
100
AcDb2dVertex
62
5
10
90.769141
20
41.375000
0
VERTEX
5
66a
100
AcDbEntity
8
1
100
AcDbVertex
100
AcDb2dVertex
62
5
10
92.019141
20
40.750000
0
SEQEND
5
66b
100
AcDbEntity
8
1
0
POLYLINE
5
66c
100
AcDbEntity
8
1
6
CONTINUOUS
62
5
100
AcDb2dPolyline
66
1
10
0.0
20
0.0
30
0.0
70
1
0
VERTEX
5
66d
100
AcDbEntity
8
1
100
AcDbVertex
100
AcDb2dVertex
62
5
10
87.644141
20
40.750000
0
VERTEX
5
66e
100
AcDbEntity
8
1
100
AcDbVertex
100
AcDb2dVertex
62
5
10
87.644141
20
37.937500
0
VERTEX
5
66f
100
AcDbEntity
8
1
100
AcDbVertex
100
AcDb2dVertex
62
5
10
91.081641
20
37.937500
0
VERTEX
5
670
100
AcDbEntity
8
1
100
AcDbVertex
100
AcDb2dVertex
62
5
10
91.081641
20
40.750000
0
VERTEX
5
671
100
AcDbEntity
8
1
100
AcDbVertex
100
AcDb2dVertex
62
5
10
87.644141
20
40.750000
0
SEQEND
5
672
100
AcDbEntity
8
1
0
POLYLINE
5
673
100
AcDbEntity
8
1
6
CONTINUOUS
62
5
100
AcDb2dPolyline
66
1
10
0.0
20
0.0
30
0.0
70
1
0
VERTEX
5
674
100
AcDbEntity
8
1
100
AcDbVertex
100
AcDb2dVertex
62
5
10
292.644141
20
30.000000
0
VERTEX
5
675
100
AcDbEntity
8
1
100
AcDbVertex
100
AcDb2dVertex
62
5
10
292.644141
20
54.000000
0
VERTEX
5
676
100
AcDbEntity
8
1
100
AcDbVertex
100
AcDb2dVertex
62
5
10
52.644141
20
54.000000
0
VERTEX
5
677
100
AcDbEntity
8
1
100
AcDbVertex
100
AcDb2dVertex
62
5
10
52.644141
20
30.000000
0
VERTEX
5
678
100
AcDbEntity
8
1
100
AcDbVertex
100
AcDb2dVertex
62
5
10
292.644141
20
30.000000
0
SEQEND
5
679
100
AcDbEntity
8
1
0
LINE
5
67a
100
AcDbEntity
8
1
100
AcDbLine
6
CONTINUOUS
62
5
10
112.494143
20
209.000000
11
79.794143
21
209.000000
0
LINE
5
67b
100
AcDbEntity
8
1
100
AcDbLine
6
CONTINUOUS
62
5
10
112.494143
20
111.000000
11
79.794143
21
111.000000
0
POLYLINE
5
67c
100
AcDbEntity
8
1
6
CONTINUOUS
62
5
100
AcDb2dPolyline
66
1
10
0.0
20
0.0
30
0.0
70
0
0
VERTEX
5
67d
100
AcDbEntity
8
1
100
AcDbVertex
100
AcDb2dVertex
62
5
10
81.794143
20
160.000000
0
VERTEX
5
67e
100
AcDbEntity
8
1
100
AcDbVertex
100
AcDb2dVertex
62
5
10
81.794143
20
111.000000
0
VERTEX
5
67f
100
AcDbEntity
8
1
100
AcDbVertex
100
AcDb2dVertex
62
5
10
80.794143
20
117.000000
0
VERTEX
5
680
100
AcDbEntity
8
1
100
AcDbVertex
100
AcDb2dVertex
62
5
10
82.794143
20
117.000000
0
VERTEX
5
681
100
AcDbEntity
8
1
100
AcDbVertex
100
AcDb2dVertex
62
5
10
81.794143
20
111.000000
0
VERTEX
5
682
100
AcDbEntity
8
1
100
AcDbVertex
100
AcDb2dVertex
62
5
10
81.294143
20
117.000000
0
VERTEX
5
683
100
AcDbEntity
8
1
100
AcDbVertex
100
AcDb2dVertex
62
5
10
82.294143
20
117.000000
0
VERTEX
5
684
100
AcDbEntity
8
1
100
AcDbVertex
100
AcDb2dVertex
62
5
10
81.794143
20
111.000000
0
SEQEND
5
685
100
AcDbEntity
8
1
0
POLYLINE
5
686
100
AcDbEntity
8
1
6
CONTINUOUS
62
5
100
AcDb2dPolyline
66
1
10
0.0
20
0.0
30
0.0
70
0
0
VERTEX
5
687
100
AcDbEntity
8
1
100
AcDbVertex
100
AcDb2dVertex
62
5
10
81.794143
20
160.000000
0
VERTEX
5
688
100
AcDbEntity
8
1
100
AcDbVertex
100
AcDb2dVertex
62
5
10
81.794143
20
209.000000
0
VERTEX
5
689
100
AcDbEntity
8
1
100
AcDbVertex
100
AcDb2dVertex
62
5
10
82.794143
20
203.000000
0
VERTEX
5
68a
100
AcDbEntity
8
1
100
AcDbVertex
100
AcDb2dVertex
62
5
10
80.794143
20
203.000000
0
VERTEX
5
68b
100
AcDbEntity
8
1
100
AcDbVertex
100
AcDb2dVertex
62
5
10
81.794143
20
209.000000
0
VERTEX
5
68c
100
AcDbEntity
8
1
100
AcDbVertex
100
AcDb2dVertex
62
5
10
82.294143
20
203.000000
0
VERTEX
5
68d
100
AcDbEntity
8
1
100
AcDbVertex
100
AcDb2dVertex
62
5
10
81.294143
20
203.000000
0
VERTEX
5
68e
100
AcDbEntity
8
1
100
AcDbVertex
100
AcDb2dVertex
62
5
10
81.794143
20
209.000000
0
SEQEND
5
68f
100
AcDbEntity
8
1
0
POLYLINE
5
690
100
AcDbEntity
8
1
6
CONTINUOUS
62
5
100
AcDb2dPolyline
66
1
10
0.0
20
0.0
30
0.0
70
0
0
VERTEX
5
691
100
AcDbEntity
8
1
100
AcDbVertex
100
AcDb2dVertex
62
5
10
214.794143
20
115.749997
0
VERTEX
5
692
100
AcDbEntity
8
1
100
AcDbVertex
100
AcDb2dVertex
62
5
10
214.494143
20
115.750000
0
VERTEX
5
693
100
AcDbEntity
8
1
100
AcDbVertex
100
AcDb2dVertex
62
5
10
214.494143
20
204.250000
0
VERTEX
5
694
100
AcDbEntity
8
1
100
AcDbVertex
100
AcDb2dVertex
62
5
10
214.794143
20
204.250000
0
SEQEND
5
695
100
AcDbEntity
8
1
0
LINE
5
696
100
AcDbEntity
8
1
100
AcDbLine
6
CONTINUOUS
62
5
10
217.794143
20
113.427254
11
217.794143
21
206.572747
0
LINE
5
697
100
AcDbEntity
8
1
100
AcDbLine
6
CONTINUOUS
62
5
10
229.194143
20
111.500000
11
229.194143
21
208.500000
0
ARC
5
698
100
AcDbEntity
8
1
100
AcDbCircle
6
CONTINUOUS
62
5
10
229.994143
20
208.310988
40
0.500000
100
AcDbArc
50
91.273030
51
179.999998
0
LINE
5
699
100
AcDbEntity
8
1
100
AcDbLine
6
CONTINUOUS
62
5
10
229.494143
20
208.310988
11
229.494143
21
111.689012
0
ARC
5
69a
100
AcDbEntity
8
1
100
AcDbCircle
6
CONTINUOUS
62
5
10
229.994143
20
111.689012
40
0.500000
100
AcDbArc
50
179.999998
51
-91.273030
0
POLYLINE
5
69b
100
AcDbEntity
8
1
6
CONTINUOUS
62
5
100
AcDb2dPolyline
66
1
10
0.0
20
0.0
30
0.0
70
0
0
VERTEX
5
69c
100
AcDbEntity
8
1
100
AcDbVertex
100
AcDb2dVertex
62
5
10
229.983035
20
111.189136
0
VERTEX
5
69d
100
AcDbEntity
8
1
100
AcDbVertex
100
AcDb2dVertex
62
5
10
238.494140
20
111.000000
0
VERTEX
5
69e
100
AcDbEntity
8
1
100
AcDbVertex
100
AcDb2dVertex
62
5
10
238.494140
20
209.000000
0
VERTEX
5
69f
100
AcDbEntity
8
1
100
AcDbVertex
100
AcDb2dVertex
62
5
10
229.983035
20
208.810864
0
SEQEND
5
6a0
100
AcDbEntity
8
1
0
ARC
5
6a1
100
AcDbEntity
8
1
100
AcDbCircle
6
CONTINUOUS
62
5
10
218.853311
20
206.572747
40
2.000000
100
AcDbArc
50
91.256284
51
145.097503
0
POLYLINE
5
6a2
100
AcDbEntity
8
1
6
CONTINUOUS
62
5
100
AcDb2dPolyline
66
1
10
0.0
20
0.0
30
0.0
70
0
0
VERTEX
5
6a3
100
AcDbEntity
8
1
100
AcDbVertex
100
AcDb2dVertex
62
5
10
218.809462
20
208.572266
0
VERTEX
5
6a4
100
AcDbEntity
8
1
100
AcDbVertex
100
AcDb2dVertex
62
5
10
229.194143
20
208.800000
0
VERTEX
5
6a5
100
AcDbEntity
8
1
100
AcDbVertex
100
AcDb2dVertex
62
5
10
229.194143
20
208.500000
0
VERTEX
5
6a6
100
AcDbEntity
8
1
100
AcDbVertex
100
AcDb2dVertex
62
5
10
229.494143
20
208.500000
0
VERTEX
5
6a7
100
AcDbEntity
8
1
100
AcDbVertex
100
AcDb2dVertex
62
5
10
229.494143
20
111.500000
0
VERTEX
5
6a8
100
AcDbEntity
8
1
100
AcDbVertex
100
AcDb2dVertex
62
5
10
229.194143
20
111.500000
0
VERTEX
5
6a9
100
AcDbEntity
8
1
100
AcDbVertex
100
AcDb2dVertex
62
5
10
229.194143
20
111.200000
0
VERTEX
5
6aa
100
AcDbEntity
8
1
100
AcDbVertex
100
AcDb2dVertex
62
5
10
218.809461
20
111.427734
0
SEQEND
5
6ab
100
AcDbEntity
8
1
0
ARC
5
6ac
100
AcDbEntity
8
1
100
AcDbCircle
6
CONTINUOUS
62
5
10
218.853310
20
113.427254
40
2.000000
100
AcDbArc
50
-145.097487
51
-91.256284
0
POLYLINE
5
6ad
100
AcDbEntity
8
1
6
CONTINUOUS
62
5
100
AcDb2dPolyline
66
1
10
0.0
20
0.0
30
0.0
70
0
0
VERTEX
5
6ae
100
AcDbEntity
8
1
100
AcDbVertex
100
AcDb2dVertex
62
5
10
217.213057
20
112.282890
0
VERTEX
5
6af
100
AcDbEntity
8
1
100
AcDbVertex
100
AcDb2dVertex
62
5
10
214.794143
20
115.749997
0
VERTEX
5
6b0
100
AcDbEntity
8
1
100
AcDbVertex
100
AcDb2dVertex
62
5
10
214.794143
20
204.250000
0
VERTEX
5
6b1
100
AcDbEntity
8
1
100
AcDbVertex
100
AcDb2dVertex
62
5
10
217.213057
20
207.717110
0
SEQEND
5
6b2
100
AcDbEntity
8
1
0
ARC
5
6b3
100
AcDbEntity
8
1
100
AcDbCircle
6
CONTINUOUS
62
5
10
116.294143
20
119.600000
40
2.000000
100
AcDbArc
50
179.999998
51
-89.999999
0
LINE
5
6b4
100
AcDbEntity
8
1
100
AcDbLine
6
CONTINUOUS
62
5
10
114.294143
20
119.600000
11
114.294143
21
200.400000
0
ARC
5
6b5
100
AcDbEntity
8
1
100
AcDbCircle
6
CONTINUOUS
62
5
10
116.294143
20
200.400000
40
2.000000
100
AcDbArc
50
89.999999
51
179.999998
0
LINE
5
6b6
100
AcDbEntity
8
1
100
AcDbLine
6
CONTINUOUS
62
5
10
116.294143
20
202.400000
11
149.294143
21
202.400000
0
ARC
5
6b7
100
AcDbEntity
8
1
100
AcDbCircle
6
CONTINUOUS
62
5
10
149.294143
20
200.400000
40
2.000000
100
AcDbArc
50
0.000000
51
89.999999
0
LINE
5
6b8
100
AcDbEntity
8
1
100
AcDbLine
6
CONTINUOUS
62
5
10
151.294143
20
200.400000
11
151.294143
21
119.600000
0
ARC
5
6b9
100
AcDbEntity
8
1
100
AcDbCircle
6
CONTINUOUS
62
5
10
149.294143
20
119.600000
40
2.000000
100
AcDbArc
50
-89.999999
51
0.000000
0
LINE
5
6ba
100
AcDbEntity
8
1
100
AcDbLine
6
CONTINUOUS
62
5
10
149.294143
20
117.600000
11
116.294143
21
117.600000
0
ARC
5
6bb
100
AcDbEntity
8
1
100
AcDbCircle
6
CONTINUOUS
62
5
10
149.294143
20
119.600000
40
3.850000
100
AcDbArc
50
-89.999999
51
0.000000
0
LINE
5
6bc
100
AcDbEntity
8
1
100
AcDbLine
6
CONTINUOUS
62
5
10
149.294143
20
115.750000
11
116.294143
21
115.750000
0
ARC
5
6bd
100
AcDbEntity
8
1
100
AcDbCircle
6
CONTINUOUS
62
5
10
116.294143
20
119.600000
40
3.850000
100
AcDbArc
50
-179.999998
51
-89.999999
0
LINE
5
6be
100
AcDbEntity
8
1
100
AcDbLine
6
CONTINUOUS
62
5
10
112.444143
20
119.600000
11
112.444143
21
200.400000
0
ARC
5
6bf
100
AcDbEntity
8
1
100
AcDbCircle
6
CONTINUOUS
62
5
10
116.294143
20
200.400000
40
3.850000
100
AcDbArc
50
89.999999
51
-179.999998
0
LINE
5
6c0
100
AcDbEntity
8
1
100
AcDbLine
6
CONTINUOUS
62
5
10
116.294143
20
204.250000
11
149.294143
21
204.250000
0
ARC
5
6c1
100
AcDbEntity
8
1
100
AcDbCircle
6
CONTINUOUS
62
5
10
149.294143
20
200.400000
40
3.850000
100
AcDbArc
50
-0.000000
51
89.999999
0
LINE
5
6c2
100
AcDbEntity
8
1
100
AcDbLine
6
CONTINUOUS
62
5
10
153.144143
20
200.400000
11
153.144143
21
119.600000
0
ARC
5
6c3
100
AcDbEntity
8
1
100
AcDbCircle
6
CONTINUOUS
62
5
10
151.594143
20
201.800000
40
6.750000
100
AcDbArc
50
0.000000
51
89.999999
0
LINE
5
6c4
100
AcDbEntity
8
1
100
AcDbLine
6
CONTINUOUS
62
5
10
158.344143
20
201.800000
11
158.344143
21
118.200000
0
ARC
5
6c5
100
AcDbEntity
8
1
100
AcDbCircle
6
CONTINUOUS
62
5
10
151.594143
20
118.200000
40
6.750000
100
AcDbArc
50
-89.999999
51
0.000000
0
LINE
5
6c6
100
AcDbEntity
8
1
100
AcDbLine
6
CONTINUOUS
62
5
10
151.594143
20
111.450000
11
113.994143
21
111.450000
0
ARC
5
6c7
100
AcDbEntity
8
1
100
AcDbCircle
6
CONTINUOUS
62
5
10
113.994143
20
118.200000
40
6.750000
100
AcDbArc
50
179.999998
51
-89.999999
0
LINE
5
6c8
100
AcDbEntity
8
1
100
AcDbLine
6
CONTINUOUS
62
5
10
107.244143
20
118.200000
11
107.244143
21
201.800000
0
ARC
5
6c9
100
AcDbEntity
8
1
100
AcDbCircle
6
CONTINUOUS
62
5
10
113.994143
20
201.800000
40
6.750000
100
AcDbArc
50
89.999999
51
179.999998
0
LINE
5
6ca
100
AcDbEntity
8
1
100
AcDbLine
6
CONTINUOUS
62
5
10
113.994143
20
208.550000
11
151.594143
21
208.550000
0
ARC
5
6cb
100
AcDbEntity
8
1
100
AcDbCircle
6
CONTINUOUS
62
5
10
151.594143
20
201.800000
40
7.000000
100
AcDbArc
50
0.000000
51
89.999999
0
LINE
5
6cc
100
AcDbEntity
8
1
100
AcDbLine
6
CONTINUOUS
62
5
10
151.594143
20
208.800000
11
143.794143
21
208.800000
0
LINE
5
6cd
100
AcDbEntity
8
1
100
AcDbLine
6
CONTINUOUS
62
5
10
121.794143
20
208.800000
11
113.994143
21
208.800000
0
ARC
5
6ce
100
AcDbEntity
8
1
100
AcDbCircle
6
CONTINUOUS
62
5
10
113.994143
20
201.800000
40
7.000000
100
AcDbArc
50
89.999999
51
179.999998
0
LINE
5
6cf
100
AcDbEntity
8
1
100
AcDbLine
6
CONTINUOUS
62
5
10
106.994143
20
201.800000
11
106.994143
21
118.200000
0
ARC
5
6d0
100
AcDbEntity
8
1
100
AcDbCircle
6
CONTINUOUS
62
5
10
113.994143
20
118.200000
40
7.000000
100
AcDbArc
50
179.999998
51
-89.999999
0
LINE
5
6d1
100
AcDbEntity
8
1
100
AcDbLine
6
CONTINUOUS
62
5
10
113.994143
20
111.200000
11
151.594143
21
111.200000
0
ARC
5
6d2
100
AcDbEntity
8
1
100
AcDbCircle
6
CONTINUOUS
62
5
10
151.594143
20
118.200000
40
7.000000
100
AcDbArc
50
-89.999999
51
0.000000
0
LINE
5
6d3
100
AcDbEntity
8
1
100
AcDbLine
6
CONTINUOUS
62
5
10
158.594143
20
118.200000
11
158.594143
21
201.800000
0
ARC
5
6d4
100
AcDbEntity
8
1
100
AcDbCircle
6
CONTINUOUS
62
5
10
151.594143
20
201.800000
40
7.000000
100
AcDbArc
50
0.000000
51
89.999999
0
LINE
5
6d5
100
AcDbEntity
8
1
100
AcDbLine
6
CONTINUOUS
62
5
10
158.594143
20
201.800000
11
158.594143
21
118.200000
0
ARC
5
6d6
100
AcDbEntity
8
1
100
AcDbCircle
6
CONTINUOUS
62
5
10
151.594143
20
118.200000
40
7.000000
100
AcDbArc
50
-89.999999
51
0.000000
0
LINE
5
6d7
100
AcDbEntity
8
1
100
AcDbLine
6
CONTINUOUS
62
5
10
151.594143
20
111.200000
11
113.994143
21
111.200000
0
ARC
5
6d8
100
AcDbEntity
8
1
100
AcDbCircle
6
CONTINUOUS
62
5
10
113.994143
20
118.200000
40
7.000000
100
AcDbArc
50
179.999998
51
-89.999999
0
LINE
5
6d9
100
AcDbEntity
8
1
100
AcDbLine
6
CONTINUOUS
62
5
10
106.994143
20
118.200000
11
106.994143
21
201.800000
0
ARC
5
6da
100
AcDbEntity
8
1
100
AcDbCircle
6
CONTINUOUS
62
5
10
113.994143
20
201.800000
40
7.000000
100
AcDbArc
50
89.999999
51
179.999998
0
POLYLINE
5
6db
100
AcDbEntity
8
1
6
CONTINUOUS
62
5
100
AcDb2dPolyline
66
1
10
0.0
20
0.0
30
0.0
70
0
0
VERTEX
5
6dc
100
AcDbEntity
8
1
100
AcDbVertex
100
AcDb2dVertex
62
5
10
113.994143
20
208.800000
0
VERTEX
5
6dd
100
AcDbEntity
8
1
100
AcDbVertex
100
AcDb2dVertex
62
5
10
123.794143
20
208.800000
0
VERTEX
5
6de
100
AcDbEntity
8
1
100
AcDbVertex
100
AcDb2dVertex
62
5
10
125.044143
20
208.777632
0
VERTEX
5
6df
100
AcDbEntity
8
1
100
AcDbVertex
100
AcDb2dVertex
62
5
10
140.544143
20
208.777632
0
VERTEX
5
6e0
100
AcDbEntity
8
1
100
AcDbVertex
100
AcDb2dVertex
62
5
10
141.794143
20
208.800000
0
VERTEX
5
6e1
100
AcDbEntity
8
1
100
AcDbVertex
100
AcDb2dVertex
62
5
10
151.594143
20
208.800000
0
SEQEND
5
6e2
100
AcDbEntity
8
1
0
ARC
5
6e3
100
AcDbEntity
8
1
100
AcDbCircle
6
CONTINUOUS
62
5
10
151.594143
20
118.200000
40
7.200000
100
AcDbArc
50
-89.999999
51
0.000000
0
LINE
5
6e4
100
AcDbEntity
8
1
100
AcDbLine
6
CONTINUOUS
62
5
10
158.794143
20
118.200000
11
158.794143
21
201.800000
0
ARC
5
6e5
100
AcDbEntity
8
1
100
AcDbCircle
6
CONTINUOUS
62
5
10
151.594143
20
201.800000
40
7.200000
100
AcDbArc
50
0.000000
51
89.999999
0
LINE
5
6e6
100
AcDbEntity
8
1
100
AcDbLine
6
CONTINUOUS
62
5
10
151.594143
20
209.000000
11
143.794143
21
209.000000
0
LINE
5
6e7
100
AcDbEntity
8
1
100
AcDbLine
6
CONTINUOUS
62
5
10
121.794143
20
209.000000
11
113.994143
21
209.000000
0
ARC
5
6e8
100
AcDbEntity
8
1
100
AcDbCircle
6
CONTINUOUS
62
5
10
113.994143
20
201.800000
40
7.200000
100
AcDbArc
50
89.999999
51
179.999998
0
LINE
5
6e9
100
AcDbEntity
8
1
100
AcDbLine
6
CONTINUOUS
62
5
10
106.794143
20
201.800000
11
106.794143
21
118.200000
0
ARC
5
6ea
100
AcDbEntity
8
1
100
AcDbCircle
6
CONTINUOUS
62
5
10
113.994143
20
118.200000
40
7.200000
100
AcDbArc
50
179.999998
51
-89.999999
0
LINE
5
6eb
100
AcDbEntity
8
1
100
AcDbLine
6
CONTINUOUS
62
5
10
113.994143
20
111.000000
11
151.594143
21
111.000000
0
POLYLINE
5
6ec
100
AcDbEntity
8
1
6
CONTINUOUS
62
5
100
AcDb2dPolyline
66
1
10
0.0
20
0.0
30
0.0
70
0
0
VERTEX
5
6ed
100
AcDbEntity
8
1
100
AcDbVertex
100
AcDb2dVertex
62
5
10
330.000000
20
0.000000
0
VERTEX
5
6ee
100
AcDbEntity
8
1
100
AcDbVertex
100
AcDb2dVertex
62
5
10
340.000000
20
0.000000
0
VERTEX
5
6ef
100
AcDbEntity
8
1
100
AcDbVertex
100
AcDb2dVertex
62
5
10
340.000000
20
10.000000
0
SEQEND
5
6f0
100
AcDbEntity
8
1
0
POLYLINE
5
6f1
100
AcDbEntity
8
1
6
CONTINUOUS
62
5
100
AcDb2dPolyline
66
1
10
0.0
20
0.0
30
0.0
70
0
0
VERTEX
5
6f2
100
AcDbEntity
8
1
100
AcDbVertex
100
AcDb2dVertex
62
5
10
340.000000
20
350.000000
0
VERTEX
5
6f3
100
AcDbEntity
8
1
100
AcDbVertex
100
AcDb2dVertex
62
5
10
340.000000
20
360.000000
0
VERTEX
5
6f4
100
AcDbEntity
8
1
100
AcDbVertex
100
AcDb2dVertex
62
5
10
330.000000
20
360.000000
0
SEQEND
5
6f5
100
AcDbEntity
8
1
0
POLYLINE
5
6f6
100
AcDbEntity
8
1
6
CONTINUOUS
62
5
100
AcDb2dPolyline
66
1
10
0.0
20
0.0
30
0.0
70
0
0
VERTEX
5
6f7
100
AcDbEntity
8
1
100
AcDbVertex
100
AcDb2dVertex
62
5
10
10.000000
20
360.000000
0
VERTEX
5
6f8
100
AcDbEntity
8
1
100
AcDbVertex
100
AcDb2dVertex
62
5
10
0.000000
20
360.000000
0
VERTEX
5
6f9
100
AcDbEntity
8
1
100
AcDbVertex
100
AcDb2dVertex
62
5
10
-0.000000
20
350.000000
0
SEQEND
5
6fa
100
AcDbEntity
8
1
0
POLYLINE
5
6fb
100
AcDbEntity
8
1
6
CONTINUOUS
62
5
100
AcDb2dPolyline
66
1
10
0.0
20
0.0
30
0.0
70
0
0
VERTEX
5
6fc
100
AcDbEntity
8
1
100
AcDbVertex
100
AcDb2dVertex
62
5
10
-0.000000
20
10.000000
0
VERTEX
5
6fd
100
AcDbEntity
8
1
100
AcDbVertex
100
AcDb2dVertex
62
5
10
0.000000
20
0.000000
0
VERTEX
5
6fe
100
AcDbEntity
8
1
100
AcDbVertex
100
AcDb2dVertex
62
5
10
10.000000
20
0.000000
0
SEQEND
5
6ff
100
AcDbEntity
8
1
0
POLYLINE
5
700
100
AcDbEntity
8
1
6
CONTINUOUS
62
5
100
AcDb2dPolyline
66
1
10
0.0
20
0.0
30
0.0
70
1
0
VERTEX
5
701
100
AcDbEntity
8
1
100
AcDbVertex
100
AcDb2dVertex
62
5
10
12.644141
20
10.000000
0
VERTEX
5
702
100
AcDbEntity
8
1
100
AcDbVertex
100
AcDb2dVertex
62
5
10
12.644141
20
350.000000
0
VERTEX
5
703
100
AcDbEntity
8
1
100
AcDbVertex
100
AcDb2dVertex
62
5
10
332.644141
20
350.000000
0
VERTEX
5
704
100
AcDbEntity
8
1
100
AcDbVertex
100
AcDb2dVertex
62
5
10
332.644141
20
10.000000
0
VERTEX
5
705
100
AcDbEntity
8
1
100
AcDbVertex
100
AcDb2dVertex
62
5
10
12.644141
20
10.000000
0
SEQEND
5
706
100
AcDbEntity
8
1
0
ENDSEC
0
SECTION
2
OBJECTS
0
DICTIONARY
5
707
100
AcDbDictionary
3
ACAD_GROUP
350
708
3
ACAD_MLINESTYLE
350
709
0
DICTIONARY
5
708
102
{ACAD_REACTORS
330
707
102
}
100
AcDbDictionary
0
DICTIONARY
5
709
102
{ACAD_REACTORS
330
707
102
}
100
AcDbDictionary
3
STANDARD
350
70a
0
MLINESTYLE
5
70a
102
{ACAD_REACTORS
330
709
102
}
100
AcDbMlineStyle
2
STANDARD
70
0
3

62
0
51
90.0
52
90.0
71
2
49
0.5
62
256
6
BYLAYER
49
-0.5
62
256
6
BYLAYER
0
ENDSEC
0
EOF
