0
SECTION
2
HEADER
9
$ACADVER
1
AC1012
9
$EXTMIN
10
-0.010000
20
-0.010000
30
0.0
9
$EXTMAX
10
13.390000
20
14.180000
30
0.0
9
$LIMMIN
10
-0.254000
20
-0.254000
9
$LIMMAX
10
340.106000
20
360.172000
9
$DIMSCALE
40
1.000000
9
$PDMODE
70
2
9
$PDSIZE
40
0.0
  9
$HANDSEED
  5
bc7
0
ENDSEC
0
SECTION
2
CLASSES
0
ENDSEC
0
SECTION
2
TABLES
0
TABLE
2
LTYPE
5
1e
100
AcDbSymbolTable
70
12
0
LTYPE
5
1f
100
AcDbSymbolTableRecord
100
AcDbLinetypeTableRecord
2
BYBLOCK
70
0
3

72
65
73
0
40
0.0
0
LTYPE
5
20
100
AcDbSymbolTableRecord
100
AcDbLinetypeTableRecord
2
BYLAYER
70
0
3

72
65
73
0
40
0.0
0
LTYPE
5
21
100
AcDbSymbolTableRecord
100
AcDbLinetypeTableRecord
2
CONTINUOUS
70
64
3
Solid line
72
65
73
0
40
0.0
0
LTYPE
5
22
100
AcDbSymbolTableRecord
100
AcDbLinetypeTableRecord
2
DASHED
70
64
3
__ __ __ __ __ __ __ __ __ __ __ __ __ __ __
72
65
73
2
40
0.75
49
0.5
74
0
49
-0.25
74
0
0
LTYPE
5
23
100
AcDbSymbolTableRecord
100
AcDbLinetypeTableRecord
2
DOT
70
64
3
...............................................
72
65
73
2
40
0.25
49
0.0
74
0
49
-0.25
74
0
0
LTYPE
5
24
100
AcDbSymbolTableRecord
100
AcDbLinetypeTableRecord
2
DASHDOT
70
64
3
__ . __ . __ . __ . __ . __ . __ . __ . __ . --
72
65
73
4
40
1.0
49
0.5
74
0
49
-0.25
74
0
49
0.0
74
0
49
-0.25
74
0
0
LTYPE
5
25
100
AcDbSymbolTableRecord
100
AcDbLinetypeTableRecord
2
CENTER
70
64
3
____ _ ____ _ ____ _ ____ _ ____ _ ____ _ ____
72
65
73
4
40
2.0
49
1.25
74
0
49
-0.25
74
0
49
0.25
74
0
49
-0.25
74
0
0
LTYPE
5
26
100
AcDbSymbolTableRecord
100
AcDbLinetypeTableRecord
2
PHANTOM
70
64
3
_____ _ _ _____ _ _ _____ _ _ _____ _ _ ____
72
65
73
6
40
2.5
49
1.25
74
0
49
-0.25
74
0
49
0.25
74
0
49
-0.25
74
0
49
0.25
74
0
49
-0.25
74
0
0
LTYPE
5
27
100
AcDbSymbolTableRecord
100
AcDbLinetypeTableRecord
2
HIDDEN
70
64
3
_ _ _ _ _ _ _ _ _ _ _ _ _ _ _ _ _ _ _ _ _ _ _
72
65
73
2
40
0.375
49
0.25
74
0
49
-0.125
74
0
0
LTYPE
5
28
100
AcDbSymbolTableRecord
100
AcDbLinetypeTableRecord
2
BORDER
70
64
3
__ __ . __ __ . __ __ . __ __ . __ __ . __ __
72
65
73
6
40
1.75
49
0.5
74
0
49
-0.25
74
0
49
0.5
74
0
49
-0.25
74
0
49
0.0
74
0
49
-0.25
74
0
0
LTYPE
5
29
100
AcDbSymbolTableRecord
100
AcDbLinetypeTableRecord
2
DIVIDE
70
64
3
__ . . __ . . __ . . __ . . __ . . __ . . __
72
65
73
6
40
1.25
49
0.5
74
0
49
-0.25
74
0
49
0.0
74
0
49
-0.25
74
0
49
0.0
74
0
49
-0.25
74
0
0
LTYPE
5
2a
100
AcDbSymbolTableRecord
100
AcDbLinetypeTableRecord
2
DOT2
70
64
3
...............................................
72
65
73
2
40
0.125
49
0.0
74
0
49
-0.125
74
0
0
ENDTAB
0
TABLE
2
STYLE
5
2b
100
AcDbSymbolTable
70
1
0
STYLE
5
2c
100
AcDbSymbolTableRecord
100
AcDbTextStyleTableRecord
2
STANDARD
70
64
40
0.0
41
1.0
50
0.0
71
0
42
5.0
3
txt
4
bigfont
0
ENDTAB
0
TABLE
2
LAYER
5
2d
100
AcDbSymbolTable
70
2
0
LAYER
5
2e
100
AcDbSymbolTableRecord
100
AcDbLayerTableRecord
2
0
70
0
62
7
6
CONTINUOUS
0
LAYER
5
2f
100
AcDbSymbolTableRecord
100
AcDbLayerTableRecord
2
1
70
0
62
7
6
CONTINUOUS
0
ENDTAB
0
TABLE
2
APPID
5
30
100
AcDbSymbolTable
70
1
0
APPID
5
31
100
AcDbSymbolTableRecord
100
AcDbRegAppTableRecord
2
ACAD
70
64
0
ENDTAB
0
TABLE
2
DIMSTYLE
5
32
100
AcDbSymbolTable
70
0
0
ENDTAB
0
TABLE
2
UCS
5
33
100
AcDbSymbolTable
70
0
0
ENDTAB
0
TABLE
2
VIEW
5
34
100
AcDbSymbolTable
70
0
0
ENDTAB
0
TABLE
2
VPORT
5
35
100
AcDbSymbolTable
70
0
0
ENDTAB
0
TABLE
2
BLOCK_RECORD
5
36
100
AcDbSymbolTable
70
0
0
BLOCK_RECORD
5
37
100
AcDbSymbolTableRecord
100
AcDbBlockTableRecord
2
*MODEL_SPACE
0
BLOCK_RECORD
5
38
100
AcDbSymbolTableRecord
100
AcDbBlockTableRecord
2
*PAPER_SPACE
0
BLOCK_RECORD
5
39
100
AcDbSymbolTableRecord
100
AcDbBlockTableRecord
2
OPEN
0
BLOCK_RECORD
5
3a
100
AcDbSymbolTableRecord
100
AcDbBlockTableRecord
2
HALF
0
BLOCK_RECORD
5
3b
100
AcDbSymbolTableRecord
100
AcDbBlockTableRecord
2
CLOSEDBLANK
0
BLOCK_RECORD
5
3c
100
AcDbSymbolTableRecord
100
AcDbBlockTableRecord
2
HALFCLOSE_R
0
BLOCK_RECORD
5
3d
100
AcDbSymbolTableRecord
100
AcDbBlockTableRecord
2
DOT
0
BLOCK_RECORD
5
3e
100
AcDbSymbolTableRecord
100
AcDbBlockTableRecord
2
HALFOPEN_R
0
BLOCK_RECORD
5
3f
100
AcDbSymbolTableRecord
100
AcDbBlockTableRecord
2
CLOSEDF
0
BLOCK_RECORD
5
40
100
AcDbSymbolTableRecord
100
AcDbBlockTableRecord
2
HALF_R
0
ENDTAB
0
ENDSEC
0
SECTION
2
BLOCKS
0
BLOCK
5
41
100
AcDbEntity
8
0
100
AcDbBlockBegin
2
*MODEL_SPACE
70
0
10
0.0
20
0.0
30
0.0
3
*MODEL_SPACE
1

0
ENDBLK
5
42
100
AcDbEntity
8
0
100
AcDbBlockEnd
0
BLOCK
5
43
100
AcDbEntity
67
1
8
0
100
AcDbBlockBegin
2
*PAPER_SPACE
70
0
10
0.0
20
0.0
30
0.0
3
*PAPER_SPACE
1

0
ENDBLK
5
44
100
AcDbEntity
67
1
8
0
100
AcDbBlockEnd
0
BLOCK
5
45
100
AcDbEntity
8
0
100
AcDbBlockBegin
2
OPEN
70
0
10
0.0
20
0.0
30
0.0
3
OPEN
1

0
LINE
5
46
100
AcDbEntity
8
0
6
BYBLOCK
62
0
100
AcDbLine
10
0.000000
20
0.000000
11
-1.000000
21
0.000000
0
LINE
5
47
100
AcDbEntity
8
0
6
BYBLOCK
62
0
100
AcDbLine
10
-1.000000
20
-0.166667
11
0.000000
21
0.000000
0
LINE
5
48
100
AcDbEntity
8
0
6
BYBLOCK
62
0
100
AcDbLine
10
-1.000000
20
0.166667
11
0.000000
21
0.000000
0
ENDBLK
5
49
100
AcDbEntity
8
0
100
AcDbBlockEnd
0
BLOCK
5
4a
100
AcDbEntity
8
0
100
AcDbBlockBegin
2
HALF
70
0
10
0.0
20
0.0
30
0.0
3
HALF
1

0
SOLID
5
4b
100
AcDbEntity
8
0
6
BYBLOCK
62
0
100
AcDbTrace
10
-1.000000
20
0.166667
11
-1.000000
21
-0.166667
12
0.000000
22
0.000000
13
0.000000
23
0.000000
0
ENDBLK
5
4c
100
AcDbEntity
8
0
100
AcDbBlockEnd
0
BLOCK
5
4d
100
AcDbEntity
8
0
100
AcDbBlockBegin
2
CLOSEDBLANK
70
0
10
0.0
20
0.0
30
0.0
3
CLOSEDBLANK
1

0
LINE
5
4e
100
AcDbEntity
8
0
6
BYBLOCK
62
0
100
AcDbLine
10
-1.000000
20
0.166667
11
-1.000000
21
-0.166667
0
LINE
5
4f
100
AcDbEntity
8
0
6
BYBLOCK
62
0
100
AcDbLine
10
0.000000
20
0.000000
11
-1.000000
21
-0.166667
0
LINE
5
50
100
AcDbEntity
8
0
6
BYBLOCK
62
0
100
AcDbLine
10
-1.000000
20
0.166667
11
0.000000
21
0.000000
0
ENDBLK
5
51
100
AcDbEntity
8
0
100
AcDbBlockEnd
0
BLOCK
5
52
100
AcDbEntity
8
0
100
AcDbBlockBegin
2
HALFCLOSE_R
70
0
10
0.0
20
0.0
30
0.0
3
HALFCLOSE_R
1

0
LINE
5
53
100
AcDbEntity
8
0
6
BYBLOCK
62
0
100
AcDbLine
10
-1.000000
20
-0.166667
11
-1.000000
21
0.000000
0
LINE
5
54
100
AcDbEntity
8
0
6
BYBLOCK
62
0
100
AcDbLine
10
-1.000000
20
-0.166667
11
0.000000
21
0.000000
0
LINE
5
55
100
AcDbEntity
8
0
6
BYBLOCK
62
0
100
AcDbLine
10
0.000000
20
0.000000
11
-1.000000
21
0.000000
0
ENDBLK
5
56
100
AcDbEntity
8
0
100
AcDbBlockEnd
0
BLOCK
5
57
100
AcDbEntity
8
0
100
AcDbBlockBegin
2
DOT
70
0
10
0.0
20
0.0
30
0.0
3
DOT
1

0
LINE
5
58
100
AcDbEntity
8
0
6
BYBLOCK
62
0
100
AcDbLine
10
0.000000
20
0.000000
11
-1.000000
21
0.000000
0
POLYLINE
5
59
100
AcDbEntity
8
0
6
BYBLOCK
62
0
100
AcDb2dPolyline
66
1
10
0.0
20
0.0
30
0.0
70
1
40
0.166667
41
0.166667
0
VERTEX
5
5a
100
AcDbEntity
8
0
100
AcDbVertex
100
AcDb2dVertex
62
10
10
-0.083333
20
0.000000
42
1.000000
0
VERTEX
5
5b
100
AcDbEntity
8
0
100
AcDbVertex
100
AcDb2dVertex
62
10
10
0.083333
20
0.000000
42
1.000000
0
SEQEND
5
5c
100
AcDbEntity
8
0
0
ENDBLK
5
5d
100
AcDbEntity
8
0
100
AcDbBlockEnd
0
BLOCK
5
5e
100
AcDbEntity
8
0
100
AcDbBlockBegin
2
HALFOPEN_R
70
0
10
0.0
20
0.0
30
0.0
3
HALFOPEN_R
1

0
LINE
5
5f
100
AcDbEntity
8
0
6
BYBLOCK
62
0
100
AcDbLine
10
-1.000000
20
-0.166667
11
0.000000
21
0.000000
0
LINE
5
60
100
AcDbEntity
8
0
6
BYBLOCK
62
0
100
AcDbLine
10
0.000000
20
0.000000
11
-1.000000
21
0.000000
0
ENDBLK
5
61
100
AcDbEntity
8
0
100
AcDbBlockEnd
0
BLOCK
5
62
100
AcDbEntity
8
0
100
AcDbBlockBegin
2
CLOSEDF
70
0
10
0.0
20
0.0
30
0.0
3
CLOSEDF
1

0
SOLID
5
63
100
AcDbEntity
8
0
6
BYBLOCK
62
0
100
AcDbTrace
10
-1.000000
20
0.166667
11
-1.000000
21
-0.166667
12
0.000000
22
0.000000
13
0.000000
23
0.000000
0
ENDBLK
5
64
100
AcDbEntity
8
0
100
AcDbBlockEnd
0
BLOCK
5
65
100
AcDbEntity
8
0
100
AcDbBlockBegin
2
HALF_R
70
0
10
0.0
20
0.0
30
0.0
3
HALF_R
1

0
SOLID
5
66
100
AcDbEntity
8
0
6
BYBLOCK
62
0
100
AcDbTrace
10
-1.000000
20
-0.166667
11
-1.000000
21
0.000000
12
0.000000
22
0.000000
13
0.000000
23
0.000000
0
ENDBLK
5
67
100
AcDbEntity
8
0
100
AcDbBlockEnd
0
ENDSEC
0
SECTION
2
ENTITIES
0
POLYLINE
5
68
100
AcDbEntity
8
1
6
DOT2
62
5
100
AcDb2dPolyline
66
1
10
0.0
20
0.0
30
0.0
70
0
0
VERTEX
5
69
100
AcDbEntity
8
1
100
AcDbVertex
100
AcDb2dVertex
62
5
10
232.449994
20
249.750000
0
VERTEX
5
6a
100
AcDbEntity
8
1
100
AcDbVertex
100
AcDb2dVertex
62
5
10
229.637494
20
244.125000
0
VERTEX
5
6b
100
AcDbEntity
8
1
100
AcDbVertex
100
AcDb2dVertex
62
5
10
233.387494
20
244.125000
0
SEQEND
5
6c
100
AcDbEntity
8
1
0
LINE
5
6d
100
AcDbEntity
8
1
100
AcDbLine
6
DOT2
62
5
10
232.449994
20
249.750000
11
232.449994
21
242.250000
0
LINE
5
6e
100
AcDbEntity
8
1
100
AcDbLine
6
DOT2
62
5
10
231.824994
20
242.250000
11
233.074994
21
242.250000
0
ARC
5
6f
100
AcDbEntity
8
1
100
AcDbCircle
6
CONTINUOUS
62
5
10
217.999994
20
213.750001
40
0.500000
100
AcDbArc
50
-179.999998
51
-89.999999
0
LINE
5
70
100
AcDbEntity
8
1
100
AcDbLine
6
CONTINUOUS
62
5
10
217.499994
20
213.750001
11
217.499994
21
215.500000
0
ARC
5
71
100
AcDbEntity
8
1
100
AcDbCircle
6
CONTINUOUS
62
5
10
217.999994
20
215.500000
40
0.500000
100
AcDbArc
50
89.999999
51
179.999998
0
ARC
5
72
100
AcDbEntity
8
1
100
AcDbCircle
6
CONTINUOUS
62
5
10
217.699991
20
213.750001
40
0.500000
100
AcDbArc
50
179.999998
51
-89.999999
0
LINE
5
73
100
AcDbEntity
8
1
100
AcDbLine
6
CONTINUOUS
62
5
10
218.699994
20
213.250001
11
217.699991
21
213.250001
0
ARC
5
74
100
AcDbEntity
8
1
100
AcDbCircle
6
CONTINUOUS
62
5
10
217.699991
20
209.500002
40
0.500000
100
AcDbArc
50
179.999998
51
-89.999999
0
LINE
5
75
100
AcDbEntity
8
1
100
AcDbLine
6
CONTINUOUS
62
5
10
217.199991
20
209.500002
11
217.199991
21
215.500000
0
ARC
5
76
100
AcDbEntity
8
1
100
AcDbCircle
6
CONTINUOUS
62
5
10
217.699991
20
215.500000
40
0.500000
100
AcDbArc
50
161.564972
51
-179.999998
0
LINE
5
77
100
AcDbEntity
8
1
100
AcDbLine
6
CONTINUOUS
62
5
10
218.699994
20
209.000002
11
217.699991
21
209.000002
0
ARC
5
78
100
AcDbEntity
8
1
100
AcDbCircle
6
CONTINUOUS
62
5
10
216.599991
20
208.500002
40
0.500000
100
AcDbArc
50
89.999999
51
-179.999998
0
POLYLINE
5
79
100
AcDbEntity
8
1
6
CONTINUOUS
62
5
100
AcDb2dPolyline
66
1
10
0.0
20
0.0
30
0.0
70
0
0
VERTEX
5
7a
100
AcDbEntity
8
1
100
AcDbVertex
100
AcDb2dVertex
62
5
10
216.599991
20
209.000002
0
VERTEX
5
7b
100
AcDbEntity
8
1
100
AcDbVertex
100
AcDb2dVertex
62
5
10
217.199991
20
209.000002
0
VERTEX
5
7c
100
AcDbEntity
8
1
100
AcDbVertex
100
AcDb2dVertex
62
5
10
217.199991
20
209.500002
0
SEQEND
5
7d
100
AcDbEntity
8
1
0
LINE
5
7e
100
AcDbEntity
8
1
100
AcDbLine
6
CONTINUOUS
62
5
10
216.099992
20
206.150003
11
216.349992
21
205.900003
0
ARC
5
7f
100
AcDbEntity
8
1
100
AcDbCircle
6
CONTINUOUS
62
5
10
215.199992
20
199.500005
40
0.500000
100
AcDbArc
50
89.999999
51
179.999998
0
LINE
5
80
100
AcDbEntity
8
1
100
AcDbLine
6
CONTINUOUS
62
5
10
215.999992
20
200.000005
11
215.199992
21
200.000005
0
ARC
5
81
100
AcDbEntity
8
1
100
AcDbCircle
6
CONTINUOUS
62
5
10
219.549984
20
190.600008
40
0.200000
100
AcDbArc
50
89.999999
51
-179.999998
0
LINE
5
82
100
AcDbEntity
8
1
100
AcDbLine
6
CONTINUOUS
62
5
10
219.549984
20
190.800008
11
221.999984
21
190.800008
0
ARC
5
83
100
AcDbEntity
8
1
100
AcDbCircle
6
CONTINUOUS
62
5
10
221.999984
20
191.300008
40
0.500000
100
AcDbArc
50
-89.999993
51
-0.000000
0
LINE
5
84
100
AcDbEntity
8
1
100
AcDbLine
6
CONTINUOUS
62
5
10
222.499984
20
191.300008
11
222.499984
21
191.500008
0
ARC
5
85
100
AcDbEntity
8
1
100
AcDbCircle
6
CONTINUOUS
62
5
10
221.999984
20
191.500008
40
0.500000
100
AcDbArc
50
0.000000
51
89.933642
0
LINE
5
86
100
AcDbEntity
8
1
100
AcDbLine
6
CONTINUOUS
62
5
10
220.349984
20
188.250010
11
220.349984
21
190.800008
0
ARC
5
87
100
AcDbEntity
8
1
100
AcDbCircle
6
CONTINUOUS
62
5
10
217.549984
20
190.000016
40
1.000000
100
AcDbArc
50
-18.194872
51
18.194872
0
POLYLINE
5
88
100
AcDbEntity
8
1
6
CONTINUOUS
62
5
100
AcDb2dPolyline
66
1
10
0.0
20
0.0
30
0.0
70
0
0
VERTEX
5
89
100
AcDbEntity
8
1
100
AcDbVertex
100
AcDb2dVertex
62
5
10
219.349984
20
188.250010
0
VERTEX
5
8a
100
AcDbEntity
8
1
100
AcDbVertex
100
AcDb2dVertex
62
5
10
219.349984
20
191.300017
0
VERTEX
5
8b
100
AcDbEntity
8
1
100
AcDbVertex
100
AcDb2dVertex
62
5
10
218.499984
20
191.300017
0
SEQEND
5
8c
100
AcDbEntity
8
1
0
LINE
5
8d
100
AcDbEntity
8
1
100
AcDbLine
6
CONTINUOUS
62
5
10
218.499984
20
188.250010
11
218.499984
21
192.000007
0
ARC
5
8e
100
AcDbEntity
8
1
100
AcDbCircle
6
CONTINUOUS
62
5
10
223.786768
20
195.247757
40
0.500000
100
AcDbArc
50
64.758715
51
84.259946
0
LINE
5
8f
100
AcDbEntity
8
1
100
AcDbLine
6
CONTINUOUS
62
5
10
218.699994
20
196.361938
11
223.836776
21
195.745250
0
ARC
5
90
100
AcDbEntity
8
1
100
AcDbCircle
6
CONTINUOUS
62
5
10
215.699992
20
201.500004
40
1.000000
100
AcDbArc
50
89.999999
51
179.999998
0
ARC
5
91
100
AcDbEntity
8
1
100
AcDbCircle
6
CONTINUOUS
62
5
10
215.199992
20
202.000004
40
0.500000
100
AcDbArc
50
89.999999
51
-179.999998
0
LINE
5
92
100
AcDbEntity
8
1
100
AcDbLine
6
CONTINUOUS
62
5
10
218.699994
20
202.500004
11
215.199992
21
202.500004
0
LINE
5
93
100
AcDbEntity
8
1
100
AcDbLine
6
CONTINUOUS
62
5
10
214.699992
20
207.150003
11
214.699992
21
243.000000
0
LINE
5
94
100
AcDbEntity
8
1
100
AcDbLine
6
CONTINUOUS
62
5
10
218.699994
20
217.500000
11
218.699994
21
243.000000
0
POLYLINE
5
95
100
AcDbEntity
8
1
6
CONTINUOUS
62
5
100
AcDb2dPolyline
66
1
10
0.0
20
0.0
30
0.0
70
0
0
VERTEX
5
96
100
AcDbEntity
8
1
100
AcDbVertex
100
AcDb2dVertex
62
5
10
234.949994
20
241.000000
0
VERTEX
5
97
100
AcDbEntity
8
1
100
AcDbVertex
100
AcDb2dVertex
62
5
10
218.699994
20
241.000000
0
VERTEX
5
98
100
AcDbEntity
8
1
100
AcDbVertex
100
AcDb2dVertex
62
5
10
224.699994
20
242.000000
0
VERTEX
5
99
100
AcDbEntity
8
1
100
AcDbVertex
100
AcDb2dVertex
62
5
10
224.699994
20
240.000000
0
VERTEX
5
9a
100
AcDbEntity
8
1
100
AcDbVertex
100
AcDb2dVertex
62
5
10
218.699994
20
241.000000
0
VERTEX
5
9b
100
AcDbEntity
8
1
100
AcDbVertex
100
AcDb2dVertex
62
5
10
224.699994
20
241.500000
0
VERTEX
5
9c
100
AcDbEntity
8
1
100
AcDbVertex
100
AcDb2dVertex
62
5
10
224.699994
20
240.500000
0
VERTEX
5
9d
100
AcDbEntity
8
1
100
AcDbVertex
100
AcDb2dVertex
62
5
10
218.699994
20
241.000000
0
SEQEND
5
9e
100
AcDbEntity
8
1
0
LINE
5
9f
100
AcDbEntity
8
1
100
AcDbLine
6
CONTINUOUS
62
5
10
218.699994
20
241.000000
11
214.699992
21
241.000000
0
POLYLINE
5
a0
100
AcDbEntity
8
1
6
CONTINUOUS
62
5
100
AcDb2dPolyline
66
1
10
0.0
20
0.0
30
0.0
70
0
0
VERTEX
5
a1
100
AcDbEntity
8
1
100
AcDbVertex
100
AcDb2dVertex
62
5
10
205.699992
20
241.000000
0
VERTEX
5
a2
100
AcDbEntity
8
1
100
AcDbVertex
100
AcDb2dVertex
62
5
10
214.699992
20
241.000000
0
VERTEX
5
a3
100
AcDbEntity
8
1
100
AcDbVertex
100
AcDb2dVertex
62
5
10
208.699992
20
240.000000
0
VERTEX
5
a4
100
AcDbEntity
8
1
100
AcDbVertex
100
AcDb2dVertex
62
5
10
208.699992
20
242.000000
0
VERTEX
5
a5
100
AcDbEntity
8
1
100
AcDbVertex
100
AcDb2dVertex
62
5
10
214.699992
20
241.000000
0
VERTEX
5
a6
100
AcDbEntity
8
1
100
AcDbVertex
100
AcDb2dVertex
62
5
10
208.699992
20
240.500000
0
VERTEX
5
a7
100
AcDbEntity
8
1
100
AcDbVertex
100
AcDb2dVertex
62
5
10
208.699992
20
241.500000
0
VERTEX
5
a8
100
AcDbEntity
8
1
100
AcDbVertex
100
AcDb2dVertex
62
5
10
214.699992
20
241.000000
0
SEQEND
5
a9
100
AcDbEntity
8
1
0
LINE
5
aa
100
AcDbEntity
8
1
100
AcDbLine
6
CONTINUOUS
62
5
10
139.250000
20
335.875000
11
141.250000
21
335.875000
0
LINE
5
ab
100
AcDbEntity
8
1
100
AcDbLine
6
CONTINUOUS
62
5
10
140.250000
20
338.062500
11
140.250000
21
329.312500
0
LINE
5
ac
100
AcDbEntity
8
1
100
AcDbLine
6
CONTINUOUS
62
5
10
140.250000
20
335.250000
11
139.250000
21
331.812500
0
LINE
5
ad
100
AcDbEntity
8
1
100
AcDbLine
6
CONTINUOUS
62
5
10
140.250000
20
334.625000
11
141.000000
21
333.062500
0
LINE
5
ae
100
AcDbEntity
8
1
100
AcDbLine
6
CONTINUOUS
62
5
10
141.500000
20
336.812500
11
144.000000
21
336.812500
0
LINE
5
af
100
AcDbEntity
8
1
100
AcDbLine
6
CONTINUOUS
62
5
10
141.500000
20
335.250000
11
144.000000
21
335.250000
0
LINE
5
b0
100
AcDbEntity
8
1
100
AcDbLine
6
CONTINUOUS
62
5
10
142.750000
20
338.062500
11
142.750000
21
335.250000
0
POLYLINE
5
b1
100
AcDbEntity
8
1
6
CONTINUOUS
62
5
100
AcDb2dPolyline
66
1
10
0.0
20
0.0
30
0.0
70
1
0
VERTEX
5
b2
100
AcDbEntity
8
1
100
AcDbVertex
100
AcDb2dVertex
62
5
10
141.750000
20
334.312500
0
VERTEX
5
b3
100
AcDbEntity
8
1
100
AcDbVertex
100
AcDb2dVertex
62
5
10
141.750000
20
332.437500
0
VERTEX
5
b4
100
AcDbEntity
8
1
100
AcDbVertex
100
AcDb2dVertex
62
5
10
143.750000
20
332.437500
0
VERTEX
5
b5
100
AcDbEntity
8
1
100
AcDbVertex
100
AcDb2dVertex
62
5
10
143.750000
20
334.312500
0
VERTEX
5
b6
100
AcDbEntity
8
1
100
AcDbVertex
100
AcDb2dVertex
62
5
10
141.750000
20
334.312500
0
SEQEND
5
b7
100
AcDbEntity
8
1
0
LINE
5
b8
100
AcDbEntity
8
1
100
AcDbLine
6
CONTINUOUS
62
5
10
142.000000
20
331.500000
11
142.250000
21
330.250000
0
LINE
5
b9
100
AcDbEntity
8
1
100
AcDbLine
6
CONTINUOUS
62
5
10
143.500000
20
331.812500
11
143.000000
21
330.562500
0
LINE
5
ba
100
AcDbEntity
8
1
100
AcDbLine
6
CONTINUOUS
62
5
10
141.250000
20
329.625000
11
144.000000
21
330.250000
0
LINE
5
bb
100
AcDbEntity
8
1
100
AcDbLine
6
CONTINUOUS
62
5
10
144.250000
20
335.875000
11
146.500000
21
335.875000
0
POLYLINE
5
bc
100
AcDbEntity
8
1
6
CONTINUOUS
62
5
100
AcDb2dPolyline
66
1
10
0.0
20
0.0
30
0.0
70
0
0
VERTEX
5
bd
100
AcDbEntity
8
1
100
AcDbVertex
100
AcDb2dVertex
62
5
10
145.750000
20
338.062500
0
VERTEX
5
be
100
AcDbEntity
8
1
100
AcDbVertex
100
AcDb2dVertex
62
5
10
145.750000
20
329.312500
0
VERTEX
5
bf
100
AcDbEntity
8
1
100
AcDbVertex
100
AcDb2dVertex
62
5
10
145.000000
20
329.937500
0
SEQEND
5
c0
100
AcDbEntity
8
1
0
LINE
5
c1
100
AcDbEntity
8
1
100
AcDbLine
6
CONTINUOUS
62
5
10
144.750000
20
334.000000
11
145.250000
21
333.062500
0
POLYLINE
5
c2
100
AcDbEntity
8
1
6
CONTINUOUS
62
5
100
AcDb2dPolyline
66
1
10
0.0
20
0.0
30
0.0
70
0
0
VERTEX
5
c3
100
AcDbEntity
8
1
100
AcDbVertex
100
AcDb2dVertex
62
5
10
147.250000
20
329.625000
0
VERTEX
5
c4
100
AcDbEntity
8
1
100
AcDbVertex
100
AcDb2dVertex
62
5
10
147.750000
20
331.812500
0
VERTEX
5
c5
100
AcDbEntity
8
1
100
AcDbVertex
100
AcDb2dVertex
62
5
10
147.750000
20
338.062500
0
VERTEX
5
c6
100
AcDbEntity
8
1
100
AcDbVertex
100
AcDb2dVertex
62
5
10
149.500000
20
338.062500
0
VERTEX
5
c7
100
AcDbEntity
8
1
100
AcDbVertex
100
AcDb2dVertex
62
5
10
149.500000
20
329.625000
0
VERTEX
5
c8
100
AcDbEntity
8
1
100
AcDbVertex
100
AcDb2dVertex
62
5
10
148.750000
20
329.625000
0
SEQEND
5
c9
100
AcDbEntity
8
1
0
LINE
5
ca
100
AcDbEntity
8
1
100
AcDbLine
6
CONTINUOUS
62
5
10
149.500000
20
335.875000
11
147.750000
21
335.875000
0
LINE
5
cb
100
AcDbEntity
8
1
100
AcDbLine
6
CONTINUOUS
62
5
10
147.750000
20
333.687500
11
149.500000
21
333.687500
0
LINE
5
cc
100
AcDbEntity
8
1
100
AcDbLine
6
CONTINUOUS
62
5
10
153.250000
20
337.750000
11
150.750000
21
336.812500
0
POLYLINE
5
cd
100
AcDbEntity
8
1
6
CONTINUOUS
62
5
100
AcDb2dPolyline
66
1
10
0.0
20
0.0
30
0.0
70
0
0
VERTEX
5
ce
100
AcDbEntity
8
1
100
AcDbVertex
100
AcDb2dVertex
62
5
10
150.750000
20
338.375000
0
VERTEX
5
cf
100
AcDbEntity
8
1
100
AcDbVertex
100
AcDb2dVertex
62
5
10
150.750000
20
335.875000
0
VERTEX
5
d0
100
AcDbEntity
8
1
100
AcDbVertex
100
AcDb2dVertex
62
5
10
151.250000
20
335.250000
0
VERTEX
5
d1
100
AcDbEntity
8
1
100
AcDbVertex
100
AcDb2dVertex
62
5
10
154.000000
20
335.250000
0
VERTEX
5
d2
100
AcDbEntity
8
1
100
AcDbVertex
100
AcDb2dVertex
62
5
10
154.000000
20
336.500000
0
SEQEND
5
d3
100
AcDbEntity
8
1
0
POLYLINE
5
d4
100
AcDbEntity
8
1
6
CONTINUOUS
62
5
100
AcDb2dPolyline
66
1
10
0.0
20
0.0
30
0.0
70
1
0
VERTEX
5
d5
100
AcDbEntity
8
1
100
AcDbVertex
100
AcDb2dVertex
62
5
10
151.000000
20
334.000000
0
VERTEX
5
d6
100
AcDbEntity
8
1
100
AcDbVertex
100
AcDb2dVertex
62
5
10
151.000000
20
329.625000
0
VERTEX
5
d7
100
AcDbEntity
8
1
100
AcDbVertex
100
AcDb2dVertex
62
5
10
153.750000
20
329.625000
0
VERTEX
5
d8
100
AcDbEntity
8
1
100
AcDbVertex
100
AcDb2dVertex
62
5
10
153.750000
20
334.000000
0
VERTEX
5
d9
100
AcDbEntity
8
1
100
AcDbVertex
100
AcDb2dVertex
62
5
10
151.000000
20
334.000000
0
SEQEND
5
da
100
AcDbEntity
8
1
0
LINE
5
db
100
AcDbEntity
8
1
100
AcDbLine
6
CONTINUOUS
62
5
10
151.000000
20
331.812500
11
153.750000
21
331.812500
0
POLYLINE
5
dc
100
AcDbEntity
8
1
6
CONTINUOUS
62
5
100
AcDb2dPolyline
66
1
10
0.0
20
0.0
30
0.0
70
0
0
VERTEX
5
dd
100
AcDbEntity
8
1
100
AcDbVertex
100
AcDb2dVertex
62
5
10
156.500000
20
338.375000
0
VERTEX
5
de
100
AcDbEntity
8
1
100
AcDbVertex
100
AcDb2dVertex
62
5
10
156.250000
20
337.125000
0
VERTEX
5
df
100
AcDbEntity
8
1
100
AcDbVertex
100
AcDb2dVertex
62
5
10
155.500000
20
336.187500
0
SEQEND
5
e0
100
AcDbEntity
8
1
0
LINE
5
e1
100
AcDbEntity
8
1
100
AcDbLine
6
CONTINUOUS
62
5
10
156.250000
20
337.125000
11
159.000000
21
337.125000
0
LINE
5
e2
100
AcDbEntity
8
1
100
AcDbLine
6
CONTINUOUS
62
5
10
159.250000
20
336.187500
11
156.000000
21
336.187500
0
POLYLINE
5
e3
100
AcDbEntity
8
1
6
CONTINUOUS
62
5
100
AcDb2dPolyline
66
1
10
0.0
20
0.0
30
0.0
70
0
0
VERTEX
5
e4
100
AcDbEntity
8
1
100
AcDbVertex
100
AcDb2dVertex
62
5
10
156.250000
20
334.000000
0
VERTEX
5
e5
100
AcDbEntity
8
1
100
AcDbVertex
100
AcDb2dVertex
62
5
10
156.250000
20
335.250000
0
VERTEX
5
e6
100
AcDbEntity
8
1
100
AcDbVertex
100
AcDb2dVertex
62
5
10
158.750000
20
335.250000
0
VERTEX
5
e7
100
AcDbEntity
8
1
100
AcDbVertex
100
AcDb2dVertex
62
5
10
158.750000
20
334.312500
0
VERTEX
5
e8
100
AcDbEntity
8
1
100
AcDbVertex
100
AcDb2dVertex
62
5
10
158.500000
20
334.000000
0
VERTEX
5
e9
100
AcDbEntity
8
1
100
AcDbVertex
100
AcDb2dVertex
62
5
10
158.250000
20
334.000000
0
SEQEND
5
ea
100
AcDbEntity
8
1
0
LINE
5
eb
100
AcDbEntity
8
1
100
AcDbLine
6
CONTINUOUS
62
5
10
157.500000
20
338.375000
11
157.500000
21
334.000000
0
LINE
5
ec
100
AcDbEntity
8
1
100
AcDbLine
6
CONTINUOUS
62
5
10
160.250000
20
337.437500
11
160.250000
21
335.250000
0
POLYLINE
5
ed
100
AcDbEntity
8
1
6
CONTINUOUS
62
5
100
AcDb2dPolyline
66
1
10
0.0
20
0.0
30
0.0
70
0
0
VERTEX
5
ee
100
AcDbEntity
8
1
100
AcDbVertex
100
AcDb2dVertex
62
5
10
161.750000
20
338.375000
0
VERTEX
5
ef
100
AcDbEntity
8
1
100
AcDbVertex
100
AcDb2dVertex
62
5
10
161.750000
20
334.625000
0
VERTEX
5
f0
100
AcDbEntity
8
1
100
AcDbVertex
100
AcDb2dVertex
62
5
10
161.250000
20
333.687500
0
VERTEX
5
f1
100
AcDbEntity
8
1
100
AcDbVertex
100
AcDb2dVertex
62
5
10
161.000000
20
333.687500
0
SEQEND
5
f2
100
AcDbEntity
8
1
0
LINE
5
f3
100
AcDbEntity
8
1
100
AcDbLine
6
CONTINUOUS
62
5
10
155.750000
20
333.062500
11
162.250000
21
333.062500
0
POLYLINE
5
f4
100
AcDbEntity
8
1
6
CONTINUOUS
62
5
100
AcDb2dPolyline
66
1
10
0.0
20
0.0
30
0.0
70
0
0
VERTEX
5
f5
100
AcDbEntity
8
1
100
AcDbVertex
100
AcDb2dVertex
62
5
10
159.000000
20
334.000000
0
VERTEX
5
f6
100
AcDbEntity
8
1
100
AcDbVertex
100
AcDb2dVertex
62
5
10
159.000000
20
333.062500
0
VERTEX
5
f7
100
AcDbEntity
8
1
100
AcDbVertex
100
AcDb2dVertex
62
5
10
157.750000
20
331.500000
0
VERTEX
5
f8
100
AcDbEntity
8
1
100
AcDbVertex
100
AcDb2dVertex
62
5
10
156.500000
20
330.875000
0
VERTEX
5
f9
100
AcDbEntity
8
1
100
AcDbVertex
100
AcDb2dVertex
62
5
10
155.500000
20
330.562500
0
SEQEND
5
fa
100
AcDbEntity
8
1
0
LINE
5
fb
100
AcDbEntity
8
1
100
AcDbLine
6
CONTINUOUS
62
5
10
157.750000
20
331.500000
11
157.750000
21
329.937500
0
LINE
5
fc
100
AcDbEntity
8
1
100
AcDbLine
6
CONTINUOUS
62
5
10
157.000000
20
329.625000
11
159.000000
21
330.562500
0
POLYLINE
5
fd
100
AcDbEntity
8
1
6
CONTINUOUS
62
5
100
AcDb2dPolyline
66
1
10
0.0
20
0.0
30
0.0
70
0
0
VERTEX
5
fe
100
AcDbEntity
8
1
100
AcDbVertex
100
AcDb2dVertex
62
5
10
158.750000
20
332.437500
0
VERTEX
5
ff
100
AcDbEntity
8
1
100
AcDbVertex
100
AcDb2dVertex
62
5
10
160.250000
20
330.875000
0
VERTEX
5
100
100
AcDbEntity
8
1
100
AcDbVertex
100
AcDb2dVertex
62
5
10
161.500000
20
329.625000
0
VERTEX
5
101
100
AcDbEntity
8
1
100
AcDbVertex
100
AcDb2dVertex
62
5
10
162.250000
20
329.625000
0
SEQEND
5
102
100
AcDbEntity
8
1
0
LINE
5
103
100
AcDbEntity
8
1
100
AcDbLine
6
CONTINUOUS
62
5
10
161.250000
20
332.125000
11
160.250000
21
330.875000
0
LINE
5
104
100
AcDbEntity
8
1
100
AcDbLine
6
CONTINUOUS
62
5
10
93.250000
20
338.062500
11
92.250000
21
336.500000
0
LINE
5
105
100
AcDbEntity
8
1
100
AcDbLine
6
CONTINUOUS
62
5
10
92.000000
20
336.812500
11
93.000000
21
335.562500
0
LINE
5
106
100
AcDbEntity
8
1
100
AcDbLine
6
CONTINUOUS
62
5
10
93.750000
20
336.812500
11
92.000000
21
334.000000
0
LINE
5
107
100
AcDbEntity
8
1
100
AcDbLine
6
CONTINUOUS
62
5
10
91.500000
20
334.000000
11
93.750000
21
334.000000
0
LINE
5
108
100
AcDbEntity
8
1
100
AcDbLine
6
CONTINUOUS
62
5
10
93.500000
20
334.625000
11
94.000000
21
333.375000
0
LINE
5
109
100
AcDbEntity
8
1
100
AcDbLine
6
CONTINUOUS
62
5
10
92.750000
20
334.000000
11
92.750000
21
329.625000
0
LINE
5
10a
100
AcDbEntity
8
1
100
AcDbLine
6
CONTINUOUS
62
5
10
92.000000
20
332.750000
11
91.750000
21
330.875000
0
LINE
5
10b
100
AcDbEntity
8
1
100
AcDbLine
6
CONTINUOUS
62
5
10
93.500000
20
332.750000
11
93.750000
21
331.500000
0
POLYLINE
5
10c
100
AcDbEntity
8
1
6
CONTINUOUS
62
5
100
AcDb2dPolyline
66
1
10
0.0
20
0.0
30
0.0
70
0
0
VERTEX
5
10d
100
AcDbEntity
8
1
100
AcDbVertex
100
AcDb2dVertex
62
5
10
95.750000
20
338.062500
0
VERTEX
5
10e
100
AcDbEntity
8
1
100
AcDbVertex
100
AcDb2dVertex
62
5
10
95.250000
20
336.812500
0
VERTEX
5
10f
100
AcDbEntity
8
1
100
AcDbVertex
100
AcDb2dVertex
62
5
10
94.250000
20
335.250000
0
SEQEND
5
110
100
AcDbEntity
8
1
0
POLYLINE
5
111
100
AcDbEntity
8
1
6
CONTINUOUS
62
5
100
AcDb2dPolyline
66
1
10
0.0
20
0.0
30
0.0
70
0
0
VERTEX
5
112
100
AcDbEntity
8
1
100
AcDbVertex
100
AcDb2dVertex
62
5
10
95.250000
20
336.812500
0
VERTEX
5
113
100
AcDbEntity
8
1
100
AcDbVertex
100
AcDb2dVertex
62
5
10
97.000000
20
336.812500
0
VERTEX
5
114
100
AcDbEntity
8
1
100
AcDbVertex
100
AcDb2dVertex
62
5
10
96.250000
20
334.937500
0
SEQEND
5
115
100
AcDbEntity
8
1
0
POLYLINE
5
116
100
AcDbEntity
8
1
6
CONTINUOUS
62
5
100
AcDb2dPolyline
66
1
10
0.0
20
0.0
30
0.0
70
0
0
VERTEX
5
117
100
AcDbEntity
8
1
100
AcDbVertex
100
AcDb2dVertex
62
5
10
94.500000
20
334.937500
0
VERTEX
5
118
100
AcDbEntity
8
1
100
AcDbVertex
100
AcDb2dVertex
62
5
10
98.000000
20
334.937500
0
VERTEX
5
119
100
AcDbEntity
8
1
100
AcDbVertex
100
AcDb2dVertex
62
5
10
98.000000
20
332.750000
0
VERTEX
5
11a
100
AcDbEntity
8
1
100
AcDbVertex
100
AcDb2dVertex
62
5
10
94.500000
20
332.750000
0
SEQEND
5
11b
100
AcDbEntity
8
1
0
POLYLINE
5
11c
100
AcDbEntity
8
1
6
CONTINUOUS
62
5
100
AcDb2dPolyline
66
1
10
0.0
20
0.0
30
0.0
70
0
0
VERTEX
5
11d
100
AcDbEntity
8
1
100
AcDbVertex
100
AcDb2dVertex
62
5
10
94.500000
20
334.937500
0
VERTEX
5
11e
100
AcDbEntity
8
1
100
AcDbVertex
100
AcDb2dVertex
62
5
10
94.500000
20
330.250000
0
VERTEX
5
11f
100
AcDbEntity
8
1
100
AcDbVertex
100
AcDb2dVertex
62
5
10
94.750000
20
329.937500
0
VERTEX
5
120
100
AcDbEntity
8
1
100
AcDbVertex
100
AcDb2dVertex
62
5
10
98.250000
20
329.937500
0
VERTEX
5
121
100
AcDbEntity
8
1
100
AcDbVertex
100
AcDb2dVertex
62
5
10
98.250000
20
330.875000
0
SEQEND
5
122
100
AcDbEntity
8
1
0
LINE
5
123
100
AcDbEntity
8
1
100
AcDbLine
6
CONTINUOUS
62
5
10
96.250000
20
334.937500
11
96.250000
21
332.750000
0
LINE
5
124
100
AcDbEntity
8
1
100
AcDbLine
6
CONTINUOUS
62
5
10
101.250000
20
338.375000
11
100.000000
21
336.500000
0
LINE
5
125
100
AcDbEntity
8
1
100
AcDbLine
6
CONTINUOUS
62
5
10
99.750000
20
336.812500
11
100.750000
21
335.562500
0
LINE
5
126
100
AcDbEntity
8
1
100
AcDbLine
6
CONTINUOUS
62
5
10
101.750000
20
336.812500
11
99.750000
21
334.312500
0
LINE
5
127
100
AcDbEntity
8
1
100
AcDbLine
6
CONTINUOUS
62
5
10
99.500000
20
334.312500
11
101.750000
21
334.312500
0
LINE
5
128
100
AcDbEntity
8
1
100
AcDbLine
6
CONTINUOUS
62
5
10
101.500000
20
334.937500
11
102.000000
21
333.687500
0
LINE
5
129
100
AcDbEntity
8
1
100
AcDbLine
6
CONTINUOUS
62
5
10
100.750000
20
334.312500
11
100.750000
21
329.625000
0
LINE
5
12a
100
AcDbEntity
8
1
100
AcDbLine
6
CONTINUOUS
62
5
10
100.000000
20
333.062500
11
99.500000
21
330.562500
0
LINE
5
12b
100
AcDbEntity
8
1
100
AcDbLine
6
CONTINUOUS
62
5
10
101.500000
20
333.062500
11
102.000000
21
331.500000
0
POLYLINE
5
12c
100
AcDbEntity
8
1
6
CONTINUOUS
62
5
100
AcDb2dPolyline
66
1
10
0.0
20
0.0
30
0.0
70
0
0
VERTEX
5
12d
100
AcDbEntity
8
1
100
AcDbVertex
100
AcDb2dVertex
62
5
10
102.750000
20
337.750000
0
VERTEX
5
12e
100
AcDbEntity
8
1
100
AcDbVertex
100
AcDb2dVertex
62
5
10
105.250000
20
337.750000
0
VERTEX
5
12f
100
AcDbEntity
8
1
100
AcDbVertex
100
AcDb2dVertex
62
5
10
105.250000
20
335.250000
0
SEQEND
5
130
100
AcDbEntity
8
1
0
LINE
5
131
100
AcDbEntity
8
1
100
AcDbLine
6
CONTINUOUS
62
5
10
103.000000
20
336.500000
11
105.250000
21
336.500000
0
LINE
5
132
100
AcDbEntity
8
1
100
AcDbLine
6
CONTINUOUS
62
5
10
102.250000
20
335.250000
11
106.250000
21
335.250000
0
POLYLINE
5
133
100
AcDbEntity
8
1
6
CONTINUOUS
62
5
100
AcDb2dPolyline
66
1
10
0.0
20
0.0
30
0.0
70
0
0
VERTEX
5
134
100
AcDbEntity
8
1
100
AcDbVertex
100
AcDb2dVertex
62
5
10
104.250000
20
335.250000
0
VERTEX
5
135
100
AcDbEntity
8
1
100
AcDbVertex
100
AcDb2dVertex
62
5
10
103.750000
20
334.312500
0
VERTEX
5
136
100
AcDbEntity
8
1
100
AcDbVertex
100
AcDb2dVertex
62
5
10
102.500000
20
333.375000
0
SEQEND
5
137
100
AcDbEntity
8
1
0
POLYLINE
5
138
100
AcDbEntity
8
1
6
CONTINUOUS
62
5
100
AcDb2dPolyline
66
1
10
0.0
20
0.0
30
0.0
70
0
0
VERTEX
5
139
100
AcDbEntity
8
1
100
AcDbVertex
100
AcDb2dVertex
62
5
10
103.750000
20
334.312500
0
VERTEX
5
13a
100
AcDbEntity
8
1
100
AcDbVertex
100
AcDb2dVertex
62
5
10
104.500000
20
333.375000
0
VERTEX
5
13b
100
AcDbEntity
8
1
100
AcDbVertex
100
AcDb2dVertex
62
5
10
104.750000
20
332.125000
0
VERTEX
5
13c
100
AcDbEntity
8
1
100
AcDbVertex
100
AcDb2dVertex
62
5
10
104.750000
20
331.187500
0
VERTEX
5
13d
100
AcDbEntity
8
1
100
AcDbVertex
100
AcDb2dVertex
62
5
10
104.000000
20
329.625000
0
VERTEX
5
13e
100
AcDbEntity
8
1
100
AcDbVertex
100
AcDb2dVertex
62
5
10
103.250000
20
329.937500
0
SEQEND
5
13f
100
AcDbEntity
8
1
0
POLYLINE
5
140
100
AcDbEntity
8
1
6
CONTINUOUS
62
5
100
AcDb2dPolyline
66
1
10
0.0
20
0.0
30
0.0
70
0
0
VERTEX
5
141
100
AcDbEntity
8
1
100
AcDbVertex
100
AcDb2dVertex
62
5
10
104.250000
20
333.687500
0
VERTEX
5
142
100
AcDbEntity
8
1
100
AcDbVertex
100
AcDb2dVertex
62
5
10
103.500000
20
332.750000
0
VERTEX
5
143
100
AcDbEntity
8
1
100
AcDbVertex
100
AcDb2dVertex
62
5
10
102.750000
20
332.125000
0
SEQEND
5
144
100
AcDbEntity
8
1
0
POLYLINE
5
145
100
AcDbEntity
8
1
6
CONTINUOUS
62
5
100
AcDb2dPolyline
66
1
10
0.0
20
0.0
30
0.0
70
0
0
VERTEX
5
146
100
AcDbEntity
8
1
100
AcDbVertex
100
AcDb2dVertex
62
5
10
104.500000
20
332.750000
0
VERTEX
5
147
100
AcDbEntity
8
1
100
AcDbVertex
100
AcDb2dVertex
62
5
10
103.750000
20
331.500000
0
VERTEX
5
148
100
AcDbEntity
8
1
100
AcDbVertex
100
AcDb2dVertex
62
5
10
103.000000
20
330.875000
0
VERTEX
5
149
100
AcDbEntity
8
1
100
AcDbVertex
100
AcDb2dVertex
62
5
10
102.250000
20
330.562500
0
SEQEND
5
14a
100
AcDbEntity
8
1
0
LINE
5
14b
100
AcDbEntity
8
1
100
AcDbLine
6
CONTINUOUS
62
5
10
106.000000
20
334.312500
11
105.000000
21
333.062500
0
POLYLINE
5
14c
100
AcDbEntity
8
1
6
CONTINUOUS
62
5
100
AcDb2dPolyline
66
1
10
0.0
20
0.0
30
0.0
70
0
0
VERTEX
5
14d
100
AcDbEntity
8
1
100
AcDbVertex
100
AcDb2dVertex
62
5
10
104.750000
20
335.250000
0
VERTEX
5
14e
100
AcDbEntity
8
1
100
AcDbVertex
100
AcDb2dVertex
62
5
10
105.000000
20
333.062500
0
VERTEX
5
14f
100
AcDbEntity
8
1
100
AcDbVertex
100
AcDb2dVertex
62
5
10
105.750000
20
330.875000
0
VERTEX
5
150
100
AcDbEntity
8
1
100
AcDbVertex
100
AcDb2dVertex
62
5
10
106.500000
20
329.625000
0
SEQEND
5
151
100
AcDbEntity
8
1
0
LINE
5
152
100
AcDbEntity
8
1
100
AcDbLine
6
CONTINUOUS
62
5
10
107.500000
20
337.750000
11
111.250000
21
337.750000
0
LINE
5
153
100
AcDbEntity
8
1
100
AcDbLine
6
CONTINUOUS
62
5
10
108.250000
20
337.750000
11
108.250000
21
331.187500
0
LINE
5
154
100
AcDbEntity
8
1
100
AcDbLine
6
CONTINUOUS
62
5
10
110.250000
20
337.750000
11
110.250000
21
329.625000
0
LINE
5
155
100
AcDbEntity
8
1
100
AcDbLine
6
CONTINUOUS
62
5
10
108.250000
20
335.562500
11
110.250000
21
335.562500
0
LINE
5
156
100
AcDbEntity
8
1
100
AcDbLine
6
CONTINUOUS
62
5
10
108.250000
20
333.687500
11
110.250000
21
333.687500
0
LINE
5
157
100
AcDbEntity
8
1
100
AcDbLine
6
CONTINUOUS
62
5
10
107.250000
20
330.875000
11
110.250000
21
331.812500
0
POLYLINE
5
158
100
AcDbEntity
8
1
6
CONTINUOUS
62
5
100
AcDb2dPolyline
66
1
10
0.0
20
0.0
30
0.0
70
0
0
VERTEX
5
159
100
AcDbEntity
8
1
100
AcDbVertex
100
AcDb2dVertex
62
5
10
111.000000
20
336.187500
0
VERTEX
5
15a
100
AcDbEntity
8
1
100
AcDbVertex
100
AcDb2dVertex
62
5
10
114.250000
20
336.187500
0
VERTEX
5
15b
100
AcDbEntity
8
1
100
AcDbVertex
100
AcDb2dVertex
62
5
10
113.750000
20
334.000000
0
VERTEX
5
15c
100
AcDbEntity
8
1
100
AcDbVertex
100
AcDb2dVertex
62
5
10
113.250000
20
332.750000
0
VERTEX
5
15d
100
AcDbEntity
8
1
100
AcDbVertex
100
AcDb2dVertex
62
5
10
112.250000
20
330.875000
0
VERTEX
5
15e
100
AcDbEntity
8
1
100
AcDbVertex
100
AcDb2dVertex
62
5
10
111.000000
20
329.625000
0
SEQEND
5
15f
100
AcDbEntity
8
1
0
POLYLINE
5
160
100
AcDbEntity
8
1
6
CONTINUOUS
62
5
100
AcDb2dPolyline
66
1
10
0.0
20
0.0
30
0.0
70
0
0
VERTEX
5
161
100
AcDbEntity
8
1
100
AcDbVertex
100
AcDb2dVertex
62
5
10
111.250000
20
334.937500
0
VERTEX
5
162
100
AcDbEntity
8
1
100
AcDbVertex
100
AcDb2dVertex
62
5
10
112.000000
20
333.062500
0
VERTEX
5
163
100
AcDbEntity
8
1
100
AcDbVertex
100
AcDb2dVertex
62
5
10
113.000000
20
331.187500
0
VERTEX
5
164
100
AcDbEntity
8
1
100
AcDbVertex
100
AcDb2dVertex
62
5
10
114.500000
20
329.625000
0
SEQEND
5
165
100
AcDbEntity
8
1
0
POLYLINE
5
166
100
AcDbEntity
8
1
6
CONTINUOUS
62
5
100
AcDb2dPolyline
66
1
10
0.0
20
0.0
30
0.0
70
0
0
VERTEX
5
167
100
AcDbEntity
8
1
100
AcDbVertex
100
AcDb2dVertex
62
5
10
117.500000
20
338.062500
0
VERTEX
5
168
100
AcDbEntity
8
1
100
AcDbVertex
100
AcDb2dVertex
62
5
10
116.500000
20
335.250000
0
VERTEX
5
169
100
AcDbEntity
8
1
100
AcDbVertex
100
AcDb2dVertex
62
5
10
115.250000
20
333.062500
0
SEQEND
5
16a
100
AcDbEntity
8
1
0
LINE
5
16b
100
AcDbEntity
8
1
100
AcDbLine
6
CONTINUOUS
62
5
10
116.500000
20
335.250000
11
116.500000
21
329.312500
0
LINE
5
16c
100
AcDbEntity
8
1
100
AcDbLine
6
CONTINUOUS
62
5
10
117.250000
20
335.250000
11
122.500000
21
335.250000
0
POLYLINE
5
16d
100
AcDbEntity
8
1
6
CONTINUOUS
62
5
100
AcDb2dPolyline
66
1
10
0.0
20
0.0
30
0.0
70
0
0
VERTEX
5
16e
100
AcDbEntity
8
1
100
AcDbVertex
100
AcDb2dVertex
62
5
10
120.750000
20
338.062500
0
VERTEX
5
16f
100
AcDbEntity
8
1
100
AcDbVertex
100
AcDb2dVertex
62
5
10
120.750000
20
329.625000
0
VERTEX
5
170
100
AcDbEntity
8
1
100
AcDbVertex
100
AcDb2dVertex
62
5
10
119.250000
20
329.937500
0
SEQEND
5
171
100
AcDbEntity
8
1
0
LINE
5
172
100
AcDbEntity
8
1
100
AcDbLine
6
CONTINUOUS
62
5
10
118.250000
20
334.000000
11
119.250000
21
332.125000
0
LINE
5
173
100
AcDbEntity
8
1
100
AcDbLine
6
CONTINUOUS
62
5
10
129.250000
20
334.312500
11
130.000000
21
334.312500
0
LINE
5
174
100
AcDbEntity
8
1
100
AcDbLine
6
CONTINUOUS
62
5
10
123.250000
20
335.562500
11
125.750000
21
335.562500
0
LINE
5
175
100
AcDbEntity
8
1
100
AcDbLine
6
CONTINUOUS
62
5
10
124.750000
20
338.062500
11
124.750000
21
329.312500
0
POLYLINE
5
176
100
AcDbEntity
8
1
6
CONTINUOUS
62
5
100
AcDb2dPolyline
66
1
10
0.0
20
0.0
30
0.0
70
0
0
VERTEX
5
177
100
AcDbEntity
8
1
100
AcDbVertex
100
AcDb2dVertex
62
5
10
124.750000
20
335.562500
0
VERTEX
5
178
100
AcDbEntity
8
1
100
AcDbVertex
100
AcDb2dVertex
62
5
10
124.000000
20
333.062500
0
VERTEX
5
179
100
AcDbEntity
8
1
100
AcDbVertex
100
AcDb2dVertex
62
5
10
123.250000
20
331.500000
0
SEQEND
5
17a
100
AcDbEntity
8
1
0
LINE
5
17b
100
AcDbEntity
8
1
100
AcDbLine
6
CONTINUOUS
62
5
10
124.750000
20
334.937500
11
125.500000
21
333.062500
0
POLYLINE
5
17c
100
AcDbEntity
8
1
6
CONTINUOUS
62
5
100
AcDb2dPolyline
66
1
10
0.0
20
0.0
30
0.0
70
0
0
VERTEX
5
17d
100
AcDbEntity
8
1
100
AcDbVertex
100
AcDb2dVertex
62
5
10
126.000000
20
336.500000
0
VERTEX
5
17e
100
AcDbEntity
8
1
100
AcDbVertex
100
AcDb2dVertex
62
5
10
128.750000
20
336.500000
0
VERTEX
5
17f
100
AcDbEntity
8
1
100
AcDbVertex
100
AcDb2dVertex
62
5
10
128.750000
20
335.250000
0
VERTEX
5
180
100
AcDbEntity
8
1
100
AcDbVertex
100
AcDb2dVertex
62
5
10
129.250000
20
334.312500
0
SEQEND
5
181
100
AcDbEntity
8
1
0
POLYLINE
5
182
100
AcDbEntity
8
1
6
CONTINUOUS
62
5
100
AcDb2dPolyline
66
1
10
0.0
20
0.0
30
0.0
70
0
0
VERTEX
5
183
100
AcDbEntity
8
1
100
AcDbVertex
100
AcDb2dVertex
62
5
10
127.500000
20
338.375000
0
VERTEX
5
184
100
AcDbEntity
8
1
100
AcDbVertex
100
AcDb2dVertex
62
5
10
127.250000
20
335.875000
0
VERTEX
5
185
100
AcDbEntity
8
1
100
AcDbVertex
100
AcDb2dVertex
62
5
10
126.750000
20
334.625000
0
VERTEX
5
186
100
AcDbEntity
8
1
100
AcDbVertex
100
AcDb2dVertex
62
5
10
126.000000
20
334.000000
0
SEQEND
5
187
100
AcDbEntity
8
1
0
POLYLINE
5
188
100
AcDbEntity
8
1
6
CONTINUOUS
62
5
100
AcDb2dPolyline
66
1
10
0.0
20
0.0
30
0.0
70
0
0
VERTEX
5
189
100
AcDbEntity
8
1
100
AcDbVertex
100
AcDb2dVertex
62
5
10
130.000000
20
334.312500
0
VERTEX
5
18a
100
AcDbEntity
8
1
100
AcDbVertex
100
AcDb2dVertex
62
5
10
130.250000
20
334.625000
0
VERTEX
5
18b
100
AcDbEntity
8
1
100
AcDbVertex
100
AcDb2dVertex
62
5
10
130.250000
20
335.875000
0
SEQEND
5
18c
100
AcDbEntity
8
1
0
LINE
5
18d
100
AcDbEntity
8
1
100
AcDbLine
6
CONTINUOUS
62
5
10
125.750000
20
332.437500
11
130.500000
21
332.437500
0
LINE
5
18e
100
AcDbEntity
8
1
100
AcDbLine
6
CONTINUOUS
62
5
10
128.000000
20
334.000000
11
128.000000
21
329.312500
0
LINE
5
18f
100
AcDbEntity
8
1
100
AcDbLine
6
CONTINUOUS
62
5
10
75.500000
20
335.250000
11
77.500000
21
335.250000
0
LINE
5
190
100
AcDbEntity
8
1
100
AcDbLine
6
CONTINUOUS
62
5
10
75.250000
20
330.875000
11
77.500000
21
332.125000
0
LINE
5
191
100
AcDbEntity
8
1
100
AcDbLine
6
CONTINUOUS
62
5
10
76.500000
20
337.750000
11
76.500000
21
331.500000
0
POLYLINE
5
192
100
AcDbEntity
8
1
6
CONTINUOUS
62
5
100
AcDb2dPolyline
66
1
10
0.0
20
0.0
30
0.0
70
1
0
VERTEX
5
193
100
AcDbEntity
8
1
100
AcDbVertex
100
AcDb2dVertex
62
5
10
78.500000
20
337.437500
0
VERTEX
5
194
100
AcDbEntity
8
1
100
AcDbVertex
100
AcDb2dVertex
62
5
10
78.500000
20
334.000000
0
VERTEX
5
195
100
AcDbEntity
8
1
100
AcDbVertex
100
AcDb2dVertex
62
5
10
81.500000
20
334.000000
0
VERTEX
5
196
100
AcDbEntity
8
1
100
AcDbVertex
100
AcDb2dVertex
62
5
10
81.500000
20
337.437500
0
VERTEX
5
197
100
AcDbEntity
8
1
100
AcDbVertex
100
AcDb2dVertex
62
5
10
78.500000
20
337.437500
0
SEQEND
5
198
100
AcDbEntity
8
1
0
LINE
5
199
100
AcDbEntity
8
1
100
AcDbLine
6
CONTINUOUS
62
5
10
78.500000
20
335.875000
11
81.500000
21
335.875000
0
LINE
5
19a
100
AcDbEntity
8
1
100
AcDbLine
6
CONTINUOUS
62
5
10
80.000000
20
337.437500
11
80.000000
21
330.250000
0
LINE
5
19b
100
AcDbEntity
8
1
100
AcDbLine
6
CONTINUOUS
62
5
10
78.000000
20
332.437500
11
82.000000
21
332.437500
0
LINE
5
19c
100
AcDbEntity
8
1
100
AcDbLine
6
CONTINUOUS
62
5
10
77.250000
20
330.250000
11
82.500000
21
330.250000
0
LINE
5
19d
100
AcDbEntity
8
1
100
AcDbLine
6
CONTINUOUS
62
5
10
50.000000
20
350.000000
11
50.000000
21
318.000000
0
LINE
5
19e
100
AcDbEntity
8
1
100
AcDbLine
6
CONTINUOUS
62
5
10
50.000000
20
350.000000
11
50.000000
21
318.000000
0
LINE
5
19f
100
AcDbEntity
8
1
100
AcDbLine
6
CONTINUOUS
62
5
10
72.500000
20
296.750000
11
75.625000
21
296.750000
0
LINE
5
1a0
100
AcDbEntity
8
1
100
AcDbLine
6
CONTINUOUS
62
5
10
62.500000
20
300.500000
11
62.500000
21
293.000000
0
POLYLINE
5
1a1
100
AcDbEntity
8
1
6
CONTINUOUS
62
5
100
AcDb2dPolyline
66
1
10
0.0
20
0.0
30
0.0
70
0
0
VERTEX
5
1a2
100
AcDbEntity
8
1
100
AcDbVertex
100
AcDb2dVertex
62
5
10
62.500000
20
300.500000
0
VERTEX
5
1a3
100
AcDbEntity
8
1
100
AcDbVertex
100
AcDb2dVertex
62
5
10
64.062500
20
300.500000
0
VERTEX
5
1a4
100
AcDbEntity
8
1
100
AcDbVertex
100
AcDb2dVertex
62
5
10
64.687500
20
300.187500
0
VERTEX
5
1a5
100
AcDbEntity
8
1
100
AcDbVertex
100
AcDb2dVertex
62
5
10
65.000000
20
299.875000
0
VERTEX
5
1a6
100
AcDbEntity
8
1
100
AcDbVertex
100
AcDb2dVertex
62
5
10
65.312500
20
299.250000
0
VERTEX
5
1a7
100
AcDbEntity
8
1
100
AcDbVertex
100
AcDb2dVertex
62
5
10
65.312500
20
298.312500
0
VERTEX
5
1a8
100
AcDbEntity
8
1
100
AcDbVertex
100
AcDb2dVertex
62
5
10
65.000000
20
297.687500
0
VERTEX
5
1a9
100
AcDbEntity
8
1
100
AcDbVertex
100
AcDb2dVertex
62
5
10
64.687500
20
297.375000
0
VERTEX
5
1aa
100
AcDbEntity
8
1
100
AcDbVertex
100
AcDb2dVertex
62
5
10
64.062500
20
297.062500
0
VERTEX
5
1ab
100
AcDbEntity
8
1
100
AcDbVertex
100
AcDb2dVertex
62
5
10
62.500000
20
297.062500
0
SEQEND
5
1ac
100
AcDbEntity
8
1
0
POLYLINE
5
1ad
100
AcDbEntity
8
1
6
CONTINUOUS
62
5
100
AcDb2dPolyline
66
1
10
0.0
20
0.0
30
0.0
70
0
0
VERTEX
5
1ae
100
AcDbEntity
8
1
100
AcDbVertex
100
AcDb2dVertex
62
5
10
64.062500
20
297.062500
0
VERTEX
5
1af
100
AcDbEntity
8
1
100
AcDbVertex
100
AcDb2dVertex
62
5
10
64.687500
20
296.750000
0
VERTEX
5
1b0
100
AcDbEntity
8
1
100
AcDbVertex
100
AcDb2dVertex
62
5
10
65.312500
20
296.125000
0
VERTEX
5
1b1
100
AcDbEntity
8
1
100
AcDbVertex
100
AcDb2dVertex
62
5
10
65.625000
20
295.500000
0
VERTEX
5
1b2
100
AcDbEntity
8
1
100
AcDbVertex
100
AcDb2dVertex
62
5
10
65.625000
20
294.250000
0
VERTEX
5
1b3
100
AcDbEntity
8
1
100
AcDbVertex
100
AcDb2dVertex
62
5
10
65.312500
20
293.625000
0
VERTEX
5
1b4
100
AcDbEntity
8
1
100
AcDbVertex
100
AcDb2dVertex
62
5
10
65.000000
20
293.312500
0
VERTEX
5
1b5
100
AcDbEntity
8
1
100
AcDbVertex
100
AcDb2dVertex
62
5
10
64.375000
20
293.000000
0
VERTEX
5
1b6
100
AcDbEntity
8
1
100
AcDbVertex
100
AcDb2dVertex
62
5
10
62.500000
20
293.000000
0
SEQEND
5
1b7
100
AcDbEntity
8
1
0
POLYLINE
5
1b8
100
AcDbEntity
8
1
6
CONTINUOUS
62
5
100
AcDb2dPolyline
66
1
10
0.0
20
0.0
30
0.0
70
0
0
VERTEX
5
1b9
100
AcDbEntity
8
1
100
AcDbVertex
100
AcDb2dVertex
62
5
10
70.625000
20
298.937500
0
VERTEX
5
1ba
100
AcDbEntity
8
1
100
AcDbVertex
100
AcDb2dVertex
62
5
10
70.000000
20
300.187500
0
VERTEX
5
1bb
100
AcDbEntity
8
1
100
AcDbVertex
100
AcDb2dVertex
62
5
10
69.062500
20
300.500000
0
VERTEX
5
1bc
100
AcDbEntity
8
1
100
AcDbVertex
100
AcDb2dVertex
62
5
10
68.437500
20
300.500000
0
VERTEX
5
1bd
100
AcDbEntity
8
1
100
AcDbVertex
100
AcDb2dVertex
62
5
10
67.812500
20
300.187500
0
VERTEX
5
1be
100
AcDbEntity
8
1
100
AcDbVertex
100
AcDb2dVertex
62
5
10
67.187500
20
299.250000
0
VERTEX
5
1bf
100
AcDbEntity
8
1
100
AcDbVertex
100
AcDb2dVertex
62
5
10
67.187500
20
298.312500
0
VERTEX
5
1c0
100
AcDbEntity
8
1
100
AcDbVertex
100
AcDb2dVertex
62
5
10
67.812500
20
297.375000
0
VERTEX
5
1c1
100
AcDbEntity
8
1
100
AcDbVertex
100
AcDb2dVertex
62
5
10
70.000000
20
296.125000
0
VERTEX
5
1c2
100
AcDbEntity
8
1
100
AcDbVertex
100
AcDb2dVertex
62
5
10
70.625000
20
295.187500
0
VERTEX
5
1c3
100
AcDbEntity
8
1
100
AcDbVertex
100
AcDb2dVertex
62
5
10
70.625000
20
294.250000
0
VERTEX
5
1c4
100
AcDbEntity
8
1
100
AcDbVertex
100
AcDb2dVertex
62
5
10
70.000000
20
293.312500
0
VERTEX
5
1c5
100
AcDbEntity
8
1
100
AcDbVertex
100
AcDb2dVertex
62
5
10
69.062500
20
293.000000
0
VERTEX
5
1c6
100
AcDbEntity
8
1
100
AcDbVertex
100
AcDb2dVertex
62
5
10
68.437500
20
293.000000
0
VERTEX
5
1c7
100
AcDbEntity
8
1
100
AcDbVertex
100
AcDb2dVertex
62
5
10
67.500000
20
293.625000
0
VERTEX
5
1c8
100
AcDbEntity
8
1
100
AcDbVertex
100
AcDb2dVertex
62
5
10
67.187500
20
294.875000
0
SEQEND
5
1c9
100
AcDbEntity
8
1
0
LINE
5
1ca
100
AcDbEntity
8
1
100
AcDbLine
6
CONTINUOUS
62
5
10
77.500000
20
300.500000
11
77.500000
21
293.000000
0
LINE
5
1cb
100
AcDbEntity
8
1
100
AcDbLine
6
CONTINUOUS
62
5
10
80.625000
20
300.500000
11
77.500000
21
296.125000
0
LINE
5
1cc
100
AcDbEntity
8
1
100
AcDbLine
6
CONTINUOUS
62
5
10
78.437500
20
297.375000
11
80.937500
21
293.000000
0
LINE
5
1cd
100
AcDbEntity
8
1
100
AcDbLine
6
CONTINUOUS
62
5
10
84.000000
20
337.750000
11
85.000000
21
336.812500
0
POLYLINE
5
1ce
100
AcDbEntity
8
1
6
CONTINUOUS
62
5
100
AcDb2dPolyline
66
1
10
0.0
20
0.0
30
0.0
70
0
0
VERTEX
5
1cf
100
AcDbEntity
8
1
100
AcDbVertex
100
AcDb2dVertex
62
5
10
83.750000
20
334.625000
0
VERTEX
5
1d0
100
AcDbEntity
8
1
100
AcDbVertex
100
AcDb2dVertex
62
5
10
85.000000
20
334.625000
0
VERTEX
5
1d1
100
AcDbEntity
8
1
100
AcDbVertex
100
AcDb2dVertex
62
5
10
85.000000
20
331.500000
0
VERTEX
5
1d2
100
AcDbEntity
8
1
100
AcDbVertex
100
AcDb2dVertex
62
5
10
83.750000
20
329.937500
0
SEQEND
5
1d3
100
AcDbEntity
8
1
0
POLYLINE
5
1d4
100
AcDbEntity
8
1
6
CONTINUOUS
62
5
100
AcDb2dPolyline
66
1
10
0.0
20
0.0
30
0.0
70
0
0
VERTEX
5
1d5
100
AcDbEntity
8
1
100
AcDbVertex
100
AcDb2dVertex
62
5
10
85.000000
20
331.500000
0
VERTEX
5
1d6
100
AcDbEntity
8
1
100
AcDbVertex
100
AcDb2dVertex
62
5
10
85.750000
20
330.250000
0
VERTEX
5
1d7
100
AcDbEntity
8
1
100
AcDbVertex
100
AcDb2dVertex
62
5
10
86.750000
20
329.937500
0
VERTEX
5
1d8
100
AcDbEntity
8
1
100
AcDbVertex
100
AcDb2dVertex
62
5
10
90.500000
20
329.937500
0
SEQEND
5
1d9
100
AcDbEntity
8
1
0
POLYLINE
5
1da
100
AcDbEntity
8
1
6
CONTINUOUS
62
5
100
AcDb2dPolyline
66
1
10
0.0
20
0.0
30
0.0
70
0
0
VERTEX
5
1db
100
AcDbEntity
8
1
100
AcDbVertex
100
AcDb2dVertex
62
5
10
87.750000
20
335.250000
0
VERTEX
5
1dc
100
AcDbEntity
8
1
100
AcDbVertex
100
AcDb2dVertex
62
5
10
87.000000
20
333.375000
0
VERTEX
5
1dd
100
AcDbEntity
8
1
100
AcDbVertex
100
AcDb2dVertex
62
5
10
86.250000
20
332.125000
0
VERTEX
5
1de
100
AcDbEntity
8
1
100
AcDbVertex
100
AcDb2dVertex
62
5
10
85.750000
20
331.500000
0
SEQEND
5
1df
100
AcDbEntity
8
1
0
POLYLINE
5
1e0
100
AcDbEntity
8
1
6
CONTINUOUS
62
5
100
AcDb2dPolyline
66
1
10
0.0
20
0.0
30
0.0
70
0
0
VERTEX
5
1e1
100
AcDbEntity
8
1
100
AcDbVertex
100
AcDb2dVertex
62
5
10
86.500000
20
338.062500
0
VERTEX
5
1e2
100
AcDbEntity
8
1
100
AcDbVertex
100
AcDb2dVertex
62
5
10
87.750000
20
338.062500
0
VERTEX
5
1e3
100
AcDbEntity
8
1
100
AcDbVertex
100
AcDb2dVertex
62
5
10
87.750000
20
335.250000
0
VERTEX
5
1e4
100
AcDbEntity
8
1
100
AcDbVertex
100
AcDb2dVertex
62
5
10
88.500000
20
333.375000
0
VERTEX
5
1e5
100
AcDbEntity
8
1
100
AcDbVertex
100
AcDb2dVertex
62
5
10
89.500000
20
332.125000
0
VERTEX
5
1e6
100
AcDbEntity
8
1
100
AcDbVertex
100
AcDb2dVertex
62
5
10
90.250000
20
331.500000
0
SEQEND
5
1e7
100
AcDbEntity
8
1
0
POLYLINE
5
1e8
100
AcDbEntity
8
1
6
DOT2
62
5
100
AcDb2dPolyline
66
1
10
0.0
20
0.0
30
0.0
70
0
0
VERTEX
5
1e9
100
AcDbEntity
8
1
100
AcDbVertex
100
AcDb2dVertex
62
5
10
138.050002
20
249.750000
0
VERTEX
5
1ea
100
AcDbEntity
8
1
100
AcDbVertex
100
AcDb2dVertex
62
5
10
135.237502
20
244.125000
0
VERTEX
5
1eb
100
AcDbEntity
8
1
100
AcDbVertex
100
AcDb2dVertex
62
5
10
138.987502
20
244.125000
0
SEQEND
5
1ec
100
AcDbEntity
8
1
0
LINE
5
1ed
100
AcDbEntity
8
1
100
AcDbLine
6
DOT2
62
5
10
138.050002
20
249.750000
11
138.050002
21
242.250000
0
LINE
5
1ee
100
AcDbEntity
8
1
100
AcDbLine
6
DOT2
62
5
10
137.425002
20
242.250000
11
138.675002
21
242.250000
0
POLYLINE
5
1ef
100
AcDbEntity
8
1
6
DOT2
62
5
100
AcDb2dPolyline
66
1
10
0.0
20
0.0
30
0.0
70
0
0
VERTEX
5
1f0
100
AcDbEntity
8
1
100
AcDbVertex
100
AcDb2dVertex
62
5
10
143.050002
20
249.750000
0
VERTEX
5
1f1
100
AcDbEntity
8
1
100
AcDbVertex
100
AcDb2dVertex
62
5
10
142.112502
20
249.750000
0
VERTEX
5
1f2
100
AcDbEntity
8
1
100
AcDbVertex
100
AcDb2dVertex
62
5
10
141.175002
20
249.437500
0
VERTEX
5
1f3
100
AcDbEntity
8
1
100
AcDbVertex
100
AcDb2dVertex
62
5
10
140.550002
20
248.187500
0
VERTEX
5
1f4
100
AcDbEntity
8
1
100
AcDbVertex
100
AcDb2dVertex
62
5
10
140.550002
20
243.812500
0
VERTEX
5
1f5
100
AcDbEntity
8
1
100
AcDbVertex
100
AcDb2dVertex
62
5
10
140.862502
20
242.875000
0
VERTEX
5
1f6
100
AcDbEntity
8
1
100
AcDbVertex
100
AcDb2dVertex
62
5
10
141.175002
20
242.562500
0
VERTEX
5
1f7
100
AcDbEntity
8
1
100
AcDbVertex
100
AcDb2dVertex
62
5
10
141.800002
20
242.250000
0
VERTEX
5
1f8
100
AcDbEntity
8
1
100
AcDbVertex
100
AcDb2dVertex
62
5
10
142.425002
20
242.250000
0
VERTEX
5
1f9
100
AcDbEntity
8
1
100
AcDbVertex
100
AcDb2dVertex
62
5
10
143.050002
20
242.562500
0
VERTEX
5
1fa
100
AcDbEntity
8
1
100
AcDbVertex
100
AcDb2dVertex
62
5
10
143.362502
20
242.875000
0
VERTEX
5
1fb
100
AcDbEntity
8
1
100
AcDbVertex
100
AcDb2dVertex
62
5
10
143.675002
20
243.812500
0
VERTEX
5
1fc
100
AcDbEntity
8
1
100
AcDbVertex
100
AcDb2dVertex
62
5
10
143.675002
20
245.687500
0
VERTEX
5
1fd
100
AcDbEntity
8
1
100
AcDbVertex
100
AcDb2dVertex
62
5
10
143.362502
20
246.312500
0
VERTEX
5
1fe
100
AcDbEntity
8
1
100
AcDbVertex
100
AcDb2dVertex
62
5
10
142.737502
20
246.625000
0
VERTEX
5
1ff
100
AcDbEntity
8
1
100
AcDbVertex
100
AcDb2dVertex
62
5
10
141.487502
20
246.625000
0
VERTEX
5
200
100
AcDbEntity
8
1
100
AcDbVertex
100
AcDb2dVertex
62
5
10
140.550002
20
246.312500
0
SEQEND
5
201
100
AcDbEntity
8
1
0
LINE
5
202
100
AcDbEntity
8
1
100
AcDbLine
6
CONTINUOUS
62
5
10
157.599999
20
216.000000
11
157.599999
21
213.250001
0
CIRCLE
5
203
100
AcDbEntity
8
1
100
AcDbCircle
6
CONTINUOUS
62
5
10
136.499999
20
210.500002
40
1.500000
0
ARC
5
204
100
AcDbEntity
8
1
100
AcDbCircle
6
CONTINUOUS
62
5
10
148.029902
20
215.000000
40
1.000000
100
AcDbArc
50
39.644175
51
89.999999
0
LINE
5
205
100
AcDbEntity
8
1
100
AcDbLine
6
CONTINUOUS
62
5
10
148.799923
20
215.638018
11
154.070015
21
209.277562
0
ARC
5
206
100
AcDbEntity
8
1
100
AcDbCircle
6
CONTINUOUS
62
5
10
153.299994
20
208.639545
40
1.000000
100
AcDbArc
50
0.000000
51
39.644175
0
LINE
5
207
100
AcDbEntity
8
1
100
AcDbLine
6
CONTINUOUS
62
5
10
157.999993
20
190.800008
11
157.999993
21
192.000007
0
LINE
5
208
100
AcDbEntity
8
1
100
AcDbLine
6
CONTINUOUS
62
5
10
156.399993
20
192.100007
11
156.499993
21
192.000007
0
LINE
5
209
100
AcDbEntity
8
1
100
AcDbLine
6
CONTINUOUS
62
5
10
152.999994
20
196.950006
11
153.249994
21
196.350006
0
LINE
5
20a
100
AcDbEntity
8
1
100
AcDbLine
6
CONTINUOUS
62
5
10
152.599994
20
191.100007
11
152.499994
21
191.000008
0
LINE
5
20b
100
AcDbEntity
8
1
100
AcDbLine
6
CONTINUOUS
62
5
10
151.999994
20
194.700017
11
152.099994
21
194.900017
0
ARC
5
20c
100
AcDbEntity
8
1
100
AcDbCircle
6
CONTINUOUS
62
5
10
158.300009
20
190.300024
40
0.499984
100
AcDbArc
50
-0.001049
51
90.001839
0
LINE
5
20d
100
AcDbEntity
8
1
100
AcDbLine
6
CONTINUOUS
62
5
10
158.799993
20
188.150017
11
158.799993
21
190.300015
0
ARC
5
20e
100
AcDbEntity
8
1
100
AcDbCircle
6
CONTINUOUS
62
5
10
159.199992
20
199.500005
40
0.500000
100
AcDbArc
50
0.000000
51
89.999999
0
LINE
5
20f
100
AcDbEntity
8
1
100
AcDbLine
6
CONTINUOUS
62
5
10
158.399992
20
200.000005
11
159.199992
21
200.000005
0
ARC
5
210
100
AcDbEntity
8
1
100
AcDbCircle
6
CONTINUOUS
62
5
10
159.199992
20
190.300008
40
0.500000
100
AcDbArc
50
0.000791
51
89.999999
0
LINE
5
211
100
AcDbEntity
8
1
100
AcDbLine
6
CONTINUOUS
62
5
10
159.699992
20
190.300015
11
159.699992
21
190.300015
0
POLYLINE
5
212
100
AcDbEntity
8
1
6
CONTINUOUS
62
5
100
AcDb2dPolyline
66
1
10
0.0
20
0.0
30
0.0
70
0
0
VERTEX
5
213
100
AcDbEntity
8
1
100
AcDbVertex
100
AcDb2dVertex
62
5
10
157.499993
20
187.750017
0
VERTEX
5
214
100
AcDbEntity
8
1
100
AcDbVertex
100
AcDb2dVertex
62
5
10
157.499993
20
190.800008
0
VERTEX
5
215
100
AcDbEntity
8
1
100
AcDbVertex
100
AcDb2dVertex
62
5
10
159.199992
20
190.800008
0
SEQEND
5
216
100
AcDbEntity
8
1
0
LINE
5
217
100
AcDbEntity
8
1
100
AcDbLine
6
CONTINUOUS
62
5
10
146.999996
20
196.750006
11
146.749996
21
196.350006
0
POLYLINE
5
218
100
AcDbEntity
8
1
6
CONTINUOUS
62
5
100
AcDb2dPolyline
66
1
10
0.0
20
0.0
30
0.0
70
0
0
VERTEX
5
219
100
AcDbEntity
8
1
100
AcDbVertex
100
AcDb2dVertex
62
5
10
152.999994
20
198.750005
0
VERTEX
5
21a
100
AcDbEntity
8
1
100
AcDbVertex
100
AcDb2dVertex
62
5
10
151.499995
20
199.750005
0
VERTEX
5
21b
100
AcDbEntity
8
1
100
AcDbVertex
100
AcDb2dVertex
62
5
10
148.999995
20
199.750005
0
VERTEX
5
21c
100
AcDbEntity
8
1
100
AcDbVertex
100
AcDb2dVertex
62
5
10
148.999995
20
196.750006
0
SEQEND
5
21d
100
AcDbEntity
8
1
0
ARC
5
21e
100
AcDbEntity
8
1
100
AcDbCircle
6
CONTINUOUS
62
5
10
152.499994
20
201.050004
40
0.500000
100
AcDbArc
50
0.000000
51
89.999999
0
POLYLINE
5
21f
100
AcDbEntity
8
1
6
CONTINUOUS
62
5
100
AcDb2dPolyline
66
1
10
0.0
20
0.0
30
0.0
70
0
0
VERTEX
5
220
100
AcDbEntity
8
1
100
AcDbVertex
100
AcDb2dVertex
62
5
10
152.999994
20
201.050004
0
VERTEX
5
221
100
AcDbEntity
8
1
100
AcDbVertex
100
AcDb2dVertex
62
5
10
152.999994
20
196.950006
0
VERTEX
5
222
100
AcDbEntity
8
1
100
AcDbVertex
100
AcDb2dVertex
62
5
10
148.999995
20
196.950006
0
VERTEX
5
223
100
AcDbEntity
8
1
100
AcDbVertex
100
AcDb2dVertex
62
5
10
148.999995
20
196.750006
0
VERTEX
5
224
100
AcDbEntity
8
1
100
AcDbVertex
100
AcDb2dVertex
62
5
10
146.999996
20
196.750006
0
VERTEX
5
225
100
AcDbEntity
8
1
100
AcDbVertex
100
AcDb2dVertex
62
5
10
146.999996
20
201.050004
0
SEQEND
5
226
100
AcDbEntity
8
1
0
ARC
5
227
100
AcDbEntity
8
1
100
AcDbCircle
6
CONTINUOUS
62
5
10
147.499996
20
201.050004
40
0.500000
100
AcDbArc
50
89.999999
51
179.999998
0
LINE
5
228
100
AcDbEntity
8
1
100
AcDbLine
6
CONTINUOUS
62
5
10
147.499996
20
201.550004
11
152.499994
21
201.550004
0
ARC
5
229
100
AcDbEntity
8
1
100
AcDbCircle
6
CONTINUOUS
62
5
10
147.499996
20
201.050004
40
0.750000
100
AcDbArc
50
89.999999
51
-179.999998
0
LINE
5
22a
100
AcDbEntity
8
1
100
AcDbLine
6
CONTINUOUS
62
5
10
147.499996
20
201.800004
11
152.499994
21
201.800004
0
ARC
5
22b
100
AcDbEntity
8
1
100
AcDbCircle
6
CONTINUOUS
62
5
10
152.499994
20
201.050004
40
0.750000
100
AcDbArc
50
0.000000
51
89.999999
0
LINE
5
22c
100
AcDbEntity
8
1
100
AcDbLine
6
CONTINUOUS
62
5
10
153.249994
20
201.050004
11
153.249994
21
196.350006
0
POLYLINE
5
22d
100
AcDbEntity
8
1
6
CONTINUOUS
62
5
100
AcDb2dPolyline
66
1
10
0.0
20
0.0
30
0.0
70
0
0
VERTEX
5
22e
100
AcDbEntity
8
1
100
AcDbVertex
100
AcDb2dVertex
62
5
10
153.249994
20
196.350006
0
VERTEX
5
22f
100
AcDbEntity
8
1
100
AcDbVertex
100
AcDb2dVertex
62
5
10
146.749996
20
196.350006
0
VERTEX
5
230
100
AcDbEntity
8
1
100
AcDbVertex
100
AcDb2dVertex
62
5
10
146.749996
20
201.050004
0
SEQEND
5
231
100
AcDbEntity
8
1
0
ARC
5
232
100
AcDbEntity
8
1
100
AcDbCircle
6
CONTINUOUS
62
5
10
155.999993
20
202.000004
40
0.500000
100
AcDbArc
50
0.000000
51
89.999999
0
LINE
5
233
100
AcDbEntity
8
1
100
AcDbLine
6
CONTINUOUS
62
5
10
156.499993
20
202.000004
11
156.499993
21
201.200004
0
ARC
5
234
100
AcDbEntity
8
1
100
AcDbCircle
6
CONTINUOUS
62
5
10
134.499999
20
201.750004
40
2.499999
100
AcDbArc
50
89.999999
51
-89.999999
0
LINE
5
235
100
AcDbEntity
8
1
100
AcDbLine
6
CONTINUOUS
62
5
10
134.499999
20
199.250005
11
139.999998
21
199.250005
0
ARC
5
236
100
AcDbEntity
8
1
100
AcDbCircle
6
CONTINUOUS
62
5
10
139.999998
20
201.750004
40
2.499999
100
AcDbArc
50
-89.999999
51
89.999999
0
LINE
5
237
100
AcDbEntity
8
1
100
AcDbLine
6
CONTINUOUS
62
5
10
139.999998
20
204.250004
11
134.499999
21
204.250004
0
ARC
5
238
100
AcDbEntity
8
1
100
AcDbCircle
6
CONTINUOUS
62
5
10
134.499999
20
201.750004
40
3.749999
100
AcDbArc
50
89.999999
51
-89.999999
0
LINE
5
239
100
AcDbEntity
8
1
100
AcDbLine
6
CONTINUOUS
62
5
10
134.499999
20
205.500003
11
139.999998
21
205.500003
0
ARC
5
23a
100
AcDbEntity
8
1
100
AcDbCircle
6
CONTINUOUS
62
5
10
139.999998
20
201.750004
40
3.749999
100
AcDbArc
50
-89.999999
51
89.999999
0
LINE
5
23b
100
AcDbEntity
8
1
100
AcDbLine
6
CONTINUOUS
62
5
10
139.999998
20
198.000005
11
134.499999
21
198.000005
0
ARC
5
23c
100
AcDbEntity
8
1
100
AcDbCircle
6
CONTINUOUS
62
5
10
134.499999
20
201.750004
40
4.299999
100
AcDbArc
50
89.999999
51
-89.999999
0
LINE
5
23d
100
AcDbEntity
8
1
100
AcDbLine
6
CONTINUOUS
62
5
10
134.499999
20
197.450006
11
139.999998
21
197.450006
0
ARC
5
23e
100
AcDbEntity
8
1
100
AcDbCircle
6
CONTINUOUS
62
5
10
139.999998
20
201.750004
40
4.299999
100
AcDbArc
50
-89.999999
51
89.999999
0
LINE
5
23f
100
AcDbEntity
8
1
100
AcDbLine
6
CONTINUOUS
62
5
10
139.999998
20
206.050003
11
134.499999
21
206.050003
0
ARC
5
240
100
AcDbEntity
8
1
100
AcDbCircle
6
CONTINUOUS
62
5
10
134.499999
20
201.750004
40
4.399999
100
AcDbArc
50
89.999999
51
-89.999999
0
LINE
5
241
100
AcDbEntity
8
1
100
AcDbLine
6
CONTINUOUS
62
5
10
134.499999
20
197.350006
11
139.999998
21
197.350006
0
ARC
5
242
100
AcDbEntity
8
1
100
AcDbCircle
6
CONTINUOUS
62
5
10
139.999998
20
201.750004
40
4.399999
100
AcDbArc
50
-89.999999
51
89.999999
0
ARC
5
243
100
AcDbEntity
8
1
100
AcDbCircle
6
CONTINUOUS
62
5
10
124.949551
20
215.000000
40
1.000000
100
AcDbArc
50
89.999999
51
140.355824
0
LINE
5
244
100
AcDbEntity
8
1
100
AcDbLine
6
CONTINUOUS
62
5
10
124.179530
20
215.638018
11
118.928649
21
209.277562
0
ARC
5
245
100
AcDbEntity
8
1
100
AcDbCircle
6
CONTINUOUS
62
5
10
119.698670
20
208.639545
40
1.000000
100
AcDbArc
50
140.355824
51
179.999998
0
LINE
5
246
100
AcDbEntity
8
1
100
AcDbLine
6
CONTINUOUS
62
5
10
125.999999
20
196.950006
11
126.249999
21
196.350006
0
LINE
5
247
100
AcDbEntity
8
1
100
AcDbLine
6
CONTINUOUS
62
5
10
120.000001
20
196.750006
11
119.750001
21
196.350006
0
LINE
5
248
100
AcDbEntity
8
1
100
AcDbLine
6
CONTINUOUS
62
5
10
120.500004
20
191.000008
11
120.400004
21
191.100007
0
ARC
5
249
100
AcDbEntity
8
1
100
AcDbCircle
6
CONTINUOUS
62
5
10
114.300006
20
199.500005
40
0.500000
100
AcDbArc
50
89.999999
51
179.999998
0
LINE
5
24a
100
AcDbEntity
8
1
100
AcDbLine
6
CONTINUOUS
62
5
10
115.100005
20
200.000005
11
114.300006
21
200.000005
0
LINE
5
24b
100
AcDbEntity
8
1
100
AcDbLine
6
CONTINUOUS
62
5
10
116.499999
20
191.300017
11
116.599999
21
191.400017
0
LINE
5
24c
100
AcDbEntity
8
1
100
AcDbLine
6
CONTINUOUS
62
5
10
116.499999
20
188.000010
11
116.599999
21
187.900010
0
LINE
5
24d
100
AcDbEntity
8
1
100
AcDbLine
6
CONTINUOUS
62
5
10
115.499999
20
188.000010
11
115.499999
21
191.300017
0
ARC
5
24e
100
AcDbEntity
8
1
100
AcDbCircle
6
CONTINUOUS
62
5
10
114.300006
20
191.800017
40
0.500000
100
AcDbArc
50
179.999998
51
-89.999999
0
POLYLINE
5
24f
100
AcDbEntity
8
1
6
CONTINUOUS
62
5
100
AcDb2dPolyline
66
1
10
0.0
20
0.0
30
0.0
70
0
0
VERTEX
5
250
100
AcDbEntity
8
1
100
AcDbVertex
100
AcDb2dVertex
62
5
10
114.300006
20
191.300017
0
VERTEX
5
251
100
AcDbEntity
8
1
100
AcDbVertex
100
AcDb2dVertex
62
5
10
116.499999
20
191.300017
0
VERTEX
5
252
100
AcDbEntity
8
1
100
AcDbVertex
100
AcDb2dVertex
62
5
10
116.499999
20
188.000010
0
VERTEX
5
253
100
AcDbEntity
8
1
100
AcDbVertex
100
AcDb2dVertex
62
5
10
114.300006
20
188.000010
0
SEQEND
5
254
100
AcDbEntity
8
1
0
ARC
5
255
100
AcDbEntity
8
1
100
AcDbCircle
6
CONTINUOUS
62
5
10
114.300006
20
187.500010
40
0.500000
100
AcDbArc
50
89.999999
51
179.999998
0
LINE
5
256
100
AcDbEntity
8
1
100
AcDbLine
6
CONTINUOUS
62
5
10
122.200003
20
194.700017
11
122.100003
21
194.900017
0
POLYLINE
5
257
100
AcDbEntity
8
1
6
CONTINUOUS
62
5
100
AcDb2dPolyline
66
1
10
0.0
20
0.0
30
0.0
70
0
0
VERTEX
5
258
100
AcDbEntity
8
1
100
AcDbVertex
100
AcDb2dVertex
62
5
10
125.999999
20
198.750005
0
VERTEX
5
259
100
AcDbEntity
8
1
100
AcDbVertex
100
AcDb2dVertex
62
5
10
124.499999
20
199.750005
0
VERTEX
5
25a
100
AcDbEntity
8
1
100
AcDbVertex
100
AcDb2dVertex
62
5
10
122.000000
20
199.750005
0
VERTEX
5
25b
100
AcDbEntity
8
1
100
AcDbVertex
100
AcDb2dVertex
62
5
10
122.000000
20
196.750006
0
SEQEND
5
25c
100
AcDbEntity
8
1
0
ARC
5
25d
100
AcDbEntity
8
1
100
AcDbCircle
6
CONTINUOUS
62
5
10
125.499999
20
201.050004
40
0.500000
100
AcDbArc
50
0.000000
51
89.999999
0
POLYLINE
5
25e
100
AcDbEntity
8
1
6
CONTINUOUS
62
5
100
AcDb2dPolyline
66
1
10
0.0
20
0.0
30
0.0
70
0
0
VERTEX
5
25f
100
AcDbEntity
8
1
100
AcDbVertex
100
AcDb2dVertex
62
5
10
125.999999
20
201.050004
0
VERTEX
5
260
100
AcDbEntity
8
1
100
AcDbVertex
100
AcDb2dVertex
62
5
10
125.999999
20
196.950006
0
VERTEX
5
261
100
AcDbEntity
8
1
100
AcDbVertex
100
AcDb2dVertex
62
5
10
122.000000
20
196.950006
0
VERTEX
5
262
100
AcDbEntity
8
1
100
AcDbVertex
100
AcDb2dVertex
62
5
10
122.000000
20
196.750006
0
VERTEX
5
263
100
AcDbEntity
8
1
100
AcDbVertex
100
AcDb2dVertex
62
5
10
120.000001
20
196.750006
0
VERTEX
5
264
100
AcDbEntity
8
1
100
AcDbVertex
100
AcDb2dVertex
62
5
10
120.000001
20
201.050004
0
SEQEND
5
265
100
AcDbEntity
8
1
0
ARC
5
266
100
AcDbEntity
8
1
100
AcDbCircle
6
CONTINUOUS
62
5
10
120.500001
20
201.050004
40
0.500000
100
AcDbArc
50
89.999999
51
179.999998
0
LINE
5
267
100
AcDbEntity
8
1
100
AcDbLine
6
CONTINUOUS
62
5
10
120.500001
20
201.550004
11
125.499999
21
201.550004
0
ARC
5
268
100
AcDbEntity
8
1
100
AcDbCircle
6
CONTINUOUS
62
5
10
120.500001
20
201.050004
40
0.750000
100
AcDbArc
50
89.999999
51
-179.999998
0
LINE
5
269
100
AcDbEntity
8
1
100
AcDbLine
6
CONTINUOUS
62
5
10
120.500001
20
201.800004
11
125.499999
21
201.800004
0
ARC
5
26a
100
AcDbEntity
8
1
100
AcDbCircle
6
CONTINUOUS
62
5
10
125.499999
20
201.050004
40
0.750000
100
AcDbArc
50
0.000000
51
89.999999
0
LINE
5
26b
100
AcDbEntity
8
1
100
AcDbLine
6
CONTINUOUS
62
5
10
126.249999
20
201.050004
11
126.249999
21
196.350006
0
POLYLINE
5
26c
100
AcDbEntity
8
1
6
CONTINUOUS
62
5
100
AcDb2dPolyline
66
1
10
0.0
20
0.0
30
0.0
70
0
0
VERTEX
5
26d
100
AcDbEntity
8
1
100
AcDbVertex
100
AcDb2dVertex
62
5
10
126.249999
20
196.350006
0
VERTEX
5
26e
100
AcDbEntity
8
1
100
AcDbVertex
100
AcDb2dVertex
62
5
10
119.750001
20
196.350006
0
VERTEX
5
26f
100
AcDbEntity
8
1
100
AcDbVertex
100
AcDb2dVertex
62
5
10
119.750001
20
201.050004
0
SEQEND
5
270
100
AcDbEntity
8
1
0
ARC
5
271
100
AcDbEntity
8
1
100
AcDbCircle
6
CONTINUOUS
62
5
10
117.000005
20
202.000004
40
0.500000
100
AcDbArc
50
89.999999
51
179.999998
0
LINE
5
272
100
AcDbEntity
8
1
100
AcDbLine
6
CONTINUOUS
62
5
10
116.500005
20
202.000004
11
116.500005
21
201.200004
0
LINE
5
273
100
AcDbEntity
8
1
100
AcDbLine
6
CONTINUOUS
62
5
10
150.985710
20
213.000000
11
122.001711
21
213.000000
0
ARC
5
274
100
AcDbEntity
8
1
100
AcDbCircle
6
CONTINUOUS
62
5
10
153.799994
20
205.650003
40
0.500000
100
AcDbArc
50
0.000000
51
89.999999
0
LINE
5
275
100
AcDbEntity
8
1
100
AcDbLine
6
CONTINUOUS
62
5
10
153.799994
20
206.150003
11
119.199446
21
206.150003
0
ARC
5
276
100
AcDbEntity
8
1
100
AcDbCircle
6
CONTINUOUS
62
5
10
119.199446
20
205.650003
40
0.500000
100
AcDbArc
50
89.999999
51
179.999998
0
LINE
5
277
100
AcDbEntity
8
1
100
AcDbLine
6
CONTINUOUS
62
5
10
118.699446
20
205.650003
11
118.699446
21
205.650003
0
LINE
5
278
100
AcDbEntity
8
1
100
AcDbLine
6
CONTINUOUS
62
5
10
154.299994
20
205.650003
11
154.299994
21
205.650003
0
LINE
5
279
100
AcDbEntity
8
1
100
AcDbLine
6
CONTINUOUS
62
5
10
116.300005
20
216.500000
11
116.300005
21
243.000000
0
LINE
5
27a
100
AcDbEntity
8
1
100
AcDbLine
6
CONTINUOUS
62
5
10
162.299999
20
216.500000
11
162.299999
21
243.000000
0
POLYLINE
5
27b
100
AcDbEntity
8
1
6
CONTINUOUS
62
5
100
AcDb2dPolyline
66
1
10
0.0
20
0.0
30
0.0
70
0
0
VERTEX
5
27c
100
AcDbEntity
8
1
100
AcDbVertex
100
AcDb2dVertex
62
5
10
139.300002
20
241.000000
0
VERTEX
5
27d
100
AcDbEntity
8
1
100
AcDbVertex
100
AcDb2dVertex
62
5
10
116.300005
20
241.000000
0
VERTEX
5
27e
100
AcDbEntity
8
1
100
AcDbVertex
100
AcDb2dVertex
62
5
10
122.300005
20
242.000000
0
VERTEX
5
27f
100
AcDbEntity
8
1
100
AcDbVertex
100
AcDb2dVertex
62
5
10
122.300005
20
240.000000
0
VERTEX
5
280
100
AcDbEntity
8
1
100
AcDbVertex
100
AcDb2dVertex
62
5
10
116.300005
20
241.000000
0
VERTEX
5
281
100
AcDbEntity
8
1
100
AcDbVertex
100
AcDb2dVertex
62
5
10
122.300005
20
241.500000
0
VERTEX
5
282
100
AcDbEntity
8
1
100
AcDbVertex
100
AcDb2dVertex
62
5
10
122.300005
20
240.500000
0
VERTEX
5
283
100
AcDbEntity
8
1
100
AcDbVertex
100
AcDb2dVertex
62
5
10
116.300005
20
241.000000
0
SEQEND
5
284
100
AcDbEntity
8
1
0
POLYLINE
5
285
100
AcDbEntity
8
1
6
CONTINUOUS
62
5
100
AcDb2dPolyline
66
1
10
0.0
20
0.0
30
0.0
70
0
0
VERTEX
5
286
100
AcDbEntity
8
1
100
AcDbVertex
100
AcDb2dVertex
62
5
10
139.300002
20
241.000000
0
VERTEX
5
287
100
AcDbEntity
8
1
100
AcDbVertex
100
AcDb2dVertex
62
5
10
162.299999
20
241.000000
0
VERTEX
5
288
100
AcDbEntity
8
1
100
AcDbVertex
100
AcDb2dVertex
62
5
10
156.299999
20
240.000000
0
VERTEX
5
289
100
AcDbEntity
8
1
100
AcDbVertex
100
AcDb2dVertex
62
5
10
156.299999
20
242.000000
0
VERTEX
5
28a
100
AcDbEntity
8
1
100
AcDbVertex
100
AcDb2dVertex
62
5
10
162.299999
20
241.000000
0
VERTEX
5
28b
100
AcDbEntity
8
1
100
AcDbVertex
100
AcDb2dVertex
62
5
10
156.299999
20
240.500000
0
VERTEX
5
28c
100
AcDbEntity
8
1
100
AcDbVertex
100
AcDb2dVertex
62
5
10
156.299999
20
241.500000
0
VERTEX
5
28d
100
AcDbEntity
8
1
100
AcDbVertex
100
AcDb2dVertex
62
5
10
162.299999
20
241.000000
0
SEQEND
5
28e
100
AcDbEntity
8
1
0
LINE
5
28f
100
AcDbEntity
8
1
100
AcDbLine
6
CONTINUOUS
62
5
10
10.000000
20
318.000000
11
330.000000
21
318.000000
0
LINE
5
290
100
AcDbEntity
8
1
100
AcDbLine
6
CONTINUOUS
62
5
10
10.000000
20
318.000000
11
330.000000
21
318.000000
0
LINE
5
291
100
AcDbEntity
8
1
100
AcDbLine
6
CONTINUOUS
62
5
10
220.349984
20
165.200015
11
220.349984
21
167.800014
0
ARC
5
292
100
AcDbEntity
8
1
100
AcDbCircle
6
CONTINUOUS
62
5
10
217.549983
20
167.000016
40
1.000000
100
AcDbArc
50
-18.194872
51
18.194872
0
LINE
5
293
100
AcDbEntity
8
1
100
AcDbLine
6
CONTINUOUS
62
5
10
218.499984
20
165.200015
11
218.499984
21
169.000014
0
POLYLINE
5
294
100
AcDbEntity
8
1
6
CONTINUOUS
62
5
100
AcDb2dPolyline
66
1
10
0.0
20
0.0
30
0.0
70
0
0
VERTEX
5
295
100
AcDbEntity
8
1
100
AcDbVertex
100
AcDb2dVertex
62
5
10
219.349984
20
165.200015
0
VERTEX
5
296
100
AcDbEntity
8
1
100
AcDbVertex
100
AcDb2dVertex
62
5
10
219.349984
20
168.300024
0
VERTEX
5
297
100
AcDbEntity
8
1
100
AcDbVertex
100
AcDb2dVertex
62
5
10
218.499984
20
168.300024
0
SEQEND
5
298
100
AcDbEntity
8
1
0
ARC
5
299
100
AcDbEntity
8
1
100
AcDbCircle
6
CONTINUOUS
62
5
10
219.549982
20
167.600014
40
0.200000
100
AcDbArc
50
89.999999
51
-179.999998
0
LINE
5
29a
100
AcDbEntity
8
1
100
AcDbLine
6
CONTINUOUS
62
5
10
219.549982
20
167.800014
11
221.999982
21
167.800014
0
ARC
5
29b
100
AcDbEntity
8
1
100
AcDbCircle
6
CONTINUOUS
62
5
10
221.999982
20
168.300014
40
0.500000
100
AcDbArc
50
-89.999993
51
-0.000000
0
LINE
5
29c
100
AcDbEntity
8
1
100
AcDbLine
6
CONTINUOUS
62
5
10
222.499982
20
168.300014
11
222.499982
21
168.500014
0
ARC
5
29d
100
AcDbEntity
8
1
100
AcDbCircle
6
CONTINUOUS
62
5
10
221.999982
20
168.500014
40
0.500000
100
AcDbArc
50
0.000000
51
89.933642
0
ARC
5
29e
100
AcDbEntity
8
1
100
AcDbCircle
6
CONTINUOUS
62
5
10
221.999984
20
174.500013
40
0.500000
100
AcDbArc
50
-89.999999
51
-0.000000
0
LINE
5
29f
100
AcDbEntity
8
1
100
AcDbLine
6
CONTINUOUS
62
5
10
222.499984
20
174.500013
11
222.499984
21
174.700012
0
ARC
5
2a0
100
AcDbEntity
8
1
100
AcDbCircle
6
CONTINUOUS
62
5
10
221.999984
20
174.700012
40
0.500000
100
AcDbArc
50
0.000000
51
89.999999
0
LINE
5
2a1
100
AcDbEntity
8
1
100
AcDbLine
6
CONTINUOUS
62
5
10
221.999984
20
175.200012
11
219.549984
21
175.200012
0
ARC
5
2a2
100
AcDbEntity
8
1
100
AcDbCircle
6
CONTINUOUS
62
5
10
219.549984
20
175.400012
40
0.200000
100
AcDbArc
50
179.999998
51
-89.999999
0
ARC
5
2a3
100
AcDbEntity
8
1
100
AcDbCircle
6
CONTINUOUS
62
5
10
217.199992
20
173.500013
40
0.500000
100
AcDbArc
50
89.999999
51
179.999998
0
LINE
5
2a4
100
AcDbEntity
8
1
100
AcDbLine
6
CONTINUOUS
62
5
10
216.699992
20
173.500013
11
216.699992
21
169.500014
0
ARC
5
2a5
100
AcDbEntity
8
1
100
AcDbCircle
6
CONTINUOUS
62
5
10
217.199992
20
169.500014
40
0.500000
100
AcDbArc
50
179.999998
51
-90.000002
0
LINE
5
2a6
100
AcDbEntity
8
1
100
AcDbLine
6
CONTINUOUS
62
5
10
220.349984
20
175.200012
11
220.349984
21
177.750010
0
ARC
5
2a7
100
AcDbEntity
8
1
100
AcDbCircle
6
CONTINUOUS
62
5
10
217.549984
20
176.000016
40
1.000000
100
AcDbArc
50
-18.194872
51
18.194872
0
POLYLINE
5
2a8
100
AcDbEntity
8
1
6
CONTINUOUS
62
5
100
AcDb2dPolyline
66
1
10
0.0
20
0.0
30
0.0
70
0
0
VERTEX
5
2a9
100
AcDbEntity
8
1
100
AcDbVertex
100
AcDb2dVertex
62
5
10
218.499984
20
174.700017
0
VERTEX
5
2aa
100
AcDbEntity
8
1
100
AcDbVertex
100
AcDb2dVertex
62
5
10
219.349984
20
174.700017
0
VERTEX
5
2ab
100
AcDbEntity
8
1
100
AcDbVertex
100
AcDb2dVertex
62
5
10
219.349984
20
177.750010
0
SEQEND
5
2ac
100
AcDbEntity
8
1
0
LINE
5
2ad
100
AcDbEntity
8
1
100
AcDbLine
6
CONTINUOUS
62
5
10
218.499984
20
174.000013
11
218.499984
21
177.750010
0
LINE
5
2ae
100
AcDbEntity
8
1
100
AcDbLine
6
CONTINUOUS
62
5
10
220.349984
20
144.800021
11
220.349984
21
142.250024
0
ARC
5
2af
100
AcDbEntity
8
1
100
AcDbCircle
6
CONTINUOUS
62
5
10
217.549984
20
144.000018
40
1.000000
100
AcDbArc
50
-18.194872
51
18.194872
0
LINE
5
2b0
100
AcDbEntity
8
1
100
AcDbLine
6
CONTINUOUS
62
5
10
218.499984
20
146.000021
11
218.499984
21
142.250024
0
POLYLINE
5
2b1
100
AcDbEntity
8
1
6
CONTINUOUS
62
5
100
AcDb2dPolyline
66
1
10
0.0
20
0.0
30
0.0
70
0
0
VERTEX
5
2b2
100
AcDbEntity
8
1
100
AcDbVertex
100
AcDb2dVertex
62
5
10
218.499984
20
145.300017
0
VERTEX
5
2b3
100
AcDbEntity
8
1
100
AcDbVertex
100
AcDb2dVertex
62
5
10
219.349984
20
145.300017
0
VERTEX
5
2b4
100
AcDbEntity
8
1
100
AcDbVertex
100
AcDb2dVertex
62
5
10
219.349984
20
142.250024
0
SEQEND
5
2b5
100
AcDbEntity
8
1
0
ARC
5
2b6
100
AcDbEntity
8
1
100
AcDbCircle
6
CONTINUOUS
62
5
10
221.999982
20
151.500019
40
0.500000
100
AcDbArc
50
-89.999999
51
-0.000000
0
LINE
5
2b7
100
AcDbEntity
8
1
100
AcDbLine
6
CONTINUOUS
62
5
10
222.499982
20
151.500019
11
222.499982
21
151.700019
0
ARC
5
2b8
100
AcDbEntity
8
1
100
AcDbCircle
6
CONTINUOUS
62
5
10
221.999982
20
151.700019
40
0.500000
100
AcDbArc
50
0.000000
51
89.999999
0
LINE
5
2b9
100
AcDbEntity
8
1
100
AcDbLine
6
CONTINUOUS
62
5
10
221.999982
20
152.200019
11
219.549982
21
152.200019
0
ARC
5
2ba
100
AcDbEntity
8
1
100
AcDbCircle
6
CONTINUOUS
62
5
10
219.549982
20
152.400019
40
0.200000
100
AcDbArc
50
179.999998
51
-89.999999
0
ARC
5
2bb
100
AcDbEntity
8
1
100
AcDbCircle
6
CONTINUOUS
62
5
10
219.549982
20
144.600021
40
0.200000
100
AcDbArc
50
89.999999
51
-179.999998
0
LINE
5
2bc
100
AcDbEntity
8
1
100
AcDbLine
6
CONTINUOUS
62
5
10
219.549982
20
144.800021
11
221.999982
21
144.800022
0
ARC
5
2bd
100
AcDbEntity
8
1
100
AcDbCircle
6
CONTINUOUS
62
5
10
221.999982
20
145.300022
40
0.500000
100
AcDbArc
50
-89.999993
51
-0.000000
0
LINE
5
2be
100
AcDbEntity
8
1
100
AcDbLine
6
CONTINUOUS
62
5
10
222.499982
20
145.300022
11
222.499982
21
145.500021
0
ARC
5
2bf
100
AcDbEntity
8
1
100
AcDbCircle
6
CONTINUOUS
62
5
10
221.999982
20
145.500021
40
0.500000
100
AcDbArc
50
0.000000
51
89.933642
0
ARC
5
2c0
100
AcDbEntity
8
1
100
AcDbCircle
6
CONTINUOUS
62
5
10
217.199992
20
150.500019
40
0.500000
100
AcDbArc
50
89.999999
51
179.999998
0
LINE
5
2c1
100
AcDbEntity
8
1
100
AcDbLine
6
CONTINUOUS
62
5
10
216.699992
20
150.500019
11
216.699992
21
146.500021
0
ARC
5
2c2
100
AcDbEntity
8
1
100
AcDbCircle
6
CONTINUOUS
62
5
10
217.199992
20
146.500021
40
0.500000
100
AcDbArc
50
179.999998
51
-90.000002
0
ARC
5
2c3
100
AcDbEntity
8
1
100
AcDbCircle
6
CONTINUOUS
62
5
10
217.549983
20
153.000018
40
1.000000
100
AcDbArc
50
-18.194872
51
18.194872
0
LINE
5
2c4
100
AcDbEntity
8
1
100
AcDbLine
6
CONTINUOUS
62
5
10
220.349984
20
154.750016
11
220.349984
21
152.200019
0
LINE
5
2c5
100
AcDbEntity
8
1
100
AcDbLine
6
CONTINUOUS
62
5
10
218.499984
20
154.750016
11
218.499984
21
151.000020
0
POLYLINE
5
2c6
100
AcDbEntity
8
1
6
CONTINUOUS
62
5
100
AcDb2dPolyline
66
1
10
0.0
20
0.0
30
0.0
70
0
0
VERTEX
5
2c7
100
AcDbEntity
8
1
100
AcDbVertex
100
AcDb2dVertex
62
5
10
219.349984
20
154.750017
0
VERTEX
5
2c8
100
AcDbEntity
8
1
100
AcDbVertex
100
AcDb2dVertex
62
5
10
219.349984
20
151.700010
0
VERTEX
5
2c9
100
AcDbEntity
8
1
100
AcDbVertex
100
AcDb2dVertex
62
5
10
218.499984
20
151.700010
0
SEQEND
5
2ca
100
AcDbEntity
8
1
0
ARC
5
2cb
100
AcDbEntity
8
1
100
AcDbCircle
6
CONTINUOUS
62
5
10
217.499980
20
155.250016
40
0.500000
100
AcDbArc
50
179.999998
51
-89.999999
0
LINE
5
2cc
100
AcDbEntity
8
1
100
AcDbLine
6
CONTINUOUS
62
5
10
216.999980
20
155.250016
11
216.999980
21
164.700015
0
ARC
5
2cd
100
AcDbEntity
8
1
100
AcDbCircle
6
CONTINUOUS
62
5
10
217.499980
20
164.700015
40
0.500000
100
AcDbArc
50
89.999999
51
179.999998
0
LINE
5
2ce
100
AcDbEntity
8
1
100
AcDbLine
6
CONTINUOUS
62
5
10
217.499980
20
165.200015
11
220.189993
21
165.200015
0
ARC
5
2cf
100
AcDbEntity
8
1
100
AcDbCircle
6
CONTINUOUS
62
5
10
220.189993
20
164.700015
40
0.500000
100
AcDbArc
50
0.000000
51
89.999999
0
LINE
5
2d0
100
AcDbEntity
8
1
100
AcDbLine
6
CONTINUOUS
62
5
10
220.689993
20
164.700015
11
220.689993
21
155.250016
0
ARC
5
2d1
100
AcDbEntity
8
1
100
AcDbCircle
6
CONTINUOUS
62
5
10
220.189993
20
155.250016
40
0.500000
100
AcDbArc
50
-89.999999
51
0.000000
0
LINE
5
2d2
100
AcDbEntity
8
1
100
AcDbLine
6
CONTINUOUS
62
5
10
220.189993
20
154.750016
11
217.499980
21
154.750016
0
ARC
5
2d3
100
AcDbEntity
8
1
100
AcDbCircle
6
CONTINUOUS
62
5
10
215.199990
20
169.500014
40
0.500000
100
AcDbArc
50
179.999998
51
-89.999999
0
POLYLINE
5
2d4
100
AcDbEntity
8
1
6
CONTINUOUS
62
5
100
AcDb2dPolyline
66
1
10
0.0
20
0.0
30
0.0
70
0
0
VERTEX
5
2d5
100
AcDbEntity
8
1
100
AcDbVertex
100
AcDb2dVertex
62
5
10
215.199990
20
169.000014
0
VERTEX
5
2d6
100
AcDbEntity
8
1
100
AcDbVertex
100
AcDb2dVertex
62
5
10
223.499982
20
169.000014
0
VERTEX
5
2d7
100
AcDbEntity
8
1
100
AcDbVertex
100
AcDb2dVertex
62
5
10
223.499981
20
151.000019
0
VERTEX
5
2d8
100
AcDbEntity
8
1
100
AcDbVertex
100
AcDb2dVertex
62
5
10
215.199990
20
151.000019
0
SEQEND
5
2d9
100
AcDbEntity
8
1
0
ARC
5
2da
100
AcDbEntity
8
1
100
AcDbCircle
6
CONTINUOUS
62
5
10
215.199990
20
150.500019
40
0.500000
100
AcDbArc
50
89.999999
51
-179.999998
0
ARC
5
2db
100
AcDbEntity
8
1
100
AcDbCircle
6
CONTINUOUS
62
5
10
217.549984
20
130.000018
40
1.000000
100
AcDbArc
50
-18.194872
51
18.194872
0
ARC
5
2dc
100
AcDbEntity
8
1
100
AcDbCircle
6
CONTINUOUS
62
5
10
221.999982
20
128.500026
40
0.500000
100
AcDbArc
50
-89.999999
51
-0.000000
0
LINE
5
2dd
100
AcDbEntity
8
1
100
AcDbLine
6
CONTINUOUS
62
5
10
222.499982
20
128.500026
11
222.499982
21
128.700026
0
ARC
5
2de
100
AcDbEntity
8
1
100
AcDbCircle
6
CONTINUOUS
62
5
10
221.999982
20
128.700026
40
0.500000
100
AcDbArc
50
0.000000
51
89.999999
0
LINE
5
2df
100
AcDbEntity
8
1
100
AcDbLine
6
CONTINUOUS
62
5
10
221.999982
20
129.200026
11
219.549982
21
129.200026
0
ARC
5
2e0
100
AcDbEntity
8
1
100
AcDbCircle
6
CONTINUOUS
62
5
10
219.549982
20
129.400026
40
0.200000
100
AcDbArc
50
179.999998
51
-89.999999
0
ARC
5
2e1
100
AcDbEntity
8
1
100
AcDbCircle
6
CONTINUOUS
62
5
10
215.199992
20
120.500029
40
0.500000
100
AcDbArc
50
-179.999998
51
-89.999999
0
LINE
5
2e2
100
AcDbEntity
8
1
100
AcDbLine
6
CONTINUOUS
62
5
10
215.999992
20
120.000029
11
215.199992
21
120.000029
0
ARC
5
2e3
100
AcDbEntity
8
1
100
AcDbCircle
6
CONTINUOUS
62
5
10
223.786768
20
124.752277
40
0.500000
100
AcDbArc
50
-84.259946
51
-64.758715
0
LINE
5
2e4
100
AcDbEntity
8
1
100
AcDbLine
6
CONTINUOUS
62
5
10
218.699994
20
123.638096
11
223.836776
21
124.254784
0
LINE
5
2e5
100
AcDbEntity
8
1
100
AcDbLine
6
CONTINUOUS
62
5
10
220.349984
20
131.750024
11
220.349984
21
129.200026
0
POLYLINE
5
2e6
100
AcDbEntity
8
1
6
CONTINUOUS
62
5
100
AcDb2dPolyline
66
1
10
0.0
20
0.0
30
0.0
70
0
0
VERTEX
5
2e7
100
AcDbEntity
8
1
100
AcDbVertex
100
AcDb2dVertex
62
5
10
219.349984
20
131.750024
0
VERTEX
5
2e8
100
AcDbEntity
8
1
100
AcDbVertex
100
AcDb2dVertex
62
5
10
219.349984
20
128.700017
0
VERTEX
5
2e9
100
AcDbEntity
8
1
100
AcDbVertex
100
AcDb2dVertex
62
5
10
218.499984
20
128.700017
0
SEQEND
5
2ea
100
AcDbEntity
8
1
0
LINE
5
2eb
100
AcDbEntity
8
1
100
AcDbLine
6
CONTINUOUS
62
5
10
218.499984
20
131.750024
11
218.499984
21
128.000026
0
LINE
5
2ec
100
AcDbEntity
8
1
100
AcDbLine
6
CONTINUOUS
62
5
10
216.099992
20
113.850031
11
216.349992
21
114.100031
0
ARC
5
2ed
100
AcDbEntity
8
1
100
AcDbCircle
6
CONTINUOUS
62
5
10
215.699992
20
118.500029
40
1.000000
100
AcDbArc
50
-179.999998
51
-89.999999
0
ARC
5
2ee
100
AcDbEntity
8
1
100
AcDbCircle
6
CONTINUOUS
62
5
10
215.199992
20
118.000029
40
0.500000
100
AcDbArc
50
-179.999998
51
-89.999999
0
LINE
5
2ef
100
AcDbEntity
8
1
100
AcDbLine
6
CONTINUOUS
62
5
10
218.699994
20
117.500030
11
215.199992
21
117.500030
0
ARC
5
2f0
100
AcDbEntity
8
1
100
AcDbCircle
6
CONTINUOUS
62
5
10
216.599991
20
111.500031
40
0.500000
100
AcDbArc
50
-179.999998
51
-89.999999
0
POLYLINE
5
2f1
100
AcDbEntity
8
1
6
CONTINUOUS
62
5
100
AcDb2dPolyline
66
1
10
0.0
20
0.0
30
0.0
70
0
0
VERTEX
5
2f2
100
AcDbEntity
8
1
100
AcDbVertex
100
AcDb2dVertex
62
5
10
217.199991
20
110.500032
0
VERTEX
5
2f3
100
AcDbEntity
8
1
100
AcDbVertex
100
AcDb2dVertex
62
5
10
217.199991
20
111.000032
0
VERTEX
5
2f4
100
AcDbEntity
8
1
100
AcDbVertex
100
AcDb2dVertex
62
5
10
216.599991
20
111.000032
0
SEQEND
5
2f5
100
AcDbEntity
8
1
0
ARC
5
2f6
100
AcDbEntity
8
1
100
AcDbCircle
6
CONTINUOUS
62
5
10
217.699991
20
106.250033
40
0.500000
100
AcDbArc
50
89.999999
51
-179.999998
0
LINE
5
2f7
100
AcDbEntity
8
1
100
AcDbLine
6
CONTINUOUS
62
5
10
217.199991
20
106.250033
11
217.199991
21
104.500033
0
ARC
5
2f8
100
AcDbEntity
8
1
100
AcDbCircle
6
CONTINUOUS
62
5
10
217.699991
20
104.500033
40
0.500000
100
AcDbArc
50
-179.999998
51
-161.565013
0
LINE
5
2f9
100
AcDbEntity
8
1
100
AcDbLine
6
CONTINUOUS
62
5
10
217.999994
20
106.750033
11
217.699991
21
106.750033
0
ARC
5
2fa
100
AcDbEntity
8
1
100
AcDbCircle
6
CONTINUOUS
62
5
10
217.999994
20
104.500033
40
0.500000
100
AcDbArc
50
179.999998
51
-89.999999
0
LINE
5
2fb
100
AcDbEntity
8
1
100
AcDbLine
6
CONTINUOUS
62
5
10
217.499994
20
104.500033
11
217.499994
21
106.250033
0
ARC
5
2fc
100
AcDbEntity
8
1
100
AcDbCircle
6
CONTINUOUS
62
5
10
217.999994
20
106.250033
40
0.500000
100
AcDbArc
50
89.999999
51
-179.999998
0
LINE
5
2fd
100
AcDbEntity
8
1
100
AcDbLine
6
CONTINUOUS
62
5
10
217.999994
20
106.750033
11
218.699994
21
106.750033
0
ARC
5
2fe
100
AcDbEntity
8
1
100
AcDbCircle
6
CONTINUOUS
62
5
10
217.699991
20
110.500032
40
0.500000
100
AcDbArc
50
89.999999
51
179.999998
0
LINE
5
2ff
100
AcDbEntity
8
1
100
AcDbLine
6
CONTINUOUS
62
5
10
217.199991
20
110.500032
11
217.199991
21
105.354778
0
LINE
5
300
100
AcDbEntity
8
1
100
AcDbLine
6
CONTINUOUS
62
5
10
218.699994
20
111.000032
11
217.699991
21
111.000032
0
ARC
5
301
100
AcDbEntity
8
1
100
AcDbCircle
6
CONTINUOUS
62
5
10
217.499980
20
132.250024
40
0.500000
100
AcDbArc
50
179.999998
51
-89.999999
0
LINE
5
302
100
AcDbEntity
8
1
100
AcDbLine
6
CONTINUOUS
62
5
10
216.999980
20
132.250024
11
216.999980
21
141.750024
0
ARC
5
303
100
AcDbEntity
8
1
100
AcDbCircle
6
CONTINUOUS
62
5
10
217.499980
20
141.750024
40
0.500000
100
AcDbArc
50
89.999999
51
179.999998
0
LINE
5
304
100
AcDbEntity
8
1
100
AcDbLine
6
CONTINUOUS
62
5
10
217.499980
20
142.250024
11
220.189993
21
142.250024
0
ARC
5
305
100
AcDbEntity
8
1
100
AcDbCircle
6
CONTINUOUS
62
5
10
220.189993
20
141.750024
40
0.500000
100
AcDbArc
50
0.000000
51
89.999999
0
LINE
5
306
100
AcDbEntity
8
1
100
AcDbLine
6
CONTINUOUS
62
5
10
220.689993
20
141.750024
11
220.689993
21
132.250024
0
ARC
5
307
100
AcDbEntity
8
1
100
AcDbCircle
6
CONTINUOUS
62
5
10
220.189993
20
132.250024
40
0.500000
100
AcDbArc
50
-89.999999
51
0.000000
0
LINE
5
308
100
AcDbEntity
8
1
100
AcDbLine
6
CONTINUOUS
62
5
10
220.189993
20
131.750024
11
217.499980
21
131.750024
0
ARC
5
309
100
AcDbEntity
8
1
100
AcDbCircle
6
CONTINUOUS
62
5
10
215.199991
20
146.500021
40
0.500000
100
AcDbArc
50
179.999998
51
-89.999999
0
POLYLINE
5
30a
100
AcDbEntity
8
1
6
CONTINUOUS
62
5
100
AcDb2dPolyline
66
1
10
0.0
20
0.0
30
0.0
70
0
0
VERTEX
5
30b
100
AcDbEntity
8
1
100
AcDbVertex
100
AcDb2dVertex
62
5
10
215.199991
20
146.000021
0
VERTEX
5
30c
100
AcDbEntity
8
1
100
AcDbVertex
100
AcDb2dVertex
62
5
10
223.499982
20
146.000021
0
VERTEX
5
30d
100
AcDbEntity
8
1
100
AcDbVertex
100
AcDb2dVertex
62
5
10
223.499981
20
128.000026
0
VERTEX
5
30e
100
AcDbEntity
8
1
100
AcDbVertex
100
AcDb2dVertex
62
5
10
215.199991
20
128.000026
0
SEQEND
5
30f
100
AcDbEntity
8
1
0
ARC
5
310
100
AcDbEntity
8
1
100
AcDbCircle
6
CONTINUOUS
62
5
10
215.199991
20
127.500027
40
0.500000
100
AcDbArc
50
89.999999
51
-179.999998
0
ARC
5
311
100
AcDbEntity
8
1
100
AcDbCircle
6
CONTINUOUS
62
5
10
158.099999
20
173.500013
40
0.400000
100
AcDbArc
50
0.000000
51
89.999999
0
LINE
5
312
100
AcDbEntity
8
1
100
AcDbLine
6
CONTINUOUS
62
5
10
158.499999
20
173.500013
11
158.499999
21
169.500014
0
ARC
5
313
100
AcDbEntity
8
1
100
AcDbCircle
6
CONTINUOUS
62
5
10
158.099999
20
169.500014
40
0.400000
100
AcDbArc
50
-89.999999
51
0.000000
0
LINE
5
314
100
AcDbEntity
8
1
100
AcDbLine
6
CONTINUOUS
62
5
10
157.999993
20
167.800014
11
157.999993
21
169.000014
0
LINE
5
315
100
AcDbEntity
8
1
100
AcDbLine
6
CONTINUOUS
62
5
10
157.999993
20
174.000013
11
157.999993
21
175.200012
0
ARC
5
316
100
AcDbEntity
8
1
100
AcDbCircle
6
CONTINUOUS
62
5
10
158.300009
20
167.300031
40
0.499984
100
AcDbArc
50
-0.001049
51
90.001839
0
LINE
5
317
100
AcDbEntity
8
1
100
AcDbLine
6
CONTINUOUS
62
5
10
158.799993
20
165.150023
11
158.799993
21
167.300022
0
ARC
5
318
100
AcDbEntity
8
1
100
AcDbCircle
6
CONTINUOUS
62
5
10
157.599999
20
169.500014
40
0.400000
100
AcDbArc
50
-89.999999
51
-0.000000
0
LINE
5
319
100
AcDbEntity
8
1
100
AcDbLine
6
CONTINUOUS
62
5
10
157.999999
20
169.500014
11
157.999999
21
173.500013
0
ARC
5
31a
100
AcDbEntity
8
1
100
AcDbCircle
6
CONTINUOUS
62
5
10
157.599999
20
173.500013
40
0.400000
100
AcDbArc
50
0.000000
51
89.999999
0
LINE
5
31b
100
AcDbEntity
8
1
100
AcDbLine
6
CONTINUOUS
62
5
10
156.499993
20
169.000014
11
156.399993
21
169.100014
0
LINE
5
31c
100
AcDbEntity
8
1
100
AcDbLine
6
CONTINUOUS
62
5
10
156.499993
20
174.000013
11
156.399993
21
173.900013
0
LINE
5
31d
100
AcDbEntity
8
1
100
AcDbLine
6
CONTINUOUS
62
5
10
152.499994
20
175.000012
11
152.599994
21
174.900012
0
LINE
5
31e
100
AcDbEntity
8
1
100
AcDbLine
6
CONTINUOUS
62
5
10
152.499994
20
168.000014
11
152.599994
21
168.100014
0
ARC
5
31f
100
AcDbEntity
8
1
100
AcDbCircle
6
CONTINUOUS
62
5
10
159.199992
20
167.300015
40
0.500000
100
AcDbArc
50
0.000791
51
89.999999
0
LINE
5
320
100
AcDbEntity
8
1
100
AcDbLine
6
CONTINUOUS
62
5
10
159.699992
20
167.300022
11
159.699992
21
167.300022
0
POLYLINE
5
321
100
AcDbEntity
8
1
6
CONTINUOUS
62
5
100
AcDb2dPolyline
66
1
10
0.0
20
0.0
30
0.0
70
0
0
VERTEX
5
322
100
AcDbEntity
8
1
100
AcDbVertex
100
AcDb2dVertex
62
5
10
157.499993
20
164.750024
0
VERTEX
5
323
100
AcDbEntity
8
1
100
AcDbVertex
100
AcDb2dVertex
62
5
10
157.499993
20
167.800014
0
VERTEX
5
324
100
AcDbEntity
8
1
100
AcDbVertex
100
AcDb2dVertex
62
5
10
159.199992
20
167.800014
0
SEQEND
5
325
100
AcDbEntity
8
1
0
ARC
5
326
100
AcDbEntity
8
1
100
AcDbCircle
6
CONTINUOUS
62
5
10
158.299980
20
175.700025
40
0.500013
100
AcDbArc
50
-89.998513
51
-0.000696
0
LINE
5
327
100
AcDbEntity
8
1
100
AcDbLine
6
CONTINUOUS
62
5
10
158.799993
20
177.850017
11
158.799993
21
175.700019
0
ARC
5
328
100
AcDbEntity
8
1
100
AcDbCircle
6
CONTINUOUS
62
5
10
159.199992
20
175.700012
40
0.500000
100
AcDbArc
50
-89.999999
51
0.000791
0
POLYLINE
5
329
100
AcDbEntity
8
1
6
CONTINUOUS
62
5
100
AcDb2dPolyline
66
1
10
0.0
20
0.0
30
0.0
70
0
0
VERTEX
5
32a
100
AcDbEntity
8
1
100
AcDbVertex
100
AcDb2dVertex
62
5
10
159.199992
20
175.200012
0
VERTEX
5
32b
100
AcDbEntity
8
1
100
AcDbVertex
100
AcDb2dVertex
62
5
10
157.499993
20
175.200012
0
VERTEX
5
32c
100
AcDbEntity
8
1
100
AcDbVertex
100
AcDb2dVertex
62
5
10
157.499993
20
178.250017
0
SEQEND
5
32d
100
AcDbEntity
8
1
0
LINE
5
32e
100
AcDbEntity
8
1
100
AcDbLine
6
CONTINUOUS
62
5
10
159.699992
20
175.700019
11
159.699992
21
175.700019
0
LINE
5
32f
100
AcDbEntity
8
1
100
AcDbLine
6
CONTINUOUS
62
5
10
157.999993
20
151.000020
11
157.999993
21
152.200019
0
ARC
5
330
100
AcDbEntity
8
1
100
AcDbCircle
6
CONTINUOUS
62
5
10
158.300009
20
144.300038
40
0.499984
100
AcDbArc
50
-0.001049
51
90.001839
0
LINE
5
331
100
AcDbEntity
8
1
100
AcDbLine
6
CONTINUOUS
62
5
10
158.799993
20
142.150030
11
158.799993
21
144.300028
0
LINE
5
332
100
AcDbEntity
8
1
100
AcDbLine
6
CONTINUOUS
62
5
10
157.999993
20
144.800021
11
157.999993
21
146.000021
0
ARC
5
333
100
AcDbEntity
8
1
100
AcDbCircle
6
CONTINUOUS
62
5
10
158.099999
20
150.500020
40
0.400000
100
AcDbArc
50
0.000000
51
89.999999
0
LINE
5
334
100
AcDbEntity
8
1
100
AcDbLine
6
CONTINUOUS
62
5
10
158.499999
20
150.500020
11
158.499999
21
146.500021
0
ARC
5
335
100
AcDbEntity
8
1
100
AcDbCircle
6
CONTINUOUS
62
5
10
158.099999
20
146.500021
40
0.400000
100
AcDbArc
50
-89.999999
51
0.000000
0
ARC
5
336
100
AcDbEntity
8
1
100
AcDbCircle
6
CONTINUOUS
62
5
10
157.599999
20
146.500021
40
0.400000
100
AcDbArc
50
-89.999999
51
-0.000000
0
LINE
5
337
100
AcDbEntity
8
1
100
AcDbLine
6
CONTINUOUS
62
5
10
157.999999
20
146.500021
11
157.999999
21
150.500020
0
ARC
5
338
100
AcDbEntity
8
1
100
AcDbCircle
6
CONTINUOUS
62
5
10
157.599999
20
150.500020
40
0.400000
100
AcDbArc
50
0.000000
51
89.999999
0
LINE
5
339
100
AcDbEntity
8
1
100
AcDbLine
6
CONTINUOUS
62
5
10
156.399993
20
150.900020
11
156.499993
21
151.000020
0
LINE
5
33a
100
AcDbEntity
8
1
100
AcDbLine
6
CONTINUOUS
62
5
10
156.399993
20
146.100021
11
156.499993
21
146.000021
0
LINE
5
33b
100
AcDbEntity
8
1
100
AcDbLine
6
CONTINUOUS
62
5
10
152.499994
20
152.000019
11
152.599994
21
151.900019
0
LINE
5
33c
100
AcDbEntity
8
1
100
AcDbLine
6
CONTINUOUS
62
5
10
152.499994
20
145.000021
11
152.599994
21
145.100021
0
ARC
5
33d
100
AcDbEntity
8
1
100
AcDbCircle
6
CONTINUOUS
62
5
10
158.299980
20
152.700032
40
0.500013
100
AcDbArc
50
-89.998513
51
-0.000696
0
LINE
5
33e
100
AcDbEntity
8
1
100
AcDbLine
6
CONTINUOUS
62
5
10
158.799993
20
154.850024
11
158.799993
21
152.700026
0
ARC
5
33f
100
AcDbEntity
8
1
100
AcDbCircle
6
CONTINUOUS
62
5
10
159.199992
20
144.300022
40
0.500000
100
AcDbArc
50
0.000791
51
89.999999
0
LINE
5
340
100
AcDbEntity
8
1
100
AcDbLine
6
CONTINUOUS
62
5
10
159.699992
20
144.300028
11
159.699992
21
144.300028
0
POLYLINE
5
341
100
AcDbEntity
8
1
6
CONTINUOUS
62
5
100
AcDb2dPolyline
66
1
10
0.0
20
0.0
30
0.0
70
0
0
VERTEX
5
342
100
AcDbEntity
8
1
100
AcDbVertex
100
AcDb2dVertex
62
5
10
157.499993
20
141.750031
0
VERTEX
5
343
100
AcDbEntity
8
1
100
AcDbVertex
100
AcDb2dVertex
62
5
10
157.499993
20
144.800021
0
VERTEX
5
344
100
AcDbEntity
8
1
100
AcDbVertex
100
AcDb2dVertex
62
5
10
159.199992
20
144.800021
0
SEQEND
5
345
100
AcDbEntity
8
1
0
ARC
5
346
100
AcDbEntity
8
1
100
AcDbCircle
6
CONTINUOUS
62
5
10
159.199992
20
152.700019
40
0.500000
100
AcDbArc
50
-89.999999
51
0.000791
0
POLYLINE
5
347
100
AcDbEntity
8
1
6
CONTINUOUS
62
5
100
AcDb2dPolyline
66
1
10
0.0
20
0.0
30
0.0
70
0
0
VERTEX
5
348
100
AcDbEntity
8
1
100
AcDbVertex
100
AcDb2dVertex
62
5
10
159.199992
20
152.200019
0
VERTEX
5
349
100
AcDbEntity
8
1
100
AcDbVertex
100
AcDb2dVertex
62
5
10
157.499993
20
152.200019
0
VERTEX
5
34a
100
AcDbEntity
8
1
100
AcDbVertex
100
AcDb2dVertex
62
5
10
157.499993
20
155.250024
0
SEQEND
5
34b
100
AcDbEntity
8
1
0
LINE
5
34c
100
AcDbEntity
8
1
100
AcDbLine
6
CONTINUOUS
62
5
10
159.699992
20
152.700026
11
159.699992
21
152.700026
0
ARC
5
34d
100
AcDbEntity
8
1
100
AcDbCircle
6
CONTINUOUS
62
5
10
158.250953
20
155.250024
40
0.500000
100
AcDbArc
50
-179.958330
51
-0.000006
0
LINE
5
34e
100
AcDbEntity
8
1
100
AcDbLine
6
CONTINUOUS
62
5
10
157.750953
20
155.249660
11
157.750953
21
164.750024
0
ARC
5
34f
100
AcDbEntity
8
1
100
AcDbCircle
6
CONTINUOUS
62
5
10
158.250953
20
164.750024
40
0.500000
100
AcDbArc
50
0.000000
51
179.999998
0
LINE
5
350
100
AcDbEntity
8
1
100
AcDbLine
6
CONTINUOUS
62
5
10
158.750953
20
164.750024
11
158.750953
21
155.250024
0
ARC
5
351
100
AcDbEntity
8
1
100
AcDbCircle
6
CONTINUOUS
62
5
10
157.999993
20
155.250024
40
0.500000
100
AcDbArc
50
179.999998
51
-89.999999
0
LINE
5
352
100
AcDbEntity
8
1
100
AcDbLine
6
CONTINUOUS
62
5
10
157.999993
20
154.750024
11
158.499992
21
154.750024
0
ARC
5
353
100
AcDbEntity
8
1
100
AcDbCircle
6
CONTINUOUS
62
5
10
158.499992
20
155.250024
40
0.500000
100
AcDbArc
50
-89.999999
51
0.000000
0
LINE
5
354
100
AcDbEntity
8
1
100
AcDbLine
6
CONTINUOUS
62
5
10
158.999992
20
155.250024
11
158.999992
21
164.750024
0
ARC
5
355
100
AcDbEntity
8
1
100
AcDbCircle
6
CONTINUOUS
62
5
10
158.499992
20
164.750024
40
0.500000
100
AcDbArc
50
0.000000
51
89.999999
0
LINE
5
356
100
AcDbEntity
8
1
100
AcDbLine
6
CONTINUOUS
62
5
10
158.499992
20
165.250024
11
157.999993
21
165.250024
0
ARC
5
357
100
AcDbEntity
8
1
100
AcDbCircle
6
CONTINUOUS
62
5
10
157.999993
20
164.750024
40
0.500000
100
AcDbArc
50
89.999999
51
179.999998
0
LINE
5
358
100
AcDbEntity
8
1
100
AcDbLine
6
CONTINUOUS
62
5
10
157.499993
20
164.750024
11
157.499993
21
155.250024
0
ARC
5
359
100
AcDbEntity
8
1
100
AcDbCircle
6
CONTINUOUS
62
5
10
159.199992
20
150.500020
40
0.500000
100
AcDbArc
50
-0.000000
51
89.999999
0
POLYLINE
5
35a
100
AcDbEntity
8
1
6
CONTINUOUS
62
5
100
AcDb2dPolyline
66
1
10
0.0
20
0.0
30
0.0
70
0
0
VERTEX
5
35b
100
AcDbEntity
8
1
100
AcDbVertex
100
AcDb2dVertex
62
5
10
159.199992
20
151.000020
0
VERTEX
5
35c
100
AcDbEntity
8
1
100
AcDbVertex
100
AcDb2dVertex
62
5
10
156.499993
20
151.000020
0
VERTEX
5
35d
100
AcDbEntity
8
1
100
AcDbVertex
100
AcDb2dVertex
62
5
10
156.499993
20
169.000014
0
VERTEX
5
35e
100
AcDbEntity
8
1
100
AcDbVertex
100
AcDb2dVertex
62
5
10
159.199992
20
169.000014
0
SEQEND
5
35f
100
AcDbEntity
8
1
0
ARC
5
360
100
AcDbEntity
8
1
100
AcDbCircle
6
CONTINUOUS
62
5
10
159.199992
20
169.500014
40
0.500000
100
AcDbArc
50
-89.999999
51
-0.000000
0
LINE
5
361
100
AcDbEntity
8
1
100
AcDbLine
6
CONTINUOUS
62
5
10
116.499999
20
178.000010
11
116.599999
21
178.100010
0
LINE
5
362
100
AcDbEntity
8
1
100
AcDbLine
6
CONTINUOUS
62
5
10
120.500004
20
175.000012
11
120.400004
21
174.900012
0
LINE
5
363
100
AcDbEntity
8
1
100
AcDbLine
6
CONTINUOUS
62
5
10
120.500004
20
168.000014
11
120.400004
21
168.100014
0
LINE
5
364
100
AcDbEntity
8
1
100
AcDbLine
6
CONTINUOUS
62
5
10
115.500005
20
165.000015
11
115.499999
21
168.300017
0
LINE
5
365
100
AcDbEntity
8
1
100
AcDbLine
6
CONTINUOUS
62
5
10
116.499999
20
174.700017
11
116.599999
21
174.600017
0
LINE
5
366
100
AcDbEntity
8
1
100
AcDbLine
6
CONTINUOUS
62
5
10
116.499999
20
168.300017
11
116.599999
21
168.400017
0
LINE
5
367
100
AcDbEntity
8
1
100
AcDbLine
6
CONTINUOUS
62
5
10
116.500005
20
165.000015
11
116.600005
21
164.900015
0
ARC
5
368
100
AcDbEntity
8
1
100
AcDbCircle
6
CONTINUOUS
62
5
10
114.899999
20
168.800010
40
0.400000
100
AcDbArc
50
-179.999998
51
-89.999999
0
LINE
5
369
100
AcDbEntity
8
1
100
AcDbLine
6
CONTINUOUS
62
5
10
114.499999
20
168.800010
11
114.499999
21
174.200010
0
ARC
5
36a
100
AcDbEntity
8
1
100
AcDbCircle
6
CONTINUOUS
62
5
10
114.899999
20
174.200010
40
0.400000
100
AcDbArc
50
89.999999
51
179.999998
0
LINE
5
36b
100
AcDbEntity
8
1
100
AcDbLine
6
CONTINUOUS
62
5
10
114.899999
20
174.600010
11
114.899999
21
174.600017
0
LINE
5
36c
100
AcDbEntity
8
1
100
AcDbLine
6
CONTINUOUS
62
5
10
114.899999
20
168.400010
11
114.899999
21
168.400010
0
ARC
5
36d
100
AcDbEntity
8
1
100
AcDbCircle
6
CONTINUOUS
62
5
10
115.399999
20
168.800010
40
0.400000
100
AcDbArc
50
-179.999998
51
-89.999999
0
LINE
5
36e
100
AcDbEntity
8
1
100
AcDbLine
6
CONTINUOUS
62
5
10
114.999999
20
168.800010
11
114.999999
21
174.200010
0
ARC
5
36f
100
AcDbEntity
8
1
100
AcDbCircle
6
CONTINUOUS
62
5
10
115.399999
20
174.200010
40
0.400000
100
AcDbArc
50
89.999999
51
179.999998
0
LINE
5
370
100
AcDbEntity
8
1
100
AcDbLine
6
CONTINUOUS
62
5
10
115.399999
20
174.600010
11
115.399999
21
174.600017
0
LINE
5
371
100
AcDbEntity
8
1
100
AcDbLine
6
CONTINUOUS
62
5
10
115.399999
20
168.400010
11
115.399999
21
168.400010
0
ARC
5
372
100
AcDbEntity
8
1
100
AcDbCircle
6
CONTINUOUS
62
5
10
114.300006
20
168.800018
40
0.500000
100
AcDbArc
50
179.999998
51
-89.999999
0
POLYLINE
5
373
100
AcDbEntity
8
1
6
CONTINUOUS
62
5
100
AcDb2dPolyline
66
1
10
0.0
20
0.0
30
0.0
70
0
0
VERTEX
5
374
100
AcDbEntity
8
1
100
AcDbVertex
100
AcDb2dVertex
62
5
10
114.300006
20
168.300018
0
VERTEX
5
375
100
AcDbEntity
8
1
100
AcDbVertex
100
AcDb2dVertex
62
5
10
116.499999
20
168.300018
0
VERTEX
5
376
100
AcDbEntity
8
1
100
AcDbVertex
100
AcDb2dVertex
62
5
10
116.499999
20
165.000011
0
VERTEX
5
377
100
AcDbEntity
8
1
100
AcDbVertex
100
AcDb2dVertex
62
5
10
114.300006
20
165.000011
0
SEQEND
5
378
100
AcDbEntity
8
1
0
ARC
5
379
100
AcDbEntity
8
1
100
AcDbCircle
6
CONTINUOUS
62
5
10
114.300006
20
164.500012
40
0.500000
100
AcDbArc
50
89.999999
51
179.999998
0
LINE
5
37a
100
AcDbEntity
8
1
100
AcDbLine
6
CONTINUOUS
62
5
10
115.499999
20
178.000010
11
115.499999
21
174.700017
0
LINE
5
37b
100
AcDbEntity
8
1
100
AcDbLine
6
CONTINUOUS
62
5
10
115.499999
20
174.700017
11
115.499999
21
174.700017
0
ARC
5
37c
100
AcDbEntity
8
1
100
AcDbCircle
6
CONTINUOUS
62
5
10
114.300006
20
178.500011
40
0.500000
100
AcDbArc
50
179.999998
51
-89.999999
0
POLYLINE
5
37d
100
AcDbEntity
8
1
6
CONTINUOUS
62
5
100
AcDb2dPolyline
66
1
10
0.0
20
0.0
30
0.0
70
0
0
VERTEX
5
37e
100
AcDbEntity
8
1
100
AcDbVertex
100
AcDb2dVertex
62
5
10
114.300006
20
178.000011
0
VERTEX
5
37f
100
AcDbEntity
8
1
100
AcDbVertex
100
AcDb2dVertex
62
5
10
116.499999
20
178.000011
0
VERTEX
5
380
100
AcDbEntity
8
1
100
AcDbVertex
100
AcDb2dVertex
62
5
10
116.499999
20
174.700005
0
VERTEX
5
381
100
AcDbEntity
8
1
100
AcDbVertex
100
AcDb2dVertex
62
5
10
114.300006
20
174.700005
0
SEQEND
5
382
100
AcDbEntity
8
1
0
ARC
5
383
100
AcDbEntity
8
1
100
AcDbCircle
6
CONTINUOUS
62
5
10
114.300006
20
174.200005
40
0.500000
100
AcDbArc
50
89.999999
51
179.999998
0
LINE
5
384
100
AcDbEntity
8
1
100
AcDbLine
6
CONTINUOUS
62
5
10
120.500004
20
152.000019
11
120.400004
21
151.900019
0
LINE
5
385
100
AcDbEntity
8
1
100
AcDbLine
6
CONTINUOUS
62
5
10
120.500004
20
145.000021
11
120.400004
21
145.100021
0
LINE
5
386
100
AcDbEntity
8
1
100
AcDbLine
6
CONTINUOUS
62
5
10
116.499999
20
155.000018
11
116.599999
21
155.100018
0
LINE
5
387
100
AcDbEntity
8
1
100
AcDbLine
6
CONTINUOUS
62
5
10
115.499999
20
142.000024
11
115.499999
21
145.300017
0
LINE
5
388
100
AcDbEntity
8
1
100
AcDbLine
6
CONTINUOUS
62
5
10
116.499999
20
151.700017
11
116.599999
21
151.600017
0
LINE
5
389
100
AcDbEntity
8
1
100
AcDbLine
6
CONTINUOUS
62
5
10
116.499999
20
142.000024
11
116.599999
21
141.900024
0
LINE
5
38a
100
AcDbEntity
8
1
100
AcDbLine
6
CONTINUOUS
62
5
10
116.499999
20
145.300017
11
116.599999
21
145.400017
0
ARC
5
38b
100
AcDbEntity
8
1
100
AcDbCircle
6
CONTINUOUS
62
5
10
114.899999
20
145.800010
40
0.400000
100
AcDbArc
50
-179.999998
51
-89.999999
0
LINE
5
38c
100
AcDbEntity
8
1
100
AcDbLine
6
CONTINUOUS
62
5
10
114.499999
20
145.800010
11
114.499999
21
151.200010
0
ARC
5
38d
100
AcDbEntity
8
1
100
AcDbCircle
6
CONTINUOUS
62
5
10
114.899999
20
151.200010
40
0.400000
100
AcDbArc
50
89.999999
51
179.999998
0
LINE
5
38e
100
AcDbEntity
8
1
100
AcDbLine
6
CONTINUOUS
62
5
10
114.899999
20
151.600010
11
114.899999
21
151.600017
0
LINE
5
38f
100
AcDbEntity
8
1
100
AcDbLine
6
CONTINUOUS
62
5
10
114.899999
20
145.400010
11
114.899999
21
145.400010
0
ARC
5
390
100
AcDbEntity
8
1
100
AcDbCircle
6
CONTINUOUS
62
5
10
115.399999
20
145.800010
40
0.400000
100
AcDbArc
50
-179.999998
51
-89.999999
0
LINE
5
391
100
AcDbEntity
8
1
100
AcDbLine
6
CONTINUOUS
62
5
10
114.999999
20
145.800010
11
114.999999
21
151.200010
0
ARC
5
392
100
AcDbEntity
8
1
100
AcDbCircle
6
CONTINUOUS
62
5
10
115.399999
20
151.200010
40
0.400000
100
AcDbArc
50
89.999999
51
179.999998
0
LINE
5
393
100
AcDbEntity
8
1
100
AcDbLine
6
CONTINUOUS
62
5
10
115.399999
20
151.600010
11
115.399999
21
151.600017
0
LINE
5
394
100
AcDbEntity
8
1
100
AcDbLine
6
CONTINUOUS
62
5
10
115.399999
20
145.400010
11
115.399999
21
145.400010
0
ARC
5
395
100
AcDbEntity
8
1
100
AcDbCircle
6
CONTINUOUS
62
5
10
114.300006
20
145.800018
40
0.500000
100
AcDbArc
50
179.999998
51
-89.999999
0
POLYLINE
5
396
100
AcDbEntity
8
1
6
CONTINUOUS
62
5
100
AcDb2dPolyline
66
1
10
0.0
20
0.0
30
0.0
70
0
0
VERTEX
5
397
100
AcDbEntity
8
1
100
AcDbVertex
100
AcDb2dVertex
62
5
10
114.300006
20
145.300018
0
VERTEX
5
398
100
AcDbEntity
8
1
100
AcDbVertex
100
AcDb2dVertex
62
5
10
116.499999
20
145.300018
0
VERTEX
5
399
100
AcDbEntity
8
1
100
AcDbVertex
100
AcDb2dVertex
62
5
10
116.499999
20
142.000011
0
VERTEX
5
39a
100
AcDbEntity
8
1
100
AcDbVertex
100
AcDb2dVertex
62
5
10
114.300006
20
142.000011
0
SEQEND
5
39b
100
AcDbEntity
8
1
0
ARC
5
39c
100
AcDbEntity
8
1
100
AcDbCircle
6
CONTINUOUS
62
5
10
114.300006
20
141.500012
40
0.500000
100
AcDbArc
50
89.999999
51
179.999998
0
LINE
5
39d
100
AcDbEntity
8
1
100
AcDbLine
6
CONTINUOUS
62
5
10
115.499999
20
155.000018
11
115.499999
21
151.700017
0
ARC
5
39e
100
AcDbEntity
8
1
100
AcDbCircle
6
CONTINUOUS
62
5
10
114.300006
20
155.500020
40
0.500000
100
AcDbArc
50
179.999998
51
-89.999999
0
POLYLINE
5
39f
100
AcDbEntity
8
1
6
CONTINUOUS
62
5
100
AcDb2dPolyline
66
1
10
0.0
20
0.0
30
0.0
70
0
0
VERTEX
5
3a0
100
AcDbEntity
8
1
100
AcDbVertex
100
AcDb2dVertex
62
5
10
114.300006
20
155.000020
0
VERTEX
5
3a1
100
AcDbEntity
8
1
100
AcDbVertex
100
AcDb2dVertex
62
5
10
116.499999
20
155.000020
0
VERTEX
5
3a2
100
AcDbEntity
8
1
100
AcDbVertex
100
AcDb2dVertex
62
5
10
116.499999
20
151.700013
0
VERTEX
5
3a3
100
AcDbEntity
8
1
100
AcDbVertex
100
AcDb2dVertex
62
5
10
114.300006
20
151.700013
0
SEQEND
5
3a4
100
AcDbEntity
8
1
0
ARC
5
3a5
100
AcDbEntity
8
1
100
AcDbCircle
6
CONTINUOUS
62
5
10
114.300006
20
151.200013
40
0.500000
100
AcDbArc
50
89.999999
51
179.999998
0
LINE
5
3a6
100
AcDbEntity
8
1
100
AcDbLine
6
CONTINUOUS
62
5
10
157.999993
20
128.000026
11
157.999993
21
129.200026
0
LINE
5
3a7
100
AcDbEntity
8
1
100
AcDbLine
6
CONTINUOUS
62
5
10
156.499993
20
128.000026
11
156.399993
21
127.900026
0
LINE
5
3a8
100
AcDbEntity
8
1
100
AcDbLine
6
CONTINUOUS
62
5
10
152.499994
20
129.000026
11
152.599994
21
128.900026
0
LINE
5
3a9
100
AcDbEntity
8
1
100
AcDbLine
6
CONTINUOUS
62
5
10
151.999994
20
125.300017
11
152.099994
21
125.100017
0
LINE
5
3aa
100
AcDbEntity
8
1
100
AcDbLine
6
CONTINUOUS
62
5
10
152.999997
20
123.250028
11
153.249997
21
123.650028
0
ARC
5
3ab
100
AcDbEntity
8
1
100
AcDbCircle
6
CONTINUOUS
62
5
10
158.299980
20
129.700039
40
0.500013
100
AcDbArc
50
-89.998513
51
-0.000696
0
LINE
5
3ac
100
AcDbEntity
8
1
100
AcDbLine
6
CONTINUOUS
62
5
10
158.799993
20
131.850031
11
158.799993
21
129.700033
0
ARC
5
3ad
100
AcDbEntity
8
1
100
AcDbCircle
6
CONTINUOUS
62
5
10
159.199992
20
129.700026
40
0.500000
100
AcDbArc
50
-89.999999
51
0.000791
0
POLYLINE
5
3ae
100
AcDbEntity
8
1
6
CONTINUOUS
62
5
100
AcDb2dPolyline
66
1
10
0.0
20
0.0
30
0.0
70
0
0
VERTEX
5
3af
100
AcDbEntity
8
1
100
AcDbVertex
100
AcDb2dVertex
62
5
10
159.199992
20
129.200026
0
VERTEX
5
3b0
100
AcDbEntity
8
1
100
AcDbVertex
100
AcDb2dVertex
62
5
10
157.499993
20
129.200026
0
VERTEX
5
3b1
100
AcDbEntity
8
1
100
AcDbVertex
100
AcDb2dVertex
62
5
10
157.499993
20
132.250030
0
SEQEND
5
3b2
100
AcDbEntity
8
1
0
LINE
5
3b3
100
AcDbEntity
8
1
100
AcDbLine
6
CONTINUOUS
62
5
10
159.699992
20
129.700033
11
159.699992
21
129.700033
0
ARC
5
3b4
100
AcDbEntity
8
1
100
AcDbCircle
6
CONTINUOUS
62
5
10
159.199992
20
120.500029
40
0.500000
100
AcDbArc
50
-89.999999
51
-0.000000
0
LINE
5
3b5
100
AcDbEntity
8
1
100
AcDbLine
6
CONTINUOUS
62
5
10
158.399992
20
120.000029
11
159.199992
21
120.000029
0
ARC
5
3b6
100
AcDbEntity
8
1
100
AcDbCircle
6
CONTINUOUS
62
5
10
155.999993
20
118.000029
40
0.500000
100
AcDbArc
50
-89.999999
51
-0.000000
0
LINE
5
3b7
100
AcDbEntity
8
1
100
AcDbLine
6
CONTINUOUS
62
5
10
156.499993
20
118.000029
11
156.499993
21
118.800029
0
ARC
5
3b8
100
AcDbEntity
8
1
100
AcDbCircle
6
CONTINUOUS
62
5
10
132.999999
20
118.250029
40
2.499999
100
AcDbArc
50
89.999999
51
-89.999999
0
LINE
5
3b9
100
AcDbEntity
8
1
100
AcDbLine
6
CONTINUOUS
62
5
10
132.999999
20
120.750029
11
138.499999
21
120.750029
0
ARC
5
3ba
100
AcDbEntity
8
1
100
AcDbCircle
6
CONTINUOUS
62
5
10
138.499999
20
118.250029
40
2.499999
100
AcDbArc
50
-89.999999
51
89.999999
0
LINE
5
3bb
100
AcDbEntity
8
1
100
AcDbLine
6
CONTINUOUS
62
5
10
138.499999
20
115.750030
11
132.999999
21
115.750030
0
ARC
5
3bc
100
AcDbEntity
8
1
100
AcDbCircle
6
CONTINUOUS
62
5
10
132.999999
20
118.250029
40
3.749999
100
AcDbArc
50
89.999999
51
-89.999999
0
LINE
5
3bd
100
AcDbEntity
8
1
100
AcDbLine
6
CONTINUOUS
62
5
10
132.999999
20
114.500030
11
138.499999
21
114.500030
0
ARC
5
3be
100
AcDbEntity
8
1
100
AcDbCircle
6
CONTINUOUS
62
5
10
138.499999
20
118.250029
40
3.749999
100
AcDbArc
50
-89.999999
51
89.999999
0
LINE
5
3bf
100
AcDbEntity
8
1
100
AcDbLine
6
CONTINUOUS
62
5
10
138.499999
20
122.000028
11
132.999999
21
122.000028
0
ARC
5
3c0
100
AcDbEntity
8
1
100
AcDbCircle
6
CONTINUOUS
62
5
10
132.999999
20
118.250029
40
4.399999
100
AcDbArc
50
89.999999
51
-89.999999
0
LINE
5
3c1
100
AcDbEntity
8
1
100
AcDbLine
6
CONTINUOUS
62
5
10
132.999999
20
122.650028
11
138.499999
21
122.650028
0
ARC
5
3c2
100
AcDbEntity
8
1
100
AcDbCircle
6
CONTINUOUS
62
5
10
138.499999
20
118.250029
40
4.399999
100
AcDbArc
50
-89.999999
51
89.999999
0
LINE
5
3c3
100
AcDbEntity
8
1
100
AcDbLine
6
CONTINUOUS
62
5
10
146.999999
20
123.050028
11
146.749999
21
123.650028
0
POLYLINE
5
3c4
100
AcDbEntity
8
1
6
CONTINUOUS
62
5
100
AcDb2dPolyline
66
1
10
0.0
20
0.0
30
0.0
70
0
0
VERTEX
5
3c5
100
AcDbEntity
8
1
100
AcDbVertex
100
AcDb2dVertex
62
5
10
146.999999
20
121.250028
0
VERTEX
5
3c6
100
AcDbEntity
8
1
100
AcDbVertex
100
AcDb2dVertex
62
5
10
148.499999
20
120.250029
0
VERTEX
5
3c7
100
AcDbEntity
8
1
100
AcDbVertex
100
AcDb2dVertex
62
5
10
150.999998
20
120.250029
0
VERTEX
5
3c8
100
AcDbEntity
8
1
100
AcDbVertex
100
AcDb2dVertex
62
5
10
150.999998
20
123.250028
0
SEQEND
5
3c9
100
AcDbEntity
8
1
0
ARC
5
3ca
100
AcDbEntity
8
1
100
AcDbCircle
6
CONTINUOUS
62
5
10
147.499999
20
118.950029
40
0.500000
100
AcDbArc
50
179.999998
51
-89.999999
0
POLYLINE
5
3cb
100
AcDbEntity
8
1
6
CONTINUOUS
62
5
100
AcDb2dPolyline
66
1
10
0.0
20
0.0
30
0.0
70
0
0
VERTEX
5
3cc
100
AcDbEntity
8
1
100
AcDbVertex
100
AcDb2dVertex
62
5
10
146.999999
20
118.950029
0
VERTEX
5
3cd
100
AcDbEntity
8
1
100
AcDbVertex
100
AcDb2dVertex
62
5
10
146.999999
20
123.050028
0
VERTEX
5
3ce
100
AcDbEntity
8
1
100
AcDbVertex
100
AcDb2dVertex
62
5
10
150.999998
20
123.050028
0
VERTEX
5
3cf
100
AcDbEntity
8
1
100
AcDbVertex
100
AcDb2dVertex
62
5
10
150.999998
20
123.250028
0
VERTEX
5
3d0
100
AcDbEntity
8
1
100
AcDbVertex
100
AcDb2dVertex
62
5
10
152.999997
20
123.250028
0
VERTEX
5
3d1
100
AcDbEntity
8
1
100
AcDbVertex
100
AcDb2dVertex
62
5
10
152.999997
20
118.950029
0
SEQEND
5
3d2
100
AcDbEntity
8
1
0
ARC
5
3d3
100
AcDbEntity
8
1
100
AcDbCircle
6
CONTINUOUS
62
5
10
152.499997
20
118.950029
40
0.500000
100
AcDbArc
50
-89.999999
51
0.000000
0
LINE
5
3d4
100
AcDbEntity
8
1
100
AcDbLine
6
CONTINUOUS
62
5
10
152.499997
20
118.450029
11
147.499999
21
118.450029
0
ARC
5
3d5
100
AcDbEntity
8
1
100
AcDbCircle
6
CONTINUOUS
62
5
10
152.499997
20
118.950029
40
0.750000
100
AcDbArc
50
-89.999999
51
0.000000
0
LINE
5
3d6
100
AcDbEntity
8
1
100
AcDbLine
6
CONTINUOUS
62
5
10
152.499997
20
118.200029
11
147.499999
21
118.200029
0
ARC
5
3d7
100
AcDbEntity
8
1
100
AcDbCircle
6
CONTINUOUS
62
5
10
147.499999
20
118.950029
40
0.750000
100
AcDbArc
50
-179.999998
51
-89.999999
0
LINE
5
3d8
100
AcDbEntity
8
1
100
AcDbLine
6
CONTINUOUS
62
5
10
146.749999
20
118.950029
11
146.749999
21
123.650028
0
POLYLINE
5
3d9
100
AcDbEntity
8
1
6
CONTINUOUS
62
5
100
AcDb2dPolyline
66
1
10
0.0
20
0.0
30
0.0
70
0
0
VERTEX
5
3da
100
AcDbEntity
8
1
100
AcDbVertex
100
AcDb2dVertex
62
5
10
146.749999
20
123.650028
0
VERTEX
5
3db
100
AcDbEntity
8
1
100
AcDbVertex
100
AcDb2dVertex
62
5
10
153.249997
20
123.650028
0
VERTEX
5
3dc
100
AcDbEntity
8
1
100
AcDbVertex
100
AcDb2dVertex
62
5
10
153.249997
20
118.950029
0
SEQEND
5
3dd
100
AcDbEntity
8
1
0
LINE
5
3de
100
AcDbEntity
8
1
100
AcDbLine
6
CONTINUOUS
62
5
10
157.599999
20
104.000034
11
157.599999
21
106.750033
0
CIRCLE
5
3df
100
AcDbEntity
8
1
100
AcDbCircle
6
CONTINUOUS
62
5
10
136.499999
20
109.500032
40
1.500000
0
ARC
5
3e0
100
AcDbEntity
8
1
100
AcDbCircle
6
CONTINUOUS
62
5
10
153.299994
20
111.360489
40
1.000000
100
AcDbArc
50
-39.644175
51
0.000000
0
LINE
5
3e1
100
AcDbEntity
8
1
100
AcDbLine
6
CONTINUOUS
62
5
10
154.070015
20
110.722471
11
148.799923
21
104.362016
0
ARC
5
3e2
100
AcDbEntity
8
1
100
AcDbCircle
6
CONTINUOUS
62
5
10
148.029902
20
105.000034
40
1.000000
100
AcDbArc
50
-89.999999
51
-39.644175
0
LINE
5
3e3
100
AcDbEntity
8
1
100
AcDbLine
6
CONTINUOUS
62
5
10
126.000002
20
123.250028
11
126.250002
21
123.650028
0
LINE
5
3e4
100
AcDbEntity
8
1
100
AcDbLine
6
CONTINUOUS
62
5
10
116.499999
20
132.000024
11
116.599999
21
132.100024
0
LINE
5
3e5
100
AcDbEntity
8
1
100
AcDbLine
6
CONTINUOUS
62
5
10
120.500004
20
129.000026
11
120.400004
21
128.900026
0
LINE
5
3e6
100
AcDbEntity
8
1
100
AcDbLine
6
CONTINUOUS
62
5
10
120.000004
20
123.050028
11
119.750004
21
123.650028
0
LINE
5
3e7
100
AcDbEntity
8
1
100
AcDbLine
6
CONTINUOUS
62
5
10
116.499999
20
128.700017
11
116.599999
21
128.600017
0
ARC
5
3e8
100
AcDbEntity
8
1
100
AcDbCircle
6
CONTINUOUS
62
5
10
114.300006
20
120.500029
40
0.500000
100
AcDbArc
50
179.999998
51
-89.999999
0
LINE
5
3e9
100
AcDbEntity
8
1
100
AcDbLine
6
CONTINUOUS
62
5
10
115.100005
20
120.000029
11
114.300006
21
120.000029
0
LINE
5
3ea
100
AcDbEntity
8
1
100
AcDbLine
6
CONTINUOUS
62
5
10
115.499999
20
132.000024
11
115.499999
21
128.700017
0
ARC
5
3eb
100
AcDbEntity
8
1
100
AcDbCircle
6
CONTINUOUS
62
5
10
114.300006
20
132.500025
40
0.500000
100
AcDbArc
50
179.999998
51
-89.999999
0
POLYLINE
5
3ec
100
AcDbEntity
8
1
6
CONTINUOUS
62
5
100
AcDb2dPolyline
66
1
10
0.0
20
0.0
30
0.0
70
0
0
VERTEX
5
3ed
100
AcDbEntity
8
1
100
AcDbVertex
100
AcDb2dVertex
62
5
10
114.300006
20
132.000025
0
VERTEX
5
3ee
100
AcDbEntity
8
1
100
AcDbVertex
100
AcDb2dVertex
62
5
10
116.499999
20
132.000025
0
VERTEX
5
3ef
100
AcDbEntity
8
1
100
AcDbVertex
100
AcDb2dVertex
62
5
10
116.499999
20
128.700018
0
VERTEX
5
3f0
100
AcDbEntity
8
1
100
AcDbVertex
100
AcDb2dVertex
62
5
10
114.300006
20
128.700018
0
SEQEND
5
3f1
100
AcDbEntity
8
1
0
ARC
5
3f2
100
AcDbEntity
8
1
100
AcDbCircle
6
CONTINUOUS
62
5
10
114.300006
20
128.200018
40
0.500000
100
AcDbArc
50
89.999999
51
179.999998
0
ARC
5
3f3
100
AcDbEntity
8
1
100
AcDbCircle
6
CONTINUOUS
62
5
10
117.000005
20
118.000029
40
0.500000
100
AcDbArc
50
-179.999998
51
-89.999999
0
LINE
5
3f4
100
AcDbEntity
8
1
100
AcDbLine
6
CONTINUOUS
62
5
10
116.500005
20
118.000029
11
116.500005
21
118.800029
0
LINE
5
3f5
100
AcDbEntity
8
1
100
AcDbLine
6
CONTINUOUS
62
5
10
122.200003
20
125.300017
11
122.100003
21
125.100017
0
POLYLINE
5
3f6
100
AcDbEntity
8
1
6
CONTINUOUS
62
5
100
AcDb2dPolyline
66
1
10
0.0
20
0.0
30
0.0
70
0
0
VERTEX
5
3f7
100
AcDbEntity
8
1
100
AcDbVertex
100
AcDb2dVertex
62
5
10
120.000004
20
121.250028
0
VERTEX
5
3f8
100
AcDbEntity
8
1
100
AcDbVertex
100
AcDb2dVertex
62
5
10
121.500004
20
120.250029
0
VERTEX
5
3f9
100
AcDbEntity
8
1
100
AcDbVertex
100
AcDb2dVertex
62
5
10
124.000003
20
120.250029
0
VERTEX
5
3fa
100
AcDbEntity
8
1
100
AcDbVertex
100
AcDb2dVertex
62
5
10
124.000003
20
123.250028
0
SEQEND
5
3fb
100
AcDbEntity
8
1
0
ARC
5
3fc
100
AcDbEntity
8
1
100
AcDbCircle
6
CONTINUOUS
62
5
10
120.500004
20
118.950029
40
0.500000
100
AcDbArc
50
179.999998
51
-89.999999
0
POLYLINE
5
3fd
100
AcDbEntity
8
1
6
CONTINUOUS
62
5
100
AcDb2dPolyline
66
1
10
0.0
20
0.0
30
0.0
70
0
0
VERTEX
5
3fe
100
AcDbEntity
8
1
100
AcDbVertex
100
AcDb2dVertex
62
5
10
120.000004
20
118.950029
0
VERTEX
5
3ff
100
AcDbEntity
8
1
100
AcDbVertex
100
AcDb2dVertex
62
5
10
120.000004
20
123.050028
0
VERTEX
5
400
100
AcDbEntity
8
1
100
AcDbVertex
100
AcDb2dVertex
62
5
10
124.000003
20
123.050028
0
VERTEX
5
401
100
AcDbEntity
8
1
100
AcDbVertex
100
AcDb2dVertex
62
5
10
124.000003
20
123.250028
0
VERTEX
5
402
100
AcDbEntity
8
1
100
AcDbVertex
100
AcDb2dVertex
62
5
10
126.000002
20
123.250028
0
VERTEX
5
403
100
AcDbEntity
8
1
100
AcDbVertex
100
AcDb2dVertex
62
5
10
126.000002
20
118.950029
0
SEQEND
5
404
100
AcDbEntity
8
1
0
ARC
5
405
100
AcDbEntity
8
1
100
AcDbCircle
6
CONTINUOUS
62
5
10
125.500002
20
118.950029
40
0.500000
100
AcDbArc
50
-89.999999
51
0.000000
0
LINE
5
406
100
AcDbEntity
8
1
100
AcDbLine
6
CONTINUOUS
62
5
10
125.500002
20
118.450029
11
120.500004
21
118.450029
0
ARC
5
407
100
AcDbEntity
8
1
100
AcDbCircle
6
CONTINUOUS
62
5
10
125.500002
20
118.950029
40
0.750000
100
AcDbArc
50
-89.999999
51
0.000000
0
LINE
5
408
100
AcDbEntity
8
1
100
AcDbLine
6
CONTINUOUS
62
5
10
125.500002
20
118.200029
11
120.500004
21
118.200029
0
ARC
5
409
100
AcDbEntity
8
1
100
AcDbCircle
6
CONTINUOUS
62
5
10
120.500004
20
118.950029
40
0.750000
100
AcDbArc
50
-179.999998
51
-89.999999
0
LINE
5
40a
100
AcDbEntity
8
1
100
AcDbLine
6
CONTINUOUS
62
5
10
119.750004
20
118.950029
11
119.750004
21
123.650028
0
POLYLINE
5
40b
100
AcDbEntity
8
1
6
CONTINUOUS
62
5
100
AcDb2dPolyline
66
1
10
0.0
20
0.0
30
0.0
70
0
0
VERTEX
5
40c
100
AcDbEntity
8
1
100
AcDbVertex
100
AcDb2dVertex
62
5
10
119.750004
20
123.650028
0
VERTEX
5
40d
100
AcDbEntity
8
1
100
AcDbVertex
100
AcDb2dVertex
62
5
10
126.250002
20
123.650028
0
VERTEX
5
40e
100
AcDbEntity
8
1
100
AcDbVertex
100
AcDb2dVertex
62
5
10
126.250002
20
118.950029
0
SEQEND
5
40f
100
AcDbEntity
8
1
0
ARC
5
410
100
AcDbEntity
8
1
100
AcDbCircle
6
CONTINUOUS
62
5
10
124.970096
20
105.000033
40
1.000000
100
AcDbArc
50
-140.355824
51
-89.999999
0
LINE
5
411
100
AcDbEntity
8
1
100
AcDbLine
6
CONTINUOUS
62
5
10
124.200075
20
104.362016
11
118.929983
21
110.722471
0
ARC
5
412
100
AcDbEntity
8
1
100
AcDbCircle
6
CONTINUOUS
62
5
10
119.700004
20
111.360489
40
1.000000
100
AcDbArc
50
-179.999998
51
-140.355824
0
ARC
5
413
100
AcDbEntity
8
1
100
AcDbCircle
6
CONTINUOUS
62
5
10
153.799994
20
114.350030
40
0.500000
100
AcDbArc
50
-89.999999
51
0.000000
0
LINE
5
414
100
AcDbEntity
8
1
100
AcDbLine
6
CONTINUOUS
62
5
10
153.799994
20
113.850031
11
119.200004
21
113.850031
0
ARC
5
415
100
AcDbEntity
8
1
100
AcDbCircle
6
CONTINUOUS
62
5
10
119.200004
20
114.350030
40
0.500000
100
AcDbArc
50
179.999998
51
-89.999999
0
LINE
5
416
100
AcDbEntity
8
1
100
AcDbLine
6
CONTINUOUS
62
5
10
154.299994
20
114.350030
11
154.299994
21
114.350030
0
LINE
5
417
100
AcDbEntity
8
1
100
AcDbLine
6
CONTINUOUS
62
5
10
122.014288
20
107.000034
11
150.985710
21
107.000034
0
ARC
5
418
100
AcDbEntity
8
1
100
AcDbCircle
6
CONTINUOUS
62
5
10
158.250953
20
132.250031
40
0.500000
100
AcDbArc
50
-179.958330
51
-0.000006
0
LINE
5
419
100
AcDbEntity
8
1
100
AcDbLine
6
CONTINUOUS
62
5
10
157.750953
20
132.249667
11
157.750953
21
141.750031
0
ARC
5
41a
100
AcDbEntity
8
1
100
AcDbCircle
6
CONTINUOUS
62
5
10
158.250953
20
141.750031
40
0.500000
100
AcDbArc
50
0.000000
51
179.999998
0
LINE
5
41b
100
AcDbEntity
8
1
100
AcDbLine
6
CONTINUOUS
62
5
10
158.750953
20
141.750031
11
158.750953
21
132.250031
0
ARC
5
41c
100
AcDbEntity
8
1
100
AcDbCircle
6
CONTINUOUS
62
5
10
157.999993
20
132.250031
40
0.500000
100
AcDbArc
50
179.999998
51
-89.999999
0
LINE
5
41d
100
AcDbEntity
8
1
100
AcDbLine
6
CONTINUOUS
62
5
10
157.999993
20
131.750031
11
158.499992
21
131.750031
0
ARC
5
41e
100
AcDbEntity
8
1
100
AcDbCircle
6
CONTINUOUS
62
5
10
158.499992
20
132.250031
40
0.500000
100
AcDbArc
50
-89.999999
51
0.000000
0
LINE
5
41f
100
AcDbEntity
8
1
100
AcDbLine
6
CONTINUOUS
62
5
10
158.999992
20
132.250031
11
158.999992
21
141.750031
0
ARC
5
420
100
AcDbEntity
8
1
100
AcDbCircle
6
CONTINUOUS
62
5
10
158.499992
20
141.750031
40
0.500000
100
AcDbArc
50
0.000000
51
89.999999
0
LINE
5
421
100
AcDbEntity
8
1
100
AcDbLine
6
CONTINUOUS
62
5
10
158.499992
20
142.250031
11
157.999993
21
142.250031
0
ARC
5
422
100
AcDbEntity
8
1
100
AcDbCircle
6
CONTINUOUS
62
5
10
157.999993
20
141.750031
40
0.500000
100
AcDbArc
50
89.999999
51
179.999998
0
LINE
5
423
100
AcDbEntity
8
1
100
AcDbLine
6
CONTINUOUS
62
5
10
157.499993
20
141.750031
11
157.499993
21
132.250031
0
ARC
5
424
100
AcDbEntity
8
1
100
AcDbCircle
6
CONTINUOUS
62
5
10
159.199992
20
127.500027
40
0.500000
100
AcDbArc
50
-0.000000
51
89.999999
0
POLYLINE
5
425
100
AcDbEntity
8
1
6
CONTINUOUS
62
5
100
AcDb2dPolyline
66
1
10
0.0
20
0.0
30
0.0
70
0
0
VERTEX
5
426
100
AcDbEntity
8
1
100
AcDbVertex
100
AcDb2dVertex
62
5
10
159.199992
20
128.000026
0
VERTEX
5
427
100
AcDbEntity
8
1
100
AcDbVertex
100
AcDb2dVertex
62
5
10
156.499993
20
128.000026
0
VERTEX
5
428
100
AcDbEntity
8
1
100
AcDbVertex
100
AcDb2dVertex
62
5
10
156.499993
20
146.000021
0
VERTEX
5
429
100
AcDbEntity
8
1
100
AcDbVertex
100
AcDb2dVertex
62
5
10
159.199992
20
146.000021
0
SEQEND
5
42a
100
AcDbEntity
8
1
0
ARC
5
42b
100
AcDbEntity
8
1
100
AcDbCircle
6
CONTINUOUS
62
5
10
159.199992
20
146.500021
40
0.500000
100
AcDbArc
50
-89.999999
51
-0.000000
0
POLYLINE
5
42c
100
AcDbEntity
8
1
6
DOT2
62
5
100
AcDb2dPolyline
66
1
10
0.0
20
0.0
30
0.0
70
0
0
VERTEX
5
42d
100
AcDbEntity
8
1
100
AcDbVertex
100
AcDb2dVertex
62
5
10
80.675006
20
154.375017
0
VERTEX
5
42e
100
AcDbEntity
8
1
100
AcDbVertex
100
AcDb2dVertex
62
5
10
80.050006
20
155.312517
0
VERTEX
5
42f
100
AcDbEntity
8
1
100
AcDbVertex
100
AcDb2dVertex
62
5
10
87.550006
20
155.312517
0
SEQEND
5
430
100
AcDbEntity
8
1
0
LINE
5
431
100
AcDbEntity
8
1
100
AcDbLine
6
DOT2
62
5
10
87.550006
20
154.687517
11
87.550006
21
155.937517
0
POLYLINE
5
432
100
AcDbEntity
8
1
6
DOT2
62
5
100
AcDb2dPolyline
66
1
10
0.0
20
0.0
30
0.0
70
0
0
VERTEX
5
433
100
AcDbEntity
8
1
100
AcDbVertex
100
AcDb2dVertex
62
5
10
80.675006
20
159.375017
0
VERTEX
5
434
100
AcDbEntity
8
1
100
AcDbVertex
100
AcDb2dVertex
62
5
10
80.050006
20
160.312517
0
VERTEX
5
435
100
AcDbEntity
8
1
100
AcDbVertex
100
AcDb2dVertex
62
5
10
87.550006
20
160.312517
0
SEQEND
5
436
100
AcDbEntity
8
1
0
LINE
5
437
100
AcDbEntity
8
1
100
AcDbLine
6
DOT2
62
5
10
87.550006
20
159.687517
11
87.550006
21
160.937517
0
POLYLINE
5
438
100
AcDbEntity
8
1
6
DOT2
62
5
100
AcDb2dPolyline
66
1
10
0.0
20
0.0
30
0.0
70
0
0
VERTEX
5
439
100
AcDbEntity
8
1
100
AcDbVertex
100
AcDb2dVertex
62
5
10
82.237506
20
163.750017
0
VERTEX
5
43a
100
AcDbEntity
8
1
100
AcDbVertex
100
AcDb2dVertex
62
5
10
80.675006
20
164.062517
0
VERTEX
5
43b
100
AcDbEntity
8
1
100
AcDbVertex
100
AcDb2dVertex
62
5
10
80.050006
20
165.000017
0
VERTEX
5
43c
100
AcDbEntity
8
1
100
AcDbVertex
100
AcDb2dVertex
62
5
10
80.050006
20
165.937517
0
VERTEX
5
43d
100
AcDbEntity
8
1
100
AcDbVertex
100
AcDb2dVertex
62
5
10
80.362506
20
166.562517
0
VERTEX
5
43e
100
AcDbEntity
8
1
100
AcDbVertex
100
AcDb2dVertex
62
5
10
81.300006
20
166.875017
0
VERTEX
5
43f
100
AcDbEntity
8
1
100
AcDbVertex
100
AcDb2dVertex
62
5
10
82.237506
20
166.875017
0
VERTEX
5
440
100
AcDbEntity
8
1
100
AcDbVertex
100
AcDb2dVertex
62
5
10
83.175006
20
166.562517
0
VERTEX
5
441
100
AcDbEntity
8
1
100
AcDbVertex
100
AcDb2dVertex
62
5
10
87.550006
20
163.750017
0
VERTEX
5
442
100
AcDbEntity
8
1
100
AcDbVertex
100
AcDb2dVertex
62
5
10
87.550006
20
166.875017
0
VERTEX
5
443
100
AcDbEntity
8
1
100
AcDbVertex
100
AcDb2dVertex
62
5
10
86.612506
20
166.875017
0
SEQEND
5
444
100
AcDbEntity
8
1
0
LINE
5
445
100
AcDbEntity
8
1
100
AcDbLine
6
CONTINUOUS
62
5
10
115.800005
20
216.000000
11
86.800006
21
216.000000
0
LINE
5
446
100
AcDbEntity
8
1
100
AcDbLine
6
CONTINUOUS
62
5
10
115.800005
20
104.000034
11
86.800006
21
104.000034
0
POLYLINE
5
447
100
AcDbEntity
8
1
6
CONTINUOUS
62
5
100
AcDb2dPolyline
66
1
10
0.0
20
0.0
30
0.0
70
0
0
VERTEX
5
448
100
AcDbEntity
8
1
100
AcDbVertex
100
AcDb2dVertex
62
5
10
88.800006
20
160.000017
0
VERTEX
5
449
100
AcDbEntity
8
1
100
AcDbVertex
100
AcDb2dVertex
62
5
10
88.800006
20
104.000034
0
VERTEX
5
44a
100
AcDbEntity
8
1
100
AcDbVertex
100
AcDb2dVertex
62
5
10
87.800006
20
110.000034
0
VERTEX
5
44b
100
AcDbEntity
8
1
100
AcDbVertex
100
AcDb2dVertex
62
5
10
89.800006
20
110.000034
0
VERTEX
5
44c
100
AcDbEntity
8
1
100
AcDbVertex
100
AcDb2dVertex
62
5
10
88.800006
20
104.000034
0
VERTEX
5
44d
100
AcDbEntity
8
1
100
AcDbVertex
100
AcDb2dVertex
62
5
10
88.300006
20
110.000034
0
VERTEX
5
44e
100
AcDbEntity
8
1
100
AcDbVertex
100
AcDb2dVertex
62
5
10
89.300006
20
110.000034
0
VERTEX
5
44f
100
AcDbEntity
8
1
100
AcDbVertex
100
AcDb2dVertex
62
5
10
88.800006
20
104.000034
0
SEQEND
5
450
100
AcDbEntity
8
1
0
POLYLINE
5
451
100
AcDbEntity
8
1
6
CONTINUOUS
62
5
100
AcDb2dPolyline
66
1
10
0.0
20
0.0
30
0.0
70
0
0
VERTEX
5
452
100
AcDbEntity
8
1
100
AcDbVertex
100
AcDb2dVertex
62
5
10
88.800006
20
160.000017
0
VERTEX
5
453
100
AcDbEntity
8
1
100
AcDbVertex
100
AcDb2dVertex
62
5
10
88.800006
20
216.000000
0
VERTEX
5
454
100
AcDbEntity
8
1
100
AcDbVertex
100
AcDb2dVertex
62
5
10
89.800006
20
210.000000
0
VERTEX
5
455
100
AcDbEntity
8
1
100
AcDbVertex
100
AcDb2dVertex
62
5
10
87.800006
20
210.000000
0
VERTEX
5
456
100
AcDbEntity
8
1
100
AcDbVertex
100
AcDb2dVertex
62
5
10
88.800006
20
216.000000
0
VERTEX
5
457
100
AcDbEntity
8
1
100
AcDbVertex
100
AcDb2dVertex
62
5
10
89.300006
20
210.000000
0
VERTEX
5
458
100
AcDbEntity
8
1
100
AcDbVertex
100
AcDb2dVertex
62
5
10
88.300006
20
210.000000
0
VERTEX
5
459
100
AcDbEntity
8
1
100
AcDbVertex
100
AcDb2dVertex
62
5
10
88.800006
20
216.000000
0
SEQEND
5
45a
100
AcDbEntity
8
1
0
ARC
5
45b
100
AcDbEntity
8
1
100
AcDbCircle
6
CONTINUOUS
62
5
10
217.499981
20
178.250010
40
0.500000
100
AcDbArc
50
179.999998
51
-89.999999
0
LINE
5
45c
100
AcDbEntity
8
1
100
AcDbLine
6
CONTINUOUS
62
5
10
216.999981
20
178.250010
11
216.999981
21
187.750010
0
ARC
5
45d
100
AcDbEntity
8
1
100
AcDbCircle
6
CONTINUOUS
62
5
10
217.499981
20
187.750010
40
0.500000
100
AcDbArc
50
89.999999
51
179.999998
0
LINE
5
45e
100
AcDbEntity
8
1
100
AcDbLine
6
CONTINUOUS
62
5
10
217.499981
20
188.250010
11
220.189994
21
188.250010
0
ARC
5
45f
100
AcDbEntity
8
1
100
AcDbCircle
6
CONTINUOUS
62
5
10
220.189994
20
187.750010
40
0.500000
100
AcDbArc
50
0.000000
51
89.999999
0
LINE
5
460
100
AcDbEntity
8
1
100
AcDbLine
6
CONTINUOUS
62
5
10
220.689994
20
187.750010
11
220.689994
21
178.250010
0
ARC
5
461
100
AcDbEntity
8
1
100
AcDbCircle
6
CONTINUOUS
62
5
10
220.189994
20
178.250010
40
0.500000
100
AcDbArc
50
-89.999999
51
0.000000
0
LINE
5
462
100
AcDbEntity
8
1
100
AcDbLine
6
CONTINUOUS
62
5
10
220.189994
20
177.750010
11
217.499981
21
177.750010
0
ARC
5
463
100
AcDbEntity
8
1
100
AcDbCircle
6
CONTINUOUS
62
5
10
215.199992
20
192.500007
40
0.500000
100
AcDbArc
50
179.999998
51
-89.999999
0
POLYLINE
5
464
100
AcDbEntity
8
1
6
CONTINUOUS
62
5
100
AcDb2dPolyline
66
1
10
0.0
20
0.0
30
0.0
70
0
0
VERTEX
5
465
100
AcDbEntity
8
1
100
AcDbVertex
100
AcDb2dVertex
62
5
10
215.199992
20
192.000007
0
VERTEX
5
466
100
AcDbEntity
8
1
100
AcDbVertex
100
AcDb2dVertex
62
5
10
223.499984
20
192.000007
0
VERTEX
5
467
100
AcDbEntity
8
1
100
AcDbVertex
100
AcDb2dVertex
62
5
10
223.499982
20
174.000013
0
VERTEX
5
468
100
AcDbEntity
8
1
100
AcDbVertex
100
AcDb2dVertex
62
5
10
215.199992
20
174.000013
0
SEQEND
5
469
100
AcDbEntity
8
1
0
ARC
5
46a
100
AcDbEntity
8
1
100
AcDbCircle
6
CONTINUOUS
62
5
10
215.199992
20
173.500013
40
0.500000
100
AcDbArc
50
89.999999
51
-179.999998
0
ARC
5
46b
100
AcDbEntity
8
1
100
AcDbCircle
6
CONTINUOUS
62
5
10
158.250953
20
178.250017
40
0.500000
100
AcDbArc
50
-179.958330
51
-0.000006
0
LINE
5
46c
100
AcDbEntity
8
1
100
AcDbLine
6
CONTINUOUS
62
5
10
157.750953
20
178.249653
11
157.750953
21
187.750017
0
ARC
5
46d
100
AcDbEntity
8
1
100
AcDbCircle
6
CONTINUOUS
62
5
10
158.250953
20
187.750017
40
0.500000
100
AcDbArc
50
0.000000
51
179.999998
0
LINE
5
46e
100
AcDbEntity
8
1
100
AcDbLine
6
CONTINUOUS
62
5
10
158.750953
20
187.750017
11
158.750953
21
178.250017
0
ARC
5
46f
100
AcDbEntity
8
1
100
AcDbCircle
6
CONTINUOUS
62
5
10
157.999993
20
178.250017
40
0.500000
100
AcDbArc
50
179.999998
51
-89.999999
0
LINE
5
470
100
AcDbEntity
8
1
100
AcDbLine
6
CONTINUOUS
62
5
10
157.999993
20
177.750017
11
158.499992
21
177.750017
0
ARC
5
471
100
AcDbEntity
8
1
100
AcDbCircle
6
CONTINUOUS
62
5
10
158.499992
20
178.250017
40
0.500000
100
AcDbArc
50
-89.999999
51
0.000000
0
LINE
5
472
100
AcDbEntity
8
1
100
AcDbLine
6
CONTINUOUS
62
5
10
158.999992
20
178.250017
11
158.999992
21
187.750017
0
ARC
5
473
100
AcDbEntity
8
1
100
AcDbCircle
6
CONTINUOUS
62
5
10
158.499992
20
187.750017
40
0.500000
100
AcDbArc
50
0.000000
51
89.999999
0
LINE
5
474
100
AcDbEntity
8
1
100
AcDbLine
6
CONTINUOUS
62
5
10
158.499992
20
188.250017
11
157.999993
21
188.250017
0
ARC
5
475
100
AcDbEntity
8
1
100
AcDbCircle
6
CONTINUOUS
62
5
10
157.999993
20
187.750017
40
0.500000
100
AcDbArc
50
89.999999
51
179.999998
0
LINE
5
476
100
AcDbEntity
8
1
100
AcDbLine
6
CONTINUOUS
62
5
10
157.499993
20
187.750017
11
157.499993
21
178.250017
0
ARC
5
477
100
AcDbEntity
8
1
100
AcDbCircle
6
CONTINUOUS
62
5
10
159.199992
20
173.500013
40
0.500000
100
AcDbArc
50
-0.000000
51
89.999999
0
POLYLINE
5
478
100
AcDbEntity
8
1
6
CONTINUOUS
62
5
100
AcDb2dPolyline
66
1
10
0.0
20
0.0
30
0.0
70
0
0
VERTEX
5
479
100
AcDbEntity
8
1
100
AcDbVertex
100
AcDb2dVertex
62
5
10
159.199992
20
174.000013
0
VERTEX
5
47a
100
AcDbEntity
8
1
100
AcDbVertex
100
AcDb2dVertex
62
5
10
156.499993
20
174.000013
0
VERTEX
5
47b
100
AcDbEntity
8
1
100
AcDbVertex
100
AcDb2dVertex
62
5
10
156.499993
20
192.000007
0
VERTEX
5
47c
100
AcDbEntity
8
1
100
AcDbVertex
100
AcDb2dVertex
62
5
10
159.199992
20
192.000007
0
SEQEND
5
47d
100
AcDbEntity
8
1
0
ARC
5
47e
100
AcDbEntity
8
1
100
AcDbCircle
6
CONTINUOUS
62
5
10
159.199992
20
192.500007
40
0.500000
100
AcDbArc
50
-89.999999
51
-0.000000
0
ARC
5
47f
100
AcDbEntity
8
1
100
AcDbCircle
6
CONTINUOUS
62
5
10
225.699994
20
195.200017
40
0.500000
100
AcDbArc
50
0.000000
51
89.999999
0
LINE
5
480
100
AcDbEntity
8
1
100
AcDbLine
6
CONTINUOUS
62
5
10
226.199994
20
195.200017
11
226.199994
21
124.800017
0
ARC
5
481
100
AcDbEntity
8
1
100
AcDbCircle
6
CONTINUOUS
62
5
10
225.699994
20
124.800017
40
0.500000
100
AcDbArc
50
-89.999999
51
0.000000
0
LINE
5
482
100
AcDbEntity
8
1
100
AcDbLine
6
CONTINUOUS
62
5
10
225.699994
20
124.300017
11
218.699994
21
124.300017
0
LINE
5
483
100
AcDbEntity
8
1
100
AcDbLine
6
CONTINUOUS
62
5
10
218.699994
20
195.700017
11
225.699994
21
195.700017
0
ARC
5
484
100
AcDbEntity
8
1
100
AcDbCircle
6
CONTINUOUS
62
5
10
217.699991
20
215.500000
40
0.500000
100
AcDbArc
50
90.000012
51
161.565001
0
LINE
5
485
100
AcDbEntity
8
1
100
AcDbLine
6
CONTINUOUS
62
5
10
217.225650
20
215.658114
11
216.139575
21
213.093471
0
ARC
5
486
100
AcDbEntity
8
1
100
AcDbCircle
6
CONTINUOUS
62
5
10
216.599992
20
212.898493
40
0.500000
100
AcDbArc
50
157.048315
51
-179.999998
0
POLYLINE
5
487
100
AcDbEntity
8
1
6
CONTINUOUS
62
5
100
AcDb2dPolyline
66
1
10
0.0
20
0.0
30
0.0
70
0
0
VERTEX
5
488
100
AcDbEntity
8
1
100
AcDbVertex
100
AcDb2dVertex
62
5
10
216.099992
20
212.898493
0
VERTEX
5
489
100
AcDbEntity
8
1
100
AcDbVertex
100
AcDb2dVertex
62
5
10
216.099992
20
206.150003
0
VERTEX
5
48a
100
AcDbEntity
8
1
100
AcDbVertex
100
AcDb2dVertex
62
5
10
215.199992
20
206.150003
0
SEQEND
5
48b
100
AcDbEntity
8
1
0
ARC
5
48c
100
AcDbEntity
8
1
100
AcDbCircle
6
CONTINUOUS
62
5
10
215.199992
20
205.650003
40
0.500000
100
AcDbArc
50
89.999999
51
-179.999998
0
LINE
5
48d
100
AcDbEntity
8
1
100
AcDbLine
6
CONTINUOUS
62
5
10
214.699992
20
205.650003
11
214.699992
21
114.350030
0
ARC
5
48e
100
AcDbEntity
8
1
100
AcDbCircle
6
CONTINUOUS
62
5
10
215.199992
20
114.350030
40
0.500000
100
AcDbArc
50
-179.999998
51
-89.999999
0
POLYLINE
5
48f
100
AcDbEntity
8
1
6
CONTINUOUS
62
5
100
AcDb2dPolyline
66
1
10
0.0
20
0.0
30
0.0
70
0
0
VERTEX
5
490
100
AcDbEntity
8
1
100
AcDbVertex
100
AcDb2dVertex
62
5
10
215.199992
20
113.850031
0
VERTEX
5
491
100
AcDbEntity
8
1
100
AcDbVertex
100
AcDb2dVertex
62
5
10
216.099992
20
113.850031
0
VERTEX
5
492
100
AcDbEntity
8
1
100
AcDbVertex
100
AcDb2dVertex
62
5
10
216.099992
20
107.101540
0
SEQEND
5
493
100
AcDbEntity
8
1
0
ARC
5
494
100
AcDbEntity
8
1
100
AcDbCircle
6
CONTINUOUS
62
5
10
216.599992
20
107.101540
40
0.500000
100
AcDbArc
50
-179.999998
51
-157.048315
0
LINE
5
495
100
AcDbEntity
8
1
100
AcDbLine
6
CONTINUOUS
62
5
10
216.139575
20
106.906563
11
217.225650
21
104.341919
0
ARC
5
496
100
AcDbEntity
8
1
100
AcDbCircle
6
CONTINUOUS
62
5
10
217.699991
20
104.500033
40
0.500000
100
AcDbArc
50
-161.565013
51
-89.999987
0
POLYLINE
5
497
100
AcDbEntity
8
1
6
CONTINUOUS
62
5
100
AcDb2dPolyline
66
1
10
0.0
20
0.0
30
0.0
70
0
0
VERTEX
5
498
100
AcDbEntity
8
1
100
AcDbVertex
100
AcDb2dVertex
62
5
10
217.699991
20
104.000034
0
VERTEX
5
499
100
AcDbEntity
8
1
100
AcDbVertex
100
AcDb2dVertex
62
5
10
218.699994
20
104.000034
0
VERTEX
5
49a
100
AcDbEntity
8
1
100
AcDbVertex
100
AcDb2dVertex
62
5
10
218.699994
20
126.800027
0
SEQEND
5
49b
100
AcDbEntity
8
1
0
POLYLINE
5
49c
100
AcDbEntity
8
1
6
CONTINUOUS
62
5
100
AcDb2dPolyline
66
1
10
0.0
20
0.0
30
0.0
70
0
0
VERTEX
5
49d
100
AcDbEntity
8
1
100
AcDbVertex
100
AcDb2dVertex
62
5
10
218.699994
20
193.200007
0
VERTEX
5
49e
100
AcDbEntity
8
1
100
AcDbVertex
100
AcDb2dVertex
62
5
10
218.699994
20
216.000000
0
VERTEX
5
49f
100
AcDbEntity
8
1
100
AcDbVertex
100
AcDb2dVertex
62
5
10
217.699991
20
216.000000
0
SEQEND
5
4a0
100
AcDbEntity
8
1
0
ARC
5
4a1
100
AcDbEntity
8
1
100
AcDbCircle
6
CONTINUOUS
62
5
10
157.699993
20
200.500005
40
1.899999
100
AcDbArc
50
0.000000
51
89.999999
0
LINE
5
4a2
100
AcDbEntity
8
1
100
AcDbLine
6
CONTINUOUS
62
5
10
159.599992
20
200.500005
11
159.599992
21
192.500007
0
ARC
5
4a3
100
AcDbEntity
8
1
100
AcDbCircle
6
CONTINUOUS
62
5
10
159.199992
20
192.500007
40
0.400000
100
AcDbArc
50
-89.999999
51
0.000000
0
POLYLINE
5
4a4
100
AcDbEntity
8
1
6
CONTINUOUS
62
5
100
AcDb2dPolyline
66
1
10
0.0
20
0.0
30
0.0
70
0
0
VERTEX
5
4a5
100
AcDbEntity
8
1
100
AcDbVertex
100
AcDb2dVertex
62
5
10
159.199992
20
192.100007
0
VERTEX
5
4a6
100
AcDbEntity
8
1
100
AcDbVertex
100
AcDb2dVertex
62
5
10
156.399993
20
192.100007
0
VERTEX
5
4a7
100
AcDbEntity
8
1
100
AcDbVertex
100
AcDb2dVertex
62
5
10
156.399993
20
173.900013
0
VERTEX
5
4a8
100
AcDbEntity
8
1
100
AcDbVertex
100
AcDb2dVertex
62
5
10
159.199992
20
173.900013
0
SEQEND
5
4a9
100
AcDbEntity
8
1
0
ARC
5
4aa
100
AcDbEntity
8
1
100
AcDbCircle
6
CONTINUOUS
62
5
10
159.199992
20
173.500013
40
0.400000
100
AcDbArc
50
-0.000000
51
89.999999
0
LINE
5
4ab
100
AcDbEntity
8
1
100
AcDbLine
6
CONTINUOUS
62
5
10
159.599992
20
173.500013
11
159.599992
21
169.500014
0
ARC
5
4ac
100
AcDbEntity
8
1
100
AcDbCircle
6
CONTINUOUS
62
5
10
159.199992
20
169.500014
40
0.400000
100
AcDbArc
50
-89.999999
51
-0.000000
0
POLYLINE
5
4ad
100
AcDbEntity
8
1
6
CONTINUOUS
62
5
100
AcDb2dPolyline
66
1
10
0.0
20
0.0
30
0.0
70
0
0
VERTEX
5
4ae
100
AcDbEntity
8
1
100
AcDbVertex
100
AcDb2dVertex
62
5
10
159.199992
20
169.100014
0
VERTEX
5
4af
100
AcDbEntity
8
1
100
AcDbVertex
100
AcDb2dVertex
62
5
10
156.399993
20
169.100014
0
VERTEX
5
4b0
100
AcDbEntity
8
1
100
AcDbVertex
100
AcDb2dVertex
62
5
10
156.399993
20
150.900020
0
VERTEX
5
4b1
100
AcDbEntity
8
1
100
AcDbVertex
100
AcDb2dVertex
62
5
10
159.199992
20
150.900020
0
SEQEND
5
4b2
100
AcDbEntity
8
1
0
ARC
5
4b3
100
AcDbEntity
8
1
100
AcDbCircle
6
CONTINUOUS
62
5
10
159.199992
20
150.500020
40
0.400000
100
AcDbArc
50
0.000000
51
89.999999
0
LINE
5
4b4
100
AcDbEntity
8
1
100
AcDbLine
6
CONTINUOUS
62
5
10
159.599992
20
150.500020
11
159.599992
21
146.500021
0
ARC
5
4b5
100
AcDbEntity
8
1
100
AcDbCircle
6
CONTINUOUS
62
5
10
159.199992
20
146.500021
40
0.400000
100
AcDbArc
50
-89.999999
51
0.000000
0
POLYLINE
5
4b6
100
AcDbEntity
8
1
6
CONTINUOUS
62
5
100
AcDb2dPolyline
66
1
10
0.0
20
0.0
30
0.0
70
0
0
VERTEX
5
4b7
100
AcDbEntity
8
1
100
AcDbVertex
100
AcDb2dVertex
62
5
10
159.199992
20
146.100021
0
VERTEX
5
4b8
100
AcDbEntity
8
1
100
AcDbVertex
100
AcDb2dVertex
62
5
10
156.399993
20
146.100021
0
VERTEX
5
4b9
100
AcDbEntity
8
1
100
AcDbVertex
100
AcDb2dVertex
62
5
10
156.399993
20
127.900026
0
VERTEX
5
4ba
100
AcDbEntity
8
1
100
AcDbVertex
100
AcDb2dVertex
62
5
10
159.199992
20
127.900026
0
SEQEND
5
4bb
100
AcDbEntity
8
1
0
ARC
5
4bc
100
AcDbEntity
8
1
100
AcDbCircle
6
CONTINUOUS
62
5
10
159.199992
20
127.500027
40
0.400000
100
AcDbArc
50
-0.000000
51
89.999999
0
LINE
5
4bd
100
AcDbEntity
8
1
100
AcDbLine
6
CONTINUOUS
62
5
10
159.599992
20
127.500027
11
159.599992
21
119.500029
0
ARC
5
4be
100
AcDbEntity
8
1
100
AcDbCircle
6
CONTINUOUS
62
5
10
157.699993
20
119.500029
40
1.899999
100
AcDbArc
50
-89.999999
51
-0.000000
0
LINE
5
4bf
100
AcDbEntity
8
1
100
AcDbLine
6
CONTINUOUS
62
5
10
157.699993
20
117.600030
11
156.299993
21
117.600030
0
LINE
5
4c0
100
AcDbEntity
8
1
100
AcDbLine
6
CONTINUOUS
62
5
10
156.299993
20
202.400004
11
157.699993
21
202.400004
0
ARC
5
4c1
100
AcDbEntity
8
1
100
AcDbCircle
6
CONTINUOUS
62
5
10
115.800005
20
200.500005
40
1.899999
100
AcDbArc
50
89.999999
51
179.999998
0
LINE
5
4c2
100
AcDbEntity
8
1
100
AcDbLine
6
CONTINUOUS
62
5
10
113.900006
20
200.500005
11
113.900006
21
191.800017
0
ARC
5
4c3
100
AcDbEntity
8
1
100
AcDbCircle
6
CONTINUOUS
62
5
10
114.300006
20
191.800017
40
0.400000
100
AcDbArc
50
-179.999998
51
-89.999999
0
POLYLINE
5
4c4
100
AcDbEntity
8
1
6
CONTINUOUS
62
5
100
AcDb2dPolyline
66
1
10
0.0
20
0.0
30
0.0
70
0
0
VERTEX
5
4c5
100
AcDbEntity
8
1
100
AcDbVertex
100
AcDb2dVertex
62
5
10
114.300006
20
191.400017
0
VERTEX
5
4c6
100
AcDbEntity
8
1
100
AcDbVertex
100
AcDb2dVertex
62
5
10
116.599999
20
191.400017
0
VERTEX
5
4c7
100
AcDbEntity
8
1
100
AcDbVertex
100
AcDb2dVertex
62
5
10
116.599999
20
187.900010
0
VERTEX
5
4c8
100
AcDbEntity
8
1
100
AcDbVertex
100
AcDb2dVertex
62
5
10
114.300006
20
187.900010
0
SEQEND
5
4c9
100
AcDbEntity
8
1
0
ARC
5
4ca
100
AcDbEntity
8
1
100
AcDbCircle
6
CONTINUOUS
62
5
10
114.300006
20
187.500010
40
0.400000
100
AcDbArc
50
89.999999
51
-179.999998
0
LINE
5
4cb
100
AcDbEntity
8
1
100
AcDbLine
6
CONTINUOUS
62
5
10
113.900006
20
187.500010
11
113.900006
21
178.500010
0
ARC
5
4cc
100
AcDbEntity
8
1
100
AcDbCircle
6
CONTINUOUS
62
5
10
114.300006
20
178.500010
40
0.400000
100
AcDbArc
50
-179.999998
51
-89.999999
0
POLYLINE
5
4cd
100
AcDbEntity
8
1
6
CONTINUOUS
62
5
100
AcDb2dPolyline
66
1
10
0.0
20
0.0
30
0.0
70
0
0
VERTEX
5
4ce
100
AcDbEntity
8
1
100
AcDbVertex
100
AcDb2dVertex
62
5
10
114.300006
20
178.100010
0
VERTEX
5
4cf
100
AcDbEntity
8
1
100
AcDbVertex
100
AcDb2dVertex
62
5
10
116.599999
20
178.100010
0
VERTEX
5
4d0
100
AcDbEntity
8
1
100
AcDbVertex
100
AcDb2dVertex
62
5
10
116.599999
20
174.600017
0
VERTEX
5
4d1
100
AcDbEntity
8
1
100
AcDbVertex
100
AcDb2dVertex
62
5
10
114.300006
20
174.600017
0
SEQEND
5
4d2
100
AcDbEntity
8
1
0
ARC
5
4d3
100
AcDbEntity
8
1
100
AcDbCircle
6
CONTINUOUS
62
5
10
114.300006
20
174.200017
40
0.400000
100
AcDbArc
50
89.999999
51
179.999998
0
LINE
5
4d4
100
AcDbEntity
8
1
100
AcDbLine
6
CONTINUOUS
62
5
10
113.900006
20
174.200017
11
113.900006
21
168.800017
0
ARC
5
4d5
100
AcDbEntity
8
1
100
AcDbCircle
6
CONTINUOUS
62
5
10
114.300006
20
168.800017
40
0.400000
100
AcDbArc
50
-179.999998
51
-89.999999
0
POLYLINE
5
4d6
100
AcDbEntity
8
1
6
CONTINUOUS
62
5
100
AcDb2dPolyline
66
1
10
0.0
20
0.0
30
0.0
70
0
0
VERTEX
5
4d7
100
AcDbEntity
8
1
100
AcDbVertex
100
AcDb2dVertex
62
5
10
114.300006
20
168.400017
0
VERTEX
5
4d8
100
AcDbEntity
8
1
100
AcDbVertex
100
AcDb2dVertex
62
5
10
116.599999
20
168.400017
0
VERTEX
5
4d9
100
AcDbEntity
8
1
100
AcDbVertex
100
AcDb2dVertex
62
5
10
116.600005
20
164.900015
0
VERTEX
5
4da
100
AcDbEntity
8
1
100
AcDbVertex
100
AcDb2dVertex
62
5
10
114.300012
20
164.900015
0
SEQEND
5
4db
100
AcDbEntity
8
1
0
ARC
5
4dc
100
AcDbEntity
8
1
100
AcDbCircle
6
CONTINUOUS
62
5
10
114.300012
20
164.500015
40
0.400000
100
AcDbArc
50
89.999999
51
179.999998
0
LINE
5
4dd
100
AcDbEntity
8
1
100
AcDbLine
6
CONTINUOUS
62
5
10
113.900012
20
164.500015
11
113.900006
21
155.500018
0
ARC
5
4de
100
AcDbEntity
8
1
100
AcDbCircle
6
CONTINUOUS
62
5
10
114.300006
20
155.500018
40
0.400000
100
AcDbArc
50
-179.999998
51
-89.999999
0
POLYLINE
5
4df
100
AcDbEntity
8
1
6
CONTINUOUS
62
5
100
AcDb2dPolyline
66
1
10
0.0
20
0.0
30
0.0
70
0
0
VERTEX
5
4e0
100
AcDbEntity
8
1
100
AcDbVertex
100
AcDb2dVertex
62
5
10
114.300006
20
155.100018
0
VERTEX
5
4e1
100
AcDbEntity
8
1
100
AcDbVertex
100
AcDb2dVertex
62
5
10
116.599999
20
155.100018
0
VERTEX
5
4e2
100
AcDbEntity
8
1
100
AcDbVertex
100
AcDb2dVertex
62
5
10
116.599999
20
151.600017
0
VERTEX
5
4e3
100
AcDbEntity
8
1
100
AcDbVertex
100
AcDb2dVertex
62
5
10
114.300006
20
151.600017
0
SEQEND
5
4e4
100
AcDbEntity
8
1
0
ARC
5
4e5
100
AcDbEntity
8
1
100
AcDbCircle
6
CONTINUOUS
62
5
10
114.300006
20
151.200017
40
0.400000
100
AcDbArc
50
89.999999
51
-179.999998
0
LINE
5
4e6
100
AcDbEntity
8
1
100
AcDbLine
6
CONTINUOUS
62
5
10
113.900006
20
151.200017
11
113.900006
21
145.800017
0
ARC
5
4e7
100
AcDbEntity
8
1
100
AcDbCircle
6
CONTINUOUS
62
5
10
114.300006
20
145.800017
40
0.400000
100
AcDbArc
50
179.999998
51
-89.999999
0
POLYLINE
5
4e8
100
AcDbEntity
8
1
6
CONTINUOUS
62
5
100
AcDb2dPolyline
66
1
10
0.0
20
0.0
30
0.0
70
0
0
VERTEX
5
4e9
100
AcDbEntity
8
1
100
AcDbVertex
100
AcDb2dVertex
62
5
10
114.300006
20
145.400017
0
VERTEX
5
4ea
100
AcDbEntity
8
1
100
AcDbVertex
100
AcDb2dVertex
62
5
10
116.599999
20
145.400017
0
VERTEX
5
4eb
100
AcDbEntity
8
1
100
AcDbVertex
100
AcDb2dVertex
62
5
10
116.599999
20
141.900024
0
VERTEX
5
4ec
100
AcDbEntity
8
1
100
AcDbVertex
100
AcDb2dVertex
62
5
10
114.300006
20
141.900024
0
SEQEND
5
4ed
100
AcDbEntity
8
1
0
ARC
5
4ee
100
AcDbEntity
8
1
100
AcDbCircle
6
CONTINUOUS
62
5
10
114.300006
20
141.500024
40
0.400000
100
AcDbArc
50
89.999999
51
179.999998
0
LINE
5
4ef
100
AcDbEntity
8
1
100
AcDbLine
6
CONTINUOUS
62
5
10
113.900006
20
141.500024
11
113.900006
21
132.500024
0
ARC
5
4f0
100
AcDbEntity
8
1
100
AcDbCircle
6
CONTINUOUS
62
5
10
114.300006
20
132.500024
40
0.400000
100
AcDbArc
50
-179.999998
51
-89.999999
0
POLYLINE
5
4f1
100
AcDbEntity
8
1
6
CONTINUOUS
62
5
100
AcDb2dPolyline
66
1
10
0.0
20
0.0
30
0.0
70
0
0
VERTEX
5
4f2
100
AcDbEntity
8
1
100
AcDbVertex
100
AcDb2dVertex
62
5
10
114.300006
20
132.100024
0
VERTEX
5
4f3
100
AcDbEntity
8
1
100
AcDbVertex
100
AcDb2dVertex
62
5
10
116.599999
20
132.100024
0
VERTEX
5
4f4
100
AcDbEntity
8
1
100
AcDbVertex
100
AcDb2dVertex
62
5
10
116.599999
20
128.600017
0
VERTEX
5
4f5
100
AcDbEntity
8
1
100
AcDbVertex
100
AcDb2dVertex
62
5
10
114.300006
20
128.600017
0
SEQEND
5
4f6
100
AcDbEntity
8
1
0
ARC
5
4f7
100
AcDbEntity
8
1
100
AcDbCircle
6
CONTINUOUS
62
5
10
114.300006
20
128.200017
40
0.400000
100
AcDbArc
50
89.999999
51
-179.999998
0
LINE
5
4f8
100
AcDbEntity
8
1
100
AcDbLine
6
CONTINUOUS
62
5
10
113.900006
20
128.200017
11
113.900006
21
119.500029
0
ARC
5
4f9
100
AcDbEntity
8
1
100
AcDbCircle
6
CONTINUOUS
62
5
10
115.800005
20
119.500029
40
1.899999
100
AcDbArc
50
-179.999998
51
-89.999999
0
LINE
5
4fa
100
AcDbEntity
8
1
100
AcDbLine
6
CONTINUOUS
62
5
10
115.800005
20
117.600030
11
116.700005
21
117.600030
0
LINE
5
4fb
100
AcDbEntity
8
1
100
AcDbLine
6
CONTINUOUS
62
5
10
116.700005
20
202.400004
11
115.800005
21
202.400004
0
ARC
5
4fc
100
AcDbEntity
8
1
100
AcDbCircle
6
CONTINUOUS
62
5
10
152.499994
20
191.500007
40
0.500000
100
AcDbArc
50
179.999998
51
-89.999999
0
POLYLINE
5
4fd
100
AcDbEntity
8
1
6
CONTINUOUS
62
5
100
AcDb2dPolyline
66
1
10
0.0
20
0.0
30
0.0
70
0
0
VERTEX
5
4fe
100
AcDbEntity
8
1
100
AcDbVertex
100
AcDb2dVertex
62
5
10
152.499994
20
191.000008
0
VERTEX
5
4ff
100
AcDbEntity
8
1
100
AcDbVertex
100
AcDb2dVertex
62
5
10
152.499994
20
191.000008
0
VERTEX
5
500
100
AcDbEntity
8
1
100
AcDbVertex
100
AcDb2dVertex
62
5
10
152.499994
20
175.000012
0
VERTEX
5
501
100
AcDbEntity
8
1
100
AcDbVertex
100
AcDb2dVertex
62
5
10
152.499994
20
175.000012
0
SEQEND
5
502
100
AcDbEntity
8
1
0
ARC
5
503
100
AcDbEntity
8
1
100
AcDbCircle
6
CONTINUOUS
62
5
10
152.499994
20
174.500012
40
0.500000
100
AcDbArc
50
89.999999
51
179.999998
0
LINE
5
504
100
AcDbEntity
8
1
100
AcDbLine
6
CONTINUOUS
62
5
10
151.999994
20
174.500012
11
151.999994
21
168.500014
0
ARC
5
505
100
AcDbEntity
8
1
100
AcDbCircle
6
CONTINUOUS
62
5
10
152.499994
20
168.500014
40
0.500000
100
AcDbArc
50
179.999998
51
-89.999999
0
POLYLINE
5
506
100
AcDbEntity
8
1
6
CONTINUOUS
62
5
100
AcDb2dPolyline
66
1
10
0.0
20
0.0
30
0.0
70
0
0
VERTEX
5
507
100
AcDbEntity
8
1
100
AcDbVertex
100
AcDb2dVertex
62
5
10
152.499994
20
168.000014
0
VERTEX
5
508
100
AcDbEntity
8
1
100
AcDbVertex
100
AcDb2dVertex
62
5
10
152.499994
20
168.000014
0
VERTEX
5
509
100
AcDbEntity
8
1
100
AcDbVertex
100
AcDb2dVertex
62
5
10
152.499994
20
152.000019
0
VERTEX
5
50a
100
AcDbEntity
8
1
100
AcDbVertex
100
AcDb2dVertex
62
5
10
152.499994
20
152.000019
0
SEQEND
5
50b
100
AcDbEntity
8
1
0
ARC
5
50c
100
AcDbEntity
8
1
100
AcDbCircle
6
CONTINUOUS
62
5
10
152.499994
20
151.500019
40
0.500000
100
AcDbArc
50
89.999999
51
179.999998
0
LINE
5
50d
100
AcDbEntity
8
1
100
AcDbLine
6
CONTINUOUS
62
5
10
151.999994
20
151.500019
11
151.999994
21
145.500021
0
ARC
5
50e
100
AcDbEntity
8
1
100
AcDbCircle
6
CONTINUOUS
62
5
10
152.499994
20
145.500021
40
0.500000
100
AcDbArc
50
179.999998
51
-89.999999
0
POLYLINE
5
50f
100
AcDbEntity
8
1
6
CONTINUOUS
62
5
100
AcDb2dPolyline
66
1
10
0.0
20
0.0
30
0.0
70
0
0
VERTEX
5
510
100
AcDbEntity
8
1
100
AcDbVertex
100
AcDb2dVertex
62
5
10
152.499994
20
145.000021
0
VERTEX
5
511
100
AcDbEntity
8
1
100
AcDbVertex
100
AcDb2dVertex
62
5
10
152.499994
20
145.000021
0
VERTEX
5
512
100
AcDbEntity
8
1
100
AcDbVertex
100
AcDb2dVertex
62
5
10
152.499994
20
129.000026
0
VERTEX
5
513
100
AcDbEntity
8
1
100
AcDbVertex
100
AcDb2dVertex
62
5
10
152.499994
20
129.000026
0
SEQEND
5
514
100
AcDbEntity
8
1
0
ARC
5
515
100
AcDbEntity
8
1
100
AcDbCircle
6
CONTINUOUS
62
5
10
152.499994
20
128.500026
40
0.500000
100
AcDbArc
50
89.999999
51
179.999998
0
POLYLINE
5
516
100
AcDbEntity
8
1
6
CONTINUOUS
62
5
100
AcDb2dPolyline
66
1
10
0.0
20
0.0
30
0.0
70
0
0
VERTEX
5
517
100
AcDbEntity
8
1
100
AcDbVertex
100
AcDb2dVertex
62
5
10
151.999994
20
128.500026
0
VERTEX
5
518
100
AcDbEntity
8
1
100
AcDbVertex
100
AcDb2dVertex
62
5
10
151.999994
20
125.300017
0
VERTEX
5
519
100
AcDbEntity
8
1
100
AcDbVertex
100
AcDb2dVertex
62
5
10
122.200003
20
125.300017
0
VERTEX
5
51a
100
AcDbEntity
8
1
100
AcDbVertex
100
AcDb2dVertex
62
5
10
122.200003
20
128.500026
0
SEQEND
5
51b
100
AcDbEntity
8
1
0
ARC
5
51c
100
AcDbEntity
8
1
100
AcDbCircle
6
CONTINUOUS
62
5
10
121.700003
20
128.500026
40
0.500000
100
AcDbArc
50
-0.000000
51
89.999999
0
POLYLINE
5
51d
100
AcDbEntity
8
1
6
CONTINUOUS
62
5
100
AcDb2dPolyline
66
1
10
0.0
20
0.0
30
0.0
70
0
0
VERTEX
5
51e
100
AcDbEntity
8
1
100
AcDbVertex
100
AcDb2dVertex
62
5
10
121.700003
20
129.000026
0
VERTEX
5
51f
100
AcDbEntity
8
1
100
AcDbVertex
100
AcDb2dVertex
62
5
10
120.500004
20
129.000026
0
VERTEX
5
520
100
AcDbEntity
8
1
100
AcDbVertex
100
AcDb2dVertex
62
5
10
120.500004
20
145.000021
0
VERTEX
5
521
100
AcDbEntity
8
1
100
AcDbVertex
100
AcDb2dVertex
62
5
10
121.700003
20
145.000021
0
SEQEND
5
522
100
AcDbEntity
8
1
0
ARC
5
523
100
AcDbEntity
8
1
100
AcDbCircle
6
CONTINUOUS
62
5
10
121.700003
20
145.500021
40
0.500000
100
AcDbArc
50
-89.999999
51
0.000000
0
LINE
5
524
100
AcDbEntity
8
1
100
AcDbLine
6
CONTINUOUS
62
5
10
122.200003
20
145.500021
11
122.200003
21
151.500019
0
ARC
5
525
100
AcDbEntity
8
1
100
AcDbCircle
6
CONTINUOUS
62
5
10
121.700003
20
151.500019
40
0.500000
100
AcDbArc
50
-0.000000
51
89.999999
0
POLYLINE
5
526
100
AcDbEntity
8
1
6
CONTINUOUS
62
5
100
AcDb2dPolyline
66
1
10
0.0
20
0.0
30
0.0
70
0
0
VERTEX
5
527
100
AcDbEntity
8
1
100
AcDbVertex
100
AcDb2dVertex
62
5
10
121.700003
20
152.000019
0
VERTEX
5
528
100
AcDbEntity
8
1
100
AcDbVertex
100
AcDb2dVertex
62
5
10
120.500004
20
152.000019
0
VERTEX
5
529
100
AcDbEntity
8
1
100
AcDbVertex
100
AcDb2dVertex
62
5
10
120.500004
20
168.000014
0
VERTEX
5
52a
100
AcDbEntity
8
1
100
AcDbVertex
100
AcDb2dVertex
62
5
10
121.700003
20
168.000014
0
SEQEND
5
52b
100
AcDbEntity
8
1
0
ARC
5
52c
100
AcDbEntity
8
1
100
AcDbCircle
6
CONTINUOUS
62
5
10
121.700003
20
168.500014
40
0.500000
100
AcDbArc
50
-89.999999
51
-0.000000
0
LINE
5
52d
100
AcDbEntity
8
1
100
AcDbLine
6
CONTINUOUS
62
5
10
122.200003
20
168.500014
11
122.200003
21
174.500012
0
ARC
5
52e
100
AcDbEntity
8
1
100
AcDbCircle
6
CONTINUOUS
62
5
10
121.700003
20
174.500012
40
0.500000
100
AcDbArc
50
-0.000000
51
89.999999
0
POLYLINE
5
52f
100
AcDbEntity
8
1
6
CONTINUOUS
62
5
100
AcDb2dPolyline
66
1
10
0.0
20
0.0
30
0.0
70
0
0
VERTEX
5
530
100
AcDbEntity
8
1
100
AcDbVertex
100
AcDb2dVertex
62
5
10
121.700003
20
175.000012
0
VERTEX
5
531
100
AcDbEntity
8
1
100
AcDbVertex
100
AcDb2dVertex
62
5
10
120.500004
20
175.000012
0
VERTEX
5
532
100
AcDbEntity
8
1
100
AcDbVertex
100
AcDb2dVertex
62
5
10
120.500004
20
191.000008
0
VERTEX
5
533
100
AcDbEntity
8
1
100
AcDbVertex
100
AcDb2dVertex
62
5
10
121.700003
20
191.000008
0
SEQEND
5
534
100
AcDbEntity
8
1
0
ARC
5
535
100
AcDbEntity
8
1
100
AcDbCircle
6
CONTINUOUS
62
5
10
121.700003
20
191.500007
40
0.500000
100
AcDbArc
50
-89.999999
51
-0.000000
0
POLYLINE
5
536
100
AcDbEntity
8
1
6
CONTINUOUS
62
5
100
AcDb2dPolyline
66
1
10
0.0
20
0.0
30
0.0
70
0
0
VERTEX
5
537
100
AcDbEntity
8
1
100
AcDbVertex
100
AcDb2dVertex
62
5
10
122.200003
20
191.500007
0
VERTEX
5
538
100
AcDbEntity
8
1
100
AcDbVertex
100
AcDb2dVertex
62
5
10
122.200003
20
194.700017
0
VERTEX
5
539
100
AcDbEntity
8
1
100
AcDbVertex
100
AcDb2dVertex
62
5
10
151.999994
20
194.700017
0
VERTEX
5
53a
100
AcDbEntity
8
1
100
AcDbVertex
100
AcDb2dVertex
62
5
10
151.999994
20
191.500007
0
SEQEND
5
53b
100
AcDbEntity
8
1
0
ARC
5
53c
100
AcDbEntity
8
1
100
AcDbCircle
6
CONTINUOUS
62
5
10
121.700003
20
191.500007
40
0.400000
100
AcDbArc
50
-89.999999
51
-0.000000
0
POLYLINE
5
53d
100
AcDbEntity
8
1
6
CONTINUOUS
62
5
100
AcDb2dPolyline
66
1
10
0.0
20
0.0
30
0.0
70
0
0
VERTEX
5
53e
100
AcDbEntity
8
1
100
AcDbVertex
100
AcDb2dVertex
62
5
10
121.700003
20
191.100007
0
VERTEX
5
53f
100
AcDbEntity
8
1
100
AcDbVertex
100
AcDb2dVertex
62
5
10
120.400004
20
191.100007
0
VERTEX
5
540
100
AcDbEntity
8
1
100
AcDbVertex
100
AcDb2dVertex
62
5
10
120.400004
20
174.900012
0
VERTEX
5
541
100
AcDbEntity
8
1
100
AcDbVertex
100
AcDb2dVertex
62
5
10
121.700003
20
174.900012
0
SEQEND
5
542
100
AcDbEntity
8
1
0
ARC
5
543
100
AcDbEntity
8
1
100
AcDbCircle
6
CONTINUOUS
62
5
10
121.700003
20
174.500012
40
0.400000
100
AcDbArc
50
-0.000000
51
89.999999
0
LINE
5
544
100
AcDbEntity
8
1
100
AcDbLine
6
CONTINUOUS
62
5
10
122.100003
20
174.500012
11
122.100003
21
168.500014
0
ARC
5
545
100
AcDbEntity
8
1
100
AcDbCircle
6
CONTINUOUS
62
5
10
121.700003
20
168.500014
40
0.400000
100
AcDbArc
50
-89.999999
51
-0.000000
0
POLYLINE
5
546
100
AcDbEntity
8
1
6
CONTINUOUS
62
5
100
AcDb2dPolyline
66
1
10
0.0
20
0.0
30
0.0
70
0
0
VERTEX
5
547
100
AcDbEntity
8
1
100
AcDbVertex
100
AcDb2dVertex
62
5
10
121.700003
20
168.100014
0
VERTEX
5
548
100
AcDbEntity
8
1
100
AcDbVertex
100
AcDb2dVertex
62
5
10
120.400004
20
168.100014
0
VERTEX
5
549
100
AcDbEntity
8
1
100
AcDbVertex
100
AcDb2dVertex
62
5
10
120.400004
20
151.900019
0
VERTEX
5
54a
100
AcDbEntity
8
1
100
AcDbVertex
100
AcDb2dVertex
62
5
10
121.700003
20
151.900019
0
SEQEND
5
54b
100
AcDbEntity
8
1
0
ARC
5
54c
100
AcDbEntity
8
1
100
AcDbCircle
6
CONTINUOUS
62
5
10
121.700003
20
151.500019
40
0.400000
100
AcDbArc
50
0.000000
51
89.999999
0
LINE
5
54d
100
AcDbEntity
8
1
100
AcDbLine
6
CONTINUOUS
62
5
10
122.100003
20
151.500019
11
122.100003
21
145.500021
0
ARC
5
54e
100
AcDbEntity
8
1
100
AcDbCircle
6
CONTINUOUS
62
5
10
121.700003
20
145.500021
40
0.400000
100
AcDbArc
50
-89.999999
51
-0.000000
0
POLYLINE
5
54f
100
AcDbEntity
8
1
6
CONTINUOUS
62
5
100
AcDb2dPolyline
66
1
10
0.0
20
0.0
30
0.0
70
0
0
VERTEX
5
550
100
AcDbEntity
8
1
100
AcDbVertex
100
AcDb2dVertex
62
5
10
121.700003
20
145.100021
0
VERTEX
5
551
100
AcDbEntity
8
1
100
AcDbVertex
100
AcDb2dVertex
62
5
10
120.400004
20
145.100021
0
VERTEX
5
552
100
AcDbEntity
8
1
100
AcDbVertex
100
AcDb2dVertex
62
5
10
120.400004
20
128.900026
0
VERTEX
5
553
100
AcDbEntity
8
1
100
AcDbVertex
100
AcDb2dVertex
62
5
10
121.700003
20
128.900026
0
SEQEND
5
554
100
AcDbEntity
8
1
0
ARC
5
555
100
AcDbEntity
8
1
100
AcDbCircle
6
CONTINUOUS
62
5
10
121.700003
20
128.500026
40
0.400000
100
AcDbArc
50
-0.000000
51
89.999999
0
POLYLINE
5
556
100
AcDbEntity
8
1
6
CONTINUOUS
62
5
100
AcDb2dPolyline
66
1
10
0.0
20
0.0
30
0.0
70
0
0
VERTEX
5
557
100
AcDbEntity
8
1
100
AcDbVertex
100
AcDb2dVertex
62
5
10
122.100003
20
128.500026
0
VERTEX
5
558
100
AcDbEntity
8
1
100
AcDbVertex
100
AcDb2dVertex
62
5
10
122.100003
20
125.100017
0
VERTEX
5
559
100
AcDbEntity
8
1
100
AcDbVertex
100
AcDb2dVertex
62
5
10
152.099994
20
125.100017
0
VERTEX
5
55a
100
AcDbEntity
8
1
100
AcDbVertex
100
AcDb2dVertex
62
5
10
152.099994
20
128.500026
0
SEQEND
5
55b
100
AcDbEntity
8
1
0
ARC
5
55c
100
AcDbEntity
8
1
100
AcDbCircle
6
CONTINUOUS
62
5
10
152.499994
20
128.500026
40
0.400000
100
AcDbArc
50
89.999999
51
-179.999998
0
POLYLINE
5
55d
100
AcDbEntity
8
1
6
CONTINUOUS
62
5
100
AcDb2dPolyline
66
1
10
0.0
20
0.0
30
0.0
70
0
0
VERTEX
5
55e
100
AcDbEntity
8
1
100
AcDbVertex
100
AcDb2dVertex
62
5
10
152.499994
20
128.900026
0
VERTEX
5
55f
100
AcDbEntity
8
1
100
AcDbVertex
100
AcDb2dVertex
62
5
10
152.599994
20
128.900026
0
VERTEX
5
560
100
AcDbEntity
8
1
100
AcDbVertex
100
AcDb2dVertex
62
5
10
152.599994
20
145.100021
0
VERTEX
5
561
100
AcDbEntity
8
1
100
AcDbVertex
100
AcDb2dVertex
62
5
10
152.499994
20
145.100021
0
SEQEND
5
562
100
AcDbEntity
8
1
0
ARC
5
563
100
AcDbEntity
8
1
100
AcDbCircle
6
CONTINUOUS
62
5
10
152.499994
20
145.500021
40
0.400000
100
AcDbArc
50
-179.999998
51
-89.999999
0
LINE
5
564
100
AcDbEntity
8
1
100
AcDbLine
6
CONTINUOUS
62
5
10
152.099994
20
145.500021
11
152.099994
21
151.500019
0
ARC
5
565
100
AcDbEntity
8
1
100
AcDbCircle
6
CONTINUOUS
62
5
10
152.499994
20
151.500019
40
0.400000
100
AcDbArc
50
89.999999
51
-179.999998
0
POLYLINE
5
566
100
AcDbEntity
8
1
6
CONTINUOUS
62
5
100
AcDb2dPolyline
66
1
10
0.0
20
0.0
30
0.0
70
0
0
VERTEX
5
567
100
AcDbEntity
8
1
100
AcDbVertex
100
AcDb2dVertex
62
5
10
152.499994
20
151.900019
0
VERTEX
5
568
100
AcDbEntity
8
1
100
AcDbVertex
100
AcDb2dVertex
62
5
10
152.599994
20
151.900019
0
VERTEX
5
569
100
AcDbEntity
8
1
100
AcDbVertex
100
AcDb2dVertex
62
5
10
152.599994
20
168.100014
0
VERTEX
5
56a
100
AcDbEntity
8
1
100
AcDbVertex
100
AcDb2dVertex
62
5
10
152.499994
20
168.100014
0
SEQEND
5
56b
100
AcDbEntity
8
1
0
ARC
5
56c
100
AcDbEntity
8
1
100
AcDbCircle
6
CONTINUOUS
62
5
10
152.499994
20
168.500014
40
0.400000
100
AcDbArc
50
-179.999998
51
-89.999999
0
LINE
5
56d
100
AcDbEntity
8
1
100
AcDbLine
6
CONTINUOUS
62
5
10
152.099994
20
168.500014
11
152.099994
21
174.500012
0
ARC
5
56e
100
AcDbEntity
8
1
100
AcDbCircle
6
CONTINUOUS
62
5
10
152.499994
20
174.500012
40
0.400000
100
AcDbArc
50
89.999999
51
-179.999998
0
POLYLINE
5
56f
100
AcDbEntity
8
1
6
CONTINUOUS
62
5
100
AcDb2dPolyline
66
1
10
0.0
20
0.0
30
0.0
70
0
0
VERTEX
5
570
100
AcDbEntity
8
1
100
AcDbVertex
100
AcDb2dVertex
62
5
10
152.499994
20
174.900012
0
VERTEX
5
571
100
AcDbEntity
8
1
100
AcDbVertex
100
AcDb2dVertex
62
5
10
152.599994
20
174.900012
0
VERTEX
5
572
100
AcDbEntity
8
1
100
AcDbVertex
100
AcDb2dVertex
62
5
10
152.599994
20
191.100007
0
VERTEX
5
573
100
AcDbEntity
8
1
100
AcDbVertex
100
AcDb2dVertex
62
5
10
152.499994
20
191.100008
0
SEQEND
5
574
100
AcDbEntity
8
1
0
ARC
5
575
100
AcDbEntity
8
1
100
AcDbCircle
6
CONTINUOUS
62
5
10
152.499994
20
191.500007
40
0.400000
100
AcDbArc
50
-179.999998
51
-89.999999
0
POLYLINE
5
576
100
AcDbEntity
8
1
6
CONTINUOUS
62
5
100
AcDb2dPolyline
66
1
10
0.0
20
0.0
30
0.0
70
0
0
VERTEX
5
577
100
AcDbEntity
8
1
100
AcDbVertex
100
AcDb2dVertex
62
5
10
152.099994
20
191.500007
0
VERTEX
5
578
100
AcDbEntity
8
1
100
AcDbVertex
100
AcDb2dVertex
62
5
10
152.099994
20
194.900017
0
VERTEX
5
579
100
AcDbEntity
8
1
100
AcDbVertex
100
AcDb2dVertex
62
5
10
122.100003
20
194.900017
0
VERTEX
5
57a
100
AcDbEntity
8
1
100
AcDbVertex
100
AcDb2dVertex
62
5
10
122.100003
20
191.500007
0
SEQEND
5
57b
100
AcDbEntity
8
1
0
ARC
5
57c
100
AcDbEntity
8
1
100
AcDbCircle
6
CONTINUOUS
62
5
10
155.299994
20
116.500030
40
1.000000
100
AcDbArc
50
89.999999
51
179.999998
0
LINE
5
57d
100
AcDbEntity
8
1
100
AcDbLine
6
CONTINUOUS
62
5
10
155.299994
20
117.500030
11
157.699993
21
117.500030
0
ARC
5
57e
100
AcDbEntity
8
1
100
AcDbCircle
6
CONTINUOUS
62
5
10
157.699993
20
119.500029
40
1.999999
100
AcDbArc
50
-89.999999
51
0.000000
0
LINE
5
57f
100
AcDbEntity
8
1
100
AcDbLine
6
CONTINUOUS
62
5
10
159.699992
20
119.500029
11
159.699992
21
200.500005
0
ARC
5
580
100
AcDbEntity
8
1
100
AcDbCircle
6
CONTINUOUS
62
5
10
157.699993
20
200.500005
40
1.999999
100
AcDbArc
50
0.000000
51
89.999999
0
LINE
5
581
100
AcDbEntity
8
1
100
AcDbLine
6
CONTINUOUS
62
5
10
157.699993
20
202.500004
11
155.299994
21
202.500004
0
ARC
5
582
100
AcDbEntity
8
1
100
AcDbCircle
6
CONTINUOUS
62
5
10
155.299994
20
203.500004
40
1.000000
100
AcDbArc
50
179.999998
51
-89.999999
0
LINE
5
583
100
AcDbEntity
8
1
100
AcDbLine
6
CONTINUOUS
62
5
10
118.698577
20
209.000002
11
118.700004
21
203.500004
0
ARC
5
584
100
AcDbEntity
8
1
100
AcDbCircle
6
CONTINUOUS
62
5
10
117.700004
20
203.500004
40
1.000000
100
AcDbArc
50
-89.999999
51
0.000000
0
LINE
5
585
100
AcDbEntity
8
1
100
AcDbLine
6
CONTINUOUS
62
5
10
117.700004
20
202.500004
11
115.800005
21
202.500004
0
ARC
5
586
100
AcDbEntity
8
1
100
AcDbCircle
6
CONTINUOUS
62
5
10
115.800005
20
200.500005
40
1.999999
100
AcDbArc
50
89.999999
51
179.999998
0
LINE
5
587
100
AcDbEntity
8
1
100
AcDbLine
6
CONTINUOUS
62
5
10
113.800006
20
200.500005
11
113.800006
21
119.500029
0
ARC
5
588
100
AcDbEntity
8
1
100
AcDbCircle
6
CONTINUOUS
62
5
10
115.800005
20
119.500029
40
1.999999
100
AcDbArc
50
179.999998
51
-89.999999
0
LINE
5
589
100
AcDbEntity
8
1
100
AcDbLine
6
CONTINUOUS
62
5
10
115.800005
20
117.500030
11
117.700004
21
117.500030
0
ARC
5
58a
100
AcDbEntity
8
1
100
AcDbCircle
6
CONTINUOUS
62
5
10
117.700004
20
116.500030
40
1.000000
100
AcDbArc
50
0.000000
51
89.999999
0
POLYLINE
5
58b
100
AcDbEntity
8
1
6
CONTINUOUS
62
5
100
AcDb2dPolyline
66
1
10
0.0
20
0.0
30
0.0
70
0
0
VERTEX
5
58c
100
AcDbEntity
8
1
100
AcDbVertex
100
AcDb2dVertex
62
5
10
118.700004
20
116.500030
0
VERTEX
5
58d
100
AcDbEntity
8
1
100
AcDbVertex
100
AcDb2dVertex
62
5
10
118.700004
20
111.000032
0
VERTEX
5
58e
100
AcDbEntity
8
1
100
AcDbVertex
100
AcDb2dVertex
62
5
10
116.999999
20
111.000032
0
SEQEND
5
58f
100
AcDbEntity
8
1
0
ARC
5
590
100
AcDbEntity
8
1
100
AcDbCircle
6
CONTINUOUS
62
5
10
116.999999
20
110.000032
40
1.000000
100
AcDbArc
50
89.999999
51
179.999998
0
POLYLINE
5
591
100
AcDbEntity
8
1
6
CONTINUOUS
62
5
100
AcDb2dPolyline
66
1
10
0.0
20
0.0
30
0.0
70
0
0
VERTEX
5
592
100
AcDbEntity
8
1
100
AcDbVertex
100
AcDb2dVertex
62
5
10
115.999999
20
110.000032
0
VERTEX
5
593
100
AcDbEntity
8
1
100
AcDbVertex
100
AcDb2dVertex
62
5
10
115.999999
20
107.000017
0
VERTEX
5
594
100
AcDbEntity
8
1
100
AcDbVertex
100
AcDb2dVertex
62
5
10
116.000005
20
107.000017
0
SEQEND
5
595
100
AcDbEntity
8
1
0
ARC
5
596
100
AcDbEntity
8
1
100
AcDbCircle
6
CONTINUOUS
62
5
10
115.299973
20
106.285861
40
1.000032
100
AcDbArc
50
0.000450
51
45.572234
0
LINE
5
597
100
AcDbEntity
8
1
100
AcDbLine
6
CONTINUOUS
62
5
10
116.300005
20
106.285869
11
116.300005
21
105.000033
0
ARC
5
598
100
AcDbEntity
8
1
100
AcDbCircle
6
CONTINUOUS
62
5
10
117.300005
20
105.000033
40
1.000000
100
AcDbArc
50
179.999998
51
-89.999999
0
LINE
5
599
100
AcDbEntity
8
1
100
AcDbLine
6
CONTINUOUS
62
5
10
117.300005
20
104.000034
11
161.299999
21
104.000034
0
ARC
5
59a
100
AcDbEntity
8
1
100
AcDbCircle
6
CONTINUOUS
62
5
10
161.299999
20
105.000034
40
1.000000
100
AcDbArc
50
-89.999999
51
-0.000000
0
LINE
5
59b
100
AcDbEntity
8
1
100
AcDbLine
6
CONTINUOUS
62
5
10
162.299999
20
105.000034
11
162.299999
21
105.750033
0
ARC
5
59c
100
AcDbEntity
8
1
100
AcDbCircle
6
CONTINUOUS
62
5
10
161.299999
20
105.750033
40
1.000000
100
AcDbArc
50
0.000000
51
89.999999
0
POLYLINE
5
59d
100
AcDbEntity
8
1
6
CONTINUOUS
62
5
100
AcDb2dPolyline
66
1
10
0.0
20
0.0
30
0.0
70
0
0
VERTEX
5
59e
100
AcDbEntity
8
1
100
AcDbVertex
100
AcDb2dVertex
62
5
10
161.299999
20
106.750033
0
VERTEX
5
59f
100
AcDbEntity
8
1
100
AcDbVertex
100
AcDb2dVertex
62
5
10
156.999992
20
106.750033
0
VERTEX
5
5a0
100
AcDbEntity
8
1
100
AcDbVertex
100
AcDb2dVertex
62
5
10
156.999992
20
110.000032
0
SEQEND
5
5a1
100
AcDbEntity
8
1
0
ARC
5
5a2
100
AcDbEntity
8
1
100
AcDbCircle
6
CONTINUOUS
62
5
10
155.999993
20
110.000032
40
1.000000
100
AcDbArc
50
0.000000
51
89.999999
0
POLYLINE
5
5a3
100
AcDbEntity
8
1
6
CONTINUOUS
62
5
100
AcDb2dPolyline
66
1
10
0.0
20
0.0
30
0.0
70
0
0
VERTEX
5
5a4
100
AcDbEntity
8
1
100
AcDbVertex
100
AcDb2dVertex
62
5
10
155.999993
20
111.000031
0
VERTEX
5
5a5
100
AcDbEntity
8
1
100
AcDbVertex
100
AcDb2dVertex
62
5
10
154.299994
20
111.000032
0
VERTEX
5
5a6
100
AcDbEntity
8
1
100
AcDbVertex
100
AcDb2dVertex
62
5
10
154.299994
20
116.500030
0
SEQEND
5
5a7
100
AcDbEntity
8
1
0
ARC
5
5a8
100
AcDbEntity
8
1
100
AcDbCircle
6
CONTINUOUS
62
5
10
155.299994
20
116.500030
40
1.000000
100
AcDbArc
50
89.999999
51
179.999998
0
LINE
5
5a9
100
AcDbEntity
8
1
100
AcDbLine
6
CONTINUOUS
62
5
10
155.299994
20
117.500030
11
157.699993
21
117.500030
0
ARC
5
5aa
100
AcDbEntity
8
1
100
AcDbCircle
6
CONTINUOUS
62
5
10
157.699993
20
119.500029
40
1.999999
100
AcDbArc
50
-89.999999
51
0.000000
0
LINE
5
5ab
100
AcDbEntity
8
1
100
AcDbLine
6
CONTINUOUS
62
5
10
159.699992
20
119.500029
11
159.699992
21
200.500005
0
ARC
5
5ac
100
AcDbEntity
8
1
100
AcDbCircle
6
CONTINUOUS
62
5
10
157.699993
20
200.500005
40
1.999999
100
AcDbArc
50
0.000000
51
89.999999
0
LINE
5
5ad
100
AcDbEntity
8
1
100
AcDbLine
6
CONTINUOUS
62
5
10
157.699993
20
202.500004
11
155.299994
21
202.500004
0
ARC
5
5ae
100
AcDbEntity
8
1
100
AcDbCircle
6
CONTINUOUS
62
5
10
155.299994
20
203.500004
40
1.000000
100
AcDbArc
50
179.999998
51
-89.999999
0
POLYLINE
5
5af
100
AcDbEntity
8
1
6
CONTINUOUS
62
5
100
AcDb2dPolyline
66
1
10
0.0
20
0.0
30
0.0
70
0
0
VERTEX
5
5b0
100
AcDbEntity
8
1
100
AcDbVertex
100
AcDb2dVertex
62
5
10
154.299994
20
203.500004
0
VERTEX
5
5b1
100
AcDbEntity
8
1
100
AcDbVertex
100
AcDb2dVertex
62
5
10
154.299994
20
209.000002
0
VERTEX
5
5b2
100
AcDbEntity
8
1
100
AcDbVertex
100
AcDb2dVertex
62
5
10
155.999992
20
209.000002
0
SEQEND
5
5b3
100
AcDbEntity
8
1
0
ARC
5
5b4
100
AcDbEntity
8
1
100
AcDbCircle
6
CONTINUOUS
62
5
10
155.999992
20
210.000002
40
1.000000
100
AcDbArc
50
-89.999999
51
0.000000
0
POLYLINE
5
5b5
100
AcDbEntity
8
1
6
CONTINUOUS
62
5
100
AcDb2dPolyline
66
1
10
0.0
20
0.0
30
0.0
70
0
0
VERTEX
5
5b6
100
AcDbEntity
8
1
100
AcDbVertex
100
AcDb2dVertex
62
5
10
156.999992
20
210.000002
0
VERTEX
5
5b7
100
AcDbEntity
8
1
100
AcDbVertex
100
AcDb2dVertex
62
5
10
156.999992
20
213.250001
0
VERTEX
5
5b8
100
AcDbEntity
8
1
100
AcDbVertex
100
AcDb2dVertex
62
5
10
161.299999
20
213.250001
0
SEQEND
5
5b9
100
AcDbEntity
8
1
0
ARC
5
5ba
100
AcDbEntity
8
1
100
AcDbCircle
6
CONTINUOUS
62
5
10
161.299999
20
214.250001
40
1.000000
100
AcDbArc
50
-89.999999
51
0.000000
0
LINE
5
5bb
100
AcDbEntity
8
1
100
AcDbLine
6
CONTINUOUS
62
5
10
162.299999
20
214.250001
11
162.299999
21
215.000000
0
ARC
5
5bc
100
AcDbEntity
8
1
100
AcDbCircle
6
CONTINUOUS
62
5
10
161.299999
20
215.000000
40
1.000000
100
AcDbArc
50
0.000000
51
89.999999
0
POLYLINE
5
5bd
100
AcDbEntity
8
1
6
CONTINUOUS
62
5
100
AcDb2dPolyline
66
1
10
0.0
20
0.0
30
0.0
70
0
0
VERTEX
5
5be
100
AcDbEntity
8
1
100
AcDbVertex
100
AcDb2dVertex
62
5
10
161.299999
20
216.000000
0
VERTEX
5
5bf
100
AcDbEntity
8
1
100
AcDbVertex
100
AcDb2dVertex
62
5
10
157.599999
20
216.000000
0
VERTEX
5
5c0
100
AcDbEntity
8
1
100
AcDbVertex
100
AcDb2dVertex
62
5
10
117.300005
20
216.000000
0
SEQEND
5
5c1
100
AcDbEntity
8
1
0
ARC
5
5c2
100
AcDbEntity
8
1
100
AcDbCircle
6
CONTINUOUS
62
5
10
117.300005
20
215.000000
40
1.000000
100
AcDbArc
50
89.999999
51
179.999998
0
LINE
5
5c3
100
AcDbEntity
8
1
100
AcDbLine
6
CONTINUOUS
62
5
10
116.300005
20
215.000000
11
116.300005
21
213.714168
0
ARC
5
5c4
100
AcDbEntity
8
1
100
AcDbCircle
6
CONTINUOUS
62
5
10
115.299969
20
213.714175
40
1.000036
100
AcDbArc
50
-45.572129
51
-0.000374
0
POLYLINE
5
5c5
100
AcDbEntity
8
1
6
CONTINUOUS
62
5
100
AcDb2dPolyline
66
1
10
0.0
20
0.0
30
0.0
70
0
0
VERTEX
5
5c6
100
AcDbEntity
8
1
100
AcDbVertex
100
AcDb2dVertex
62
5
10
116.000005
20
213.000017
0
VERTEX
5
5c7
100
AcDbEntity
8
1
100
AcDbVertex
100
AcDb2dVertex
62
5
10
115.999999
20
213.000017
0
VERTEX
5
5c8
100
AcDbEntity
8
1
100
AcDbVertex
100
AcDb2dVertex
62
5
10
115.999999
20
210.000002
0
SEQEND
5
5c9
100
AcDbEntity
8
1
0
ARC
5
5ca
100
AcDbEntity
8
1
100
AcDbCircle
6
CONTINUOUS
62
5
10
116.999999
20
210.000002
40
1.000000
100
AcDbArc
50
179.999998
51
-89.999999
0
LINE
5
5cb
100
AcDbEntity
8
1
100
AcDbLine
6
CONTINUOUS
62
5
10
116.999999
20
209.000002
11
118.698577
21
209.000002
0
POLYLINE
5
5cc
100
AcDbEntity
8
1
6
CONTINUOUS
62
5
100
AcDb2dPolyline
66
1
10
0.0
20
0.0
30
0.0
70
0
0
VERTEX
5
5cd
100
AcDbEntity
8
1
100
AcDbVertex
100
AcDb2dVertex
62
5
10
154.299994
20
116.500030
0
VERTEX
5
5ce
100
AcDbEntity
8
1
100
AcDbVertex
100
AcDb2dVertex
62
5
10
154.299994
20
116.500030
0
VERTEX
5
5cf
100
AcDbEntity
8
1
100
AcDbVertex
100
AcDb2dVertex
62
5
10
154.299994
20
116.500030
0
SEQEND
5
5d0
100
AcDbEntity
8
1
0
POLYLINE
5
5d1
100
AcDbEntity
8
1
6
CONTINUOUS
62
5
100
AcDb2dPolyline
66
1
10
0.0
20
0.0
30
0.0
70
1
0
VERTEX
5
5d2
100
AcDbEntity
8
1
100
AcDbVertex
100
AcDb2dVertex
62
5
10
330.000000
20
350.000000
0
VERTEX
5
5d3
100
AcDbEntity
8
1
100
AcDbVertex
100
AcDb2dVertex
62
5
10
10.000000
20
350.000000
0
VERTEX
5
5d4
100
AcDbEntity
8
1
100
AcDbVertex
100
AcDb2dVertex
62
5
10
10.000000
20
10.000000
0
VERTEX
5
5d5
100
AcDbEntity
8
1
100
AcDbVertex
100
AcDb2dVertex
62
5
10
330.000000
20
10.000000
0
SEQEND
5
5d6
100
AcDbEntity
8
1
0
POLYLINE
5
5d7
100
AcDbEntity
8
1
6
DOT2
62
5
100
AcDb2dPolyline
66
1
10
0.0
20
0.0
30
0.0
70
0
0
VERTEX
5
5d8
100
AcDbEntity
8
1
100
AcDbVertex
100
AcDb2dVertex
62
5
10
340.000000
20
10.000000
0
VERTEX
5
5d9
100
AcDbEntity
8
1
100
AcDbVertex
100
AcDb2dVertex
62
5
10
340.000000
20
0.000000
0
VERTEX
5
5da
100
AcDbEntity
8
1
100
AcDbVertex
100
AcDb2dVertex
62
5
10
330.000000
20
0.000000
0
SEQEND
5
5db
100
AcDbEntity
8
1
0
POLYLINE
5
5dc
100
AcDbEntity
8
1
6
DOT2
62
5
100
AcDb2dPolyline
66
1
10
0.0
20
0.0
30
0.0
70
0
0
VERTEX
5
5dd
100
AcDbEntity
8
1
100
AcDbVertex
100
AcDb2dVertex
62
5
10
10.000000
20
0.000000
0
VERTEX
5
5de
100
AcDbEntity
8
1
100
AcDbVertex
100
AcDb2dVertex
62
5
10
0.000000
20
0.000000
0
VERTEX
5
5df
100
AcDbEntity
8
1
100
AcDbVertex
100
AcDb2dVertex
62
5
10
0.000000
20
10.000000
0
SEQEND
5
5e0
100
AcDbEntity
8
1
0
POLYLINE
5
5e1
100
AcDbEntity
8
1
6
DOT2
62
5
100
AcDb2dPolyline
66
1
10
0.0
20
0.0
30
0.0
70
0
0
VERTEX
5
5e2
100
AcDbEntity
8
1
100
AcDbVertex
100
AcDb2dVertex
62
5
10
0.000000
20
350.000000
0
VERTEX
5
5e3
100
AcDbEntity
8
1
100
AcDbVertex
100
AcDb2dVertex
62
5
10
0.000000
20
360.000000
0
VERTEX
5
5e4
100
AcDbEntity
8
1
100
AcDbVertex
100
AcDb2dVertex
62
5
10
10.000000
20
360.000000
0
SEQEND
5
5e5
100
AcDbEntity
8
1
0
POLYLINE
5
5e6
100
AcDbEntity
8
1
6
DOT2
62
5
100
AcDb2dPolyline
66
1
10
0.0
20
0.0
30
0.0
70
0
0
VERTEX
5
5e7
100
AcDbEntity
8
1
100
AcDbVertex
100
AcDb2dVertex
62
5
10
330.000000
20
360.000000
0
VERTEX
5
5e8
100
AcDbEntity
8
1
100
AcDbVertex
100
AcDb2dVertex
62
5
10
340.000000
20
360.000000
0
VERTEX
5
5e9
100
AcDbEntity
8
1
100
AcDbVertex
100
AcDb2dVertex
62
5
10
340.000000
20
350.000000
0
SEQEND
5
5ea
100
AcDbEntity
8
1
0
LINE
5
5eb
100
AcDbEntity
8
1
100
AcDbLine
6
DOT2
62
6
10
2873.631789
20
-537.734166
11
2873.904599
21
-537.461356
0
LINE
5
5ec
100
AcDbEntity
8
1
100
AcDbLine
6
DOT2
62
6
10
2873.694114
20
-539.086055
11
2873.950749
21
-538.829420
0
LINE
5
5ed
100
AcDbEntity
8
1
100
AcDbLine
6
DOT2
62
6
10
2873.631789
20
-538.865537
11
2873.950749
21
-538.546577
0
LINE
5
5ee
100
AcDbEntity
8
1
100
AcDbLine
6
DOT2
62
6
10
2873.631789
20
-538.582694
11
2873.950749
21
-538.263735
0
LINE
5
5ef
100
AcDbEntity
8
1
100
AcDbLine
6
DOT2
62
6
10
2873.631789
20
-538.299851
11
2873.950749
21
-537.980892
0
LINE
5
5f0
100
AcDbEntity
8
1
100
AcDbLine
6
DOT2
62
6
10
2873.631789
20
-538.017009
11
2874.112936
21
-537.535862
0
LINE
5
5f1
100
AcDbEntity
8
1
100
AcDbLine
6
DOT2
62
6
10
2874.059415
20
-537.495767
11
2874.117704
21
-537.554056
0
LINE
5
5f2
100
AcDbEntity
8
1
100
AcDbLine
6
DOT2
62
6
10
2873.631789
20
-539.048040
11
2873.669804
21
-539.086055
0
LINE
5
5f3
100
AcDbEntity
8
1
100
AcDbLine
6
DOT2
62
6
10
2873.631789
20
-538.765198
11
2873.950749
21
-539.084157
0
LINE
5
5f4
100
AcDbEntity
8
1
100
AcDbLine
6
DOT2
62
6
10
2873.631789
20
-538.482355
11
2873.950749
21
-538.801314
0
LINE
5
5f5
100
AcDbEntity
8
1
100
AcDbLine
6
DOT2
62
6
10
2873.631789
20
-538.199512
11
2873.950749
21
-538.518472
0
LINE
5
5f6
100
AcDbEntity
8
1
100
AcDbLine
6
DOT2
62
6
10
2873.631789
20
-537.916670
11
2873.950749
21
-538.235629
0
LINE
5
5f7
100
AcDbEntity
8
1
100
AcDbLine
6
DOT2
62
6
10
2873.631789
20
-537.633827
11
2873.950749
21
-537.952786
0
LINE
5
5f8
100
AcDbEntity
8
1
100
AcDbLine
6
DOT2
62
6
10
2873.742161
20
-537.461356
11
2873.979887
21
-537.699082
0
LINE
5
5f9
100
AcDbEntity
8
1
100
AcDbLine
6
DOT2
62
6
10
2874.608602
20
-537.323038
11
2874.781768
21
-537.149872
0
LINE
5
5fa
100
AcDbEntity
8
1
100
AcDbLine
6
DOT2
62
6
10
2874.736292
20
-539.740933
11
2874.927562
21
-539.549663
0
LINE
5
5fb
100
AcDbEntity
8
1
100
AcDbLine
6
DOT2
62
6
10
2874.487099
20
-539.707283
11
2874.927562
21
-539.266821
0
LINE
5
5fc
100
AcDbEntity
8
1
100
AcDbLine
6
DOT2
62
6
10
2874.339730
20
-539.571810
11
2874.567610
21
-539.343930
0
LINE
5
5fd
100
AcDbEntity
8
1
100
AcDbLine
6
DOT2
62
6
10
2874.608602
20
-539.302937
11
2874.927562
21
-538.983978
0
LINE
5
5fe
100
AcDbEntity
8
1
100
AcDbLine
6
DOT2
62
6
10
2874.140759
20
-539.487938
11
2874.279815
21
-539.348882
0
LINE
5
5ff
100
AcDbEntity
8
1
100
AcDbLine
6
DOT2
62
6
10
2874.608602
20
-539.020095
11
2874.927562
21
-538.701135
0
LINE
5
600
100
AcDbEntity
8
1
100
AcDbLine
6
DOT2
62
6
10
2874.001952
20
-539.343902
11
2874.013104
21
-539.332750
0
LINE
5
601
100
AcDbEntity
8
1
100
AcDbLine
6
DOT2
62
6
10
2874.608602
20
-538.737252
11
2874.927562
21
-538.418293
0
LINE
5
602
100
AcDbEntity
8
1
100
AcDbLine
6
DOT2
62
6
10
2874.608602
20
-538.454409
11
2874.927562
21
-538.135450
0
LINE
5
603
100
AcDbEntity
8
1
100
AcDbLine
6
DOT2
62
6
10
2874.608602
20
-538.171567
11
2874.927562
21
-537.852607
0
LINE
5
604
100
AcDbEntity
8
1
100
AcDbLine
6
DOT2
62
6
10
2874.608602
20
-537.888724
11
2874.927562
21
-537.569764
0
LINE
5
605
100
AcDbEntity
8
1
100
AcDbLine
6
DOT2
62
6
10
2874.608602
20
-537.605881
11
2875.037367
21
-537.177116
0
LINE
5
606
100
AcDbEntity
8
1
100
AcDbLine
6
DOT2
62
6
10
2874.844891
20
-537.149872
11
2875.038079
21
-537.343061
0
LINE
5
607
100
AcDbEntity
8
1
100
AcDbLine
6
DOT2
62
6
10
2874.002759
20
-539.419011
11
2874.054885
21
-539.471136
0
LINE
5
608
100
AcDbEntity
8
1
100
AcDbLine
6
DOT2
62
6
10
2874.204515
20
-539.337923
11
2874.634173
21
-539.767581
0
LINE
5
609
100
AcDbEntity
8
1
100
AcDbLine
6
DOT2
62
6
10
2874.497379
20
-539.347945
11
2874.833052
21
-539.683618
0
LINE
5
60a
100
AcDbEntity
8
1
100
AcDbLine
6
DOT2
62
6
10
2874.608602
20
-539.176325
11
2874.927562
21
-539.495285
0
LINE
5
60b
100
AcDbEntity
8
1
100
AcDbLine
6
DOT2
62
6
10
2874.608602
20
-538.893483
11
2874.927562
21
-539.212442
0
LINE
5
60c
100
AcDbEntity
8
1
100
AcDbLine
6
DOT2
62
6
10
2874.608602
20
-538.610640
11
2874.927562
21
-538.929599
0
LINE
5
60d
100
AcDbEntity
8
1
100
AcDbLine
6
DOT2
62
6
10
2874.608602
20
-538.327797
11
2874.927562
21
-538.646756
0
LINE
5
60e
100
AcDbEntity
8
1
100
AcDbLine
6
DOT2
62
6
10
2874.608602
20
-538.044954
11
2874.927562
21
-538.363914
0
LINE
5
60f
100
AcDbEntity
8
1
100
AcDbLine
6
DOT2
62
6
10
2874.608602
20
-537.762112
11
2874.927562
21
-538.081071
0
LINE
5
610
100
AcDbEntity
8
1
100
AcDbLine
6
DOT2
62
6
10
2874.608602
20
-537.479269
11
2874.927562
21
-537.798228
0
LINE
5
611
100
AcDbEntity
8
1
100
AcDbLine
6
DOT2
62
6
10
2874.608602
20
-537.196426
11
2874.927562
21
-537.515386
0
LINE
5
612
100
AcDbEntity
8
1
100
AcDbLine
6
DOT2
62
6
10
2873.739128
20
-542.152310
11
2873.952737
21
-541.938701
0
LINE
5
613
100
AcDbEntity
8
1
100
AcDbLine
6
DOT2
62
6
10
2874.005286
20
-543.300366
11
2874.027290
21
-543.278362
0
LINE
5
614
100
AcDbEntity
8
1
100
AcDbLine
6
DOT2
62
6
10
2873.739128
20
-543.283681
11
2874.027290
21
-542.995520
0
LINE
5
615
100
AcDbEntity
8
1
100
AcDbLine
6
DOT2
62
6
10
2873.739128
20
-543.000838
11
2874.027290
21
-542.712677
0
LINE
5
616
100
AcDbEntity
8
1
100
AcDbLine
6
DOT2
62
6
10
2873.739128
20
-542.717996
11
2874.027290
21
-542.429834
0
LINE
5
617
100
AcDbEntity
8
1
100
AcDbLine
6
DOT2
62
6
10
2873.739128
20
-542.435153
11
2874.162239
21
-542.012043
0
LINE
5
618
100
AcDbEntity
8
1
100
AcDbLine
6
DOT2
62
6
10
2873.924316
20
-543.300366
11
2873.739128
21
-543.115178
0
LINE
5
619
100
AcDbEntity
8
1
100
AcDbLine
6
DOT2
62
6
10
2874.142806
20
-542.104642
11
2873.982780
21
-541.944616
0
LINE
5
61a
100
AcDbEntity
8
1
100
AcDbLine
6
DOT2
62
6
10
2874.027290
20
-542.271968
11
2873.739128
21
-541.983807
0
LINE
5
61b
100
AcDbEntity
8
1
100
AcDbLine
6
DOT2
62
6
10
2874.027290
20
-542.554811
11
2873.739128
21
-542.266649
0
LINE
5
61c
100
AcDbEntity
8
1
100
AcDbLine
6
DOT2
62
6
10
2874.027290
20
-542.837654
11
2873.739128
21
-542.549492
0
LINE
5
61d
100
AcDbEntity
8
1
100
AcDbLine
6
DOT2
62
6
10
2874.027290
20
-543.120496
11
2873.739128
21
-542.832335
0
LINE
5
61e
100
AcDbEntity
8
1
100
AcDbLine
6
DOT2
62
6
10
2874.547807
20
-541.909317
11
2874.674679
21
-541.782445
0
LINE
5
61f
100
AcDbEntity
8
1
100
AcDbLine
6
DOT2
62
6
10
2874.590121
20
-543.846902
11
2874.851841
21
-543.585182
0
LINE
5
620
100
AcDbEntity
8
1
100
AcDbLine
6
DOT2
62
6
10
2874.421107
20
-543.733073
11
2874.856261
21
-543.297919
0
LINE
5
621
100
AcDbEntity
8
1
100
AcDbLine
6
DOT2
62
6
10
2874.249160
20
-543.622177
11
2874.410980
21
-543.460357
0
LINE
5
622
100
AcDbEntity
8
1
100
AcDbLine
6
DOT2
62
6
10
2874.547807
20
-543.323531
11
2874.856261
21
-543.015076
0
LINE
5
623
100
AcDbEntity
8
1
100
AcDbLine
6
DOT2
62
6
10
2874.022228
20
-543.566266
11
2874.152691
21
-543.435804
0
LINE
5
624
100
AcDbEntity
8
1
100
AcDbLine
6
DOT2
62
6
10
2874.547807
20
-543.040688
11
2874.856261
21
-542.732234
0
LINE
5
625
100
AcDbEntity
8
1
100
AcDbLine
6
DOT2
62
6
10
2874.547807
20
-542.757845
11
2874.856261
21
-542.449391
0
LINE
5
626
100
AcDbEntity
8
1
100
AcDbLine
6
DOT2
62
6
10
2874.547807
20
-542.475003
11
2874.856261
21
-542.166548
0
LINE
5
627
100
AcDbEntity
8
1
100
AcDbLine
6
DOT2
62
6
10
2874.547807
20
-542.192160
11
2874.920722
21
-541.819245
0
LINE
5
628
100
AcDbEntity
8
1
100
AcDbLine
6
DOT2
62
6
10
2874.245137
20
-543.621186
11
2874.049992
21
-543.426041
0
LINE
5
629
100
AcDbEntity
8
1
100
AcDbLine
6
DOT2
62
6
10
2874.881128
20
-541.994435
11
2874.669137
21
-541.782445
0
LINE
5
62a
100
AcDbEntity
8
1
100
AcDbLine
6
DOT2
62
6
10
2874.856261
20
-542.252411
11
2874.547807
21
-541.943957
0
LINE
5
62b
100
AcDbEntity
8
1
100
AcDbLine
6
DOT2
62
6
10
2874.856261
20
-542.535254
11
2874.547807
21
-542.226800
0
LINE
5
62c
100
AcDbEntity
8
1
100
AcDbLine
6
DOT2
62
6
10
2874.856261
20
-542.818097
11
2874.547807
21
-542.509642
0
LINE
5
62d
100
AcDbEntity
8
1
100
AcDbLine
6
DOT2
62
6
10
2874.856261
20
-543.100940
11
2874.547807
21
-542.792485
0
LINE
5
62e
100
AcDbEntity
8
1
100
AcDbLine
6
DOT2
62
6
10
2874.856261
20
-543.383782
11
2874.547807
21
-543.075328
0
LINE
5
62f
100
AcDbEntity
8
1
100
AcDbLine
6
DOT2
62
6
10
2874.835392
20
-543.645756
11
2874.547793
21
-543.358156
0
LINE
5
630
100
AcDbEntity
8
1
100
AcDbLine
6
DOT2
62
6
10
2874.708335
20
-543.801542
11
2874.362547
21
-543.455753
0
LINE
5
631
100
AcDbEntity
8
1
100
AcDbLine
6
DOT2
62
6
10
2874.475273
20
-543.851322
11
2874.423004
21
-543.799054
0
LINE
5
632
100
AcDbEntity
8
1
100
AcDbLine
6
DOT2
62
6
10
2872.099581
20
-546.620285
11
2872.301131
21
-546.418735
0
LINE
5
633
100
AcDbEntity
8
1
100
AcDbLine
6
DOT2
62
6
10
2871.860129
20
-550.253849
11
2872.104396
21
-550.009583
0
LINE
5
634
100
AcDbEntity
8
1
100
AcDbLine
6
DOT2
62
6
10
2871.785795
20
-550.045341
11
2872.104396
21
-549.726740
0
LINE
5
635
100
AcDbEntity
8
1
100
AcDbLine
6
DOT2
62
6
10
2871.785795
20
-549.762498
11
2872.104396
21
-549.443897
0
LINE
5
636
100
AcDbEntity
8
1
100
AcDbLine
6
DOT2
62
6
10
2871.785795
20
-549.479655
11
2872.104396
21
-549.161054
0
LINE
5
637
100
AcDbEntity
8
1
100
AcDbLine
6
DOT2
62
6
10
2871.785795
20
-549.196813
11
2872.104396
21
-548.878212
0
LINE
5
638
100
AcDbEntity
8
1
100
AcDbLine
6
DOT2
62
6
10
2871.785795
20
-548.913970
11
2872.104396
21
-548.595369
0
LINE
5
639
100
AcDbEntity
8
1
100
AcDbLine
6
DOT2
62
6
10
2871.785795
20
-548.631127
11
2872.104396
21
-548.312526
0
LINE
5
63a
100
AcDbEntity
8
1
100
AcDbLine
6
DOT2
62
6
10
2871.785795
20
-548.348285
11
2872.104396
21
-548.029684
0
LINE
5
63b
100
AcDbEntity
8
1
100
AcDbLine
6
DOT2
62
6
10
2871.265252
20
-548.585985
11
2871.500621
21
-548.350615
0
LINE
5
63c
100
AcDbEntity
8
1
100
AcDbLine
6
DOT2
62
6
10
2871.785795
20
-548.065442
11
2872.104396
21
-547.746841
0
LINE
5
63d
100
AcDbEntity
8
1
100
AcDbLine
6
DOT2
62
6
10
2871.491492
20
-548.076901
11
2872.120262
21
-547.448131
0
LINE
5
63e
100
AcDbEntity
8
1
100
AcDbLine
6
DOT2
62
6
10
2871.784017
20
-547.501534
11
2872.312620
21
-546.972931
0
LINE
5
63f
100
AcDbEntity
8
1
100
AcDbLine
6
DOT2
62
6
10
2871.970630
20
-547.032079
11
2872.520043
21
-546.482665
0
LINE
5
640
100
AcDbEntity
8
1
100
AcDbLine
6
DOT2
62
6
10
2871.826833
20
-550.253849
11
2871.785795
21
-550.212811
0
LINE
5
641
100
AcDbEntity
8
1
100
AcDbLine
6
DOT2
62
6
10
2872.617393
20
-546.518926
11
2872.606332
21
-546.507865
0
LINE
5
642
100
AcDbEntity
8
1
100
AcDbLine
6
DOT2
62
6
10
2872.451806
20
-546.636182
11
2872.206817
21
-546.391192
0
LINE
5
643
100
AcDbEntity
8
1
100
AcDbLine
6
DOT2
62
6
10
2872.368925
20
-546.836143
11
2872.111015
21
-546.578233
0
LINE
5
644
100
AcDbEntity
8
1
100
AcDbLine
6
DOT2
62
6
10
2872.285544
20
-547.035605
11
2872.047796
21
-546.797856
0
LINE
5
645
100
AcDbEntity
8
1
100
AcDbLine
6
DOT2
62
6
10
2872.196558
20
-547.229461
11
2871.978022
21
-547.010925
0
LINE
5
646
100
AcDbEntity
8
1
100
AcDbLine
6
DOT2
62
6
10
2872.256594
20
-547.572340
11
2872.144515
21
-547.460261
0
LINE
5
647
100
AcDbEntity
8
1
100
AcDbLine
6
DOT2
62
6
10
2872.102174
20
-547.417920
11
2871.902041
21
-547.217788
0
LINE
5
648
100
AcDbEntity
8
1
100
AcDbLine
6
DOT2
62
6
10
2872.116284
20
-547.714873
11
2871.820152
21
-547.418741
0
LINE
5
649
100
AcDbEntity
8
1
100
AcDbLine
6
DOT2
62
6
10
2872.104396
20
-547.985827
11
2871.732607
21
-547.614038
0
LINE
5
64a
100
AcDbEntity
8
1
100
AcDbLine
6
DOT2
62
6
10
2872.104396
20
-548.268670
11
2871.639623
21
-547.803897
0
LINE
5
64b
100
AcDbEntity
8
1
100
AcDbLine
6
DOT2
62
6
10
2872.104396
20
-548.551513
11
2871.785795
21
-548.232912
0
LINE
5
64c
100
AcDbEntity
8
1
100
AcDbLine
6
DOT2
62
6
10
2871.671840
20
-548.118957
11
2871.541387
21
-547.988504
0
LINE
5
64d
100
AcDbEntity
8
1
100
AcDbLine
6
DOT2
62
6
10
2872.104396
20
-548.834355
11
2871.785795
21
-548.515754
0
LINE
5
64e
100
AcDbEntity
8
1
100
AcDbLine
6
DOT2
62
6
10
2871.554111
20
-548.284071
11
2871.438056
21
-548.168016
0
LINE
5
64f
100
AcDbEntity
8
1
100
AcDbLine
6
DOT2
62
6
10
2872.104396
20
-549.117198
11
2871.785795
21
-548.798597
0
LINE
5
650
100
AcDbEntity
8
1
100
AcDbLine
6
DOT2
62
6
10
2871.428070
20
-548.440872
11
2871.329767
21
-548.342569
0
LINE
5
651
100
AcDbEntity
8
1
100
AcDbLine
6
DOT2
62
6
10
2872.104396
20
-549.400041
11
2871.785795
21
-549.081440
0
LINE
5
652
100
AcDbEntity
8
1
100
AcDbLine
6
DOT2
62
6
10
2871.302028
20
-548.597674
11
2871.216631
21
-548.512277
0
LINE
5
653
100
AcDbEntity
8
1
100
AcDbLine
6
DOT2
62
6
10
2872.104396
20
-549.682884
11
2871.785795
21
-549.364282
0
LINE
5
654
100
AcDbEntity
8
1
100
AcDbLine
6
DOT2
62
6
10
2872.104396
20
-549.965726
11
2871.785795
21
-549.647125
0
LINE
5
655
100
AcDbEntity
8
1
100
AcDbLine
6
DOT2
62
6
10
2872.104396
20
-550.248569
11
2871.785795
21
-549.929968
0
LINE
5
656
100
AcDbEntity
8
1
100
AcDbLine
6
DOT2
62
6
10
2871.794666
20
-541.834031
11
2871.845237
21
-541.783460
0
LINE
5
657
100
AcDbEntity
8
1
100
AcDbLine
6
DOT2
62
6
10
2872.963418
20
-543.776549
11
2873.293696
21
-543.446271
0
LINE
5
658
100
AcDbEntity
8
1
100
AcDbLine
6
DOT2
62
6
10
2872.530717
20
-543.926407
11
2872.595614
21
-543.861509
0
LINE
5
659
100
AcDbEntity
8
1
100
AcDbLine
6
DOT2
62
6
10
2872.786800
20
-543.670324
11
2872.960991
21
-543.496133
0
LINE
5
65a
100
AcDbEntity
8
1
100
AcDbLine
6
DOT2
62
6
10
2873.011561
20
-543.445563
11
2873.354572
21
-543.102552
0
LINE
5
65b
100
AcDbEntity
8
1
100
AcDbLine
6
DOT2
62
6
10
2872.305424
20
-543.868858
11
2872.595614
21
-543.578667
0
LINE
5
65c
100
AcDbEntity
8
1
100
AcDbLine
6
DOT2
62
6
10
2872.672728
20
-543.501553
11
2872.678088
21
-543.496194
0
LINE
5
65d
100
AcDbEntity
8
1
100
AcDbLine
6
DOT2
62
6
10
2872.944941
20
-543.229340
11
2873.200085
21
-542.974196
0
LINE
5
65e
100
AcDbEntity
8
1
100
AcDbLine
6
DOT2
62
6
10
2873.363993
20
-542.810288
11
2873.535834
21
-542.638448
0
LINE
5
65f
100
AcDbEntity
8
1
100
AcDbLine
6
DOT2
62
6
10
2872.305424
20
-543.586015
11
2872.595614
21
-543.295824
0
LINE
5
660
100
AcDbEntity
8
1
100
AcDbLine
6
DOT2
62
6
10
2872.662099
20
-543.229340
11
2872.824443
21
-543.066995
0
LINE
5
661
100
AcDbEntity
8
1
100
AcDbLine
6
DOT2
62
6
10
2873.081150
20
-542.810288
11
2873.393663
21
-542.497775
0
LINE
5
662
100
AcDbEntity
8
1
100
AcDbLine
6
DOT2
62
6
10
2871.682189
20
-543.926407
11
2871.911738
21
-543.696857
0
LINE
5
663
100
AcDbEntity
8
1
100
AcDbLine
6
DOT2
62
6
10
2872.305424
20
-543.303172
11
2872.595614
21
-543.012981
0
LINE
5
664
100
AcDbEntity
8
1
100
AcDbLine
6
DOT2
62
6
10
2872.798308
20
-542.810288
11
2872.950505
21
-542.658090
0
LINE
5
665
100
AcDbEntity
8
1
100
AcDbLine
6
DOT2
62
6
10
2873.230550
20
-542.378046
11
2873.403494
21
-542.205102
0
LINE
5
666
100
AcDbEntity
8
1
100
AcDbLine
6
DOT2
62
6
10
2871.623577
20
-543.702176
11
2871.911738
21
-543.414015
0
LINE
5
667
100
AcDbEntity
8
1
100
AcDbLine
6
DOT2
62
6
10
2872.096413
20
-543.229340
11
2872.258758
21
-543.066995
0
LINE
5
668
100
AcDbEntity
8
1
100
AcDbLine
6
DOT2
62
6
10
2872.305424
20
-543.020329
11
2872.667663
21
-542.658090
0
LINE
5
669
100
AcDbEntity
8
1
100
AcDbLine
6
DOT2
62
6
10
2872.947707
20
-542.378046
11
2873.268953
21
-542.056800
0
LINE
5
66a
100
AcDbEntity
8
1
100
AcDbLine
6
DOT2
62
6
10
2871.623577
20
-543.419333
11
2871.975915
21
-543.066995
0
LINE
5
66b
100
AcDbEntity
8
1
100
AcDbLine
6
DOT2
62
6
10
2872.232622
20
-542.810288
11
2872.595614
21
-542.447296
0
LINE
5
66c
100
AcDbEntity
8
1
100
AcDbLine
6
DOT2
62
6
10
2872.664864
20
-542.378046
11
2872.834462
21
-542.208449
0
LINE
5
66d
100
AcDbEntity
8
1
100
AcDbLine
6
DOT2
62
6
10
2871.623577
20
-543.136491
11
2871.759656
21
-543.000412
0
LINE
5
66e
100
AcDbEntity
8
1
100
AcDbLine
6
DOT2
62
6
10
2871.949779
20
-542.810288
11
2872.101977
21
-542.658090
0
LINE
5
66f
100
AcDbEntity
8
1
100
AcDbLine
6
DOT2
62
6
10
2872.305424
20
-542.454644
11
2872.595614
21
-542.164453
0
LINE
5
670
100
AcDbEntity
8
1
100
AcDbLine
6
DOT2
62
6
10
2871.666937
20
-542.810288
11
2871.819135
21
-542.658090
0
LINE
5
671
100
AcDbEntity
8
1
100
AcDbLine
6
DOT2
62
6
10
2872.099179
20
-542.378046
11
2872.268776
21
-542.208449
0
LINE
5
672
100
AcDbEntity
8
1
100
AcDbLine
6
DOT2
62
6
10
2872.305424
20
-542.171801
11
2872.720306
21
-541.756919
0
LINE
5
673
100
AcDbEntity
8
1
100
AcDbLine
6
DOT2
62
6
10
2871.387423
20
-542.806959
11
2871.536292
21
-542.658090
0
LINE
5
674
100
AcDbEntity
8
1
100
AcDbLine
6
DOT2
62
6
10
2871.816336
20
-542.378046
11
2871.985933
21
-542.208449
0
LINE
5
675
100
AcDbEntity
8
1
100
AcDbLine
6
DOT2
62
6
10
2872.305424
20
-541.888959
11
2872.489051
21
-541.705331
0
LINE
5
676
100
AcDbEntity
8
1
100
AcDbLine
6
DOT2
62
6
10
2871.342341
20
-542.569199
11
2872.064599
21
-541.846941
0
LINE
5
677
100
AcDbEntity
8
1
100
AcDbLine
6
DOT2
62
6
10
2871.721930
20
-543.926407
11
2871.623577
21
-543.828053
0
LINE
5
678
100
AcDbEntity
8
1
100
AcDbLine
6
DOT2
62
6
10
2873.439806
20
-542.250169
11
2873.237920
21
-542.048284
0
LINE
5
679
100
AcDbEntity
8
1
100
AcDbLine
6
DOT2
62
6
10
2873.284840
20
-542.378046
11
2873.087449
21
-542.180656
0
LINE
5
67a
100
AcDbEntity
8
1
100
AcDbLine
6
DOT2
62
6
10
2872.743782
20
-541.836988
11
2872.612125
21
-541.705331
0
LINE
5
67b
100
AcDbEntity
8
1
100
AcDbLine
6
DOT2
62
6
10
2873.434239
20
-542.810288
11
2873.227968
21
-542.604017
0
LINE
5
67c
100
AcDbEntity
8
1
100
AcDbLine
6
DOT2
62
6
10
2873.001997
20
-542.378046
11
2872.832400
21
-542.208449
0
LINE
5
67d
100
AcDbEntity
8
1
100
AcDbLine
6
DOT2
62
6
10
2872.595614
20
-541.971664
11
2872.329282
21
-541.705331
0
LINE
5
67e
100
AcDbEntity
8
1
100
AcDbLine
6
DOT2
62
6
10
2873.151396
20
-542.810288
11
2872.999198
21
-542.658090
0
LINE
5
67f
100
AcDbEntity
8
1
100
AcDbLine
6
DOT2
62
6
10
2872.719154
20
-542.378046
11
2872.305424
21
-541.964316
0
LINE
5
680
100
AcDbEntity
8
1
100
AcDbLine
6
DOT2
62
6
10
2873.320620
20
-543.262354
11
2873.064025
21
-543.005760
0
LINE
5
681
100
AcDbEntity
8
1
100
AcDbLine
6
DOT2
62
6
10
2872.868554
20
-542.810288
11
2872.716356
21
-542.658090
0
LINE
5
682
100
AcDbEntity
8
1
100
AcDbLine
6
DOT2
62
6
10
2872.595614
20
-542.537349
11
2872.266714
21
-542.208449
0
LINE
5
683
100
AcDbEntity
8
1
100
AcDbLine
6
DOT2
62
6
10
2872.065264
20
-542.006999
11
2871.841725
21
-541.783460
0
LINE
5
684
100
AcDbEntity
8
1
100
AcDbLine
6
DOT2
62
6
10
2873.293696
20
-543.518273
11
2873.011622
21
-543.236200
0
LINE
5
685
100
AcDbEntity
8
1
100
AcDbLine
6
DOT2
62
6
10
2873.004763
20
-543.229340
11
2872.842418
21
-543.066995
0
LINE
5
686
100
AcDbEntity
8
1
100
AcDbLine
6
DOT2
62
6
10
2872.595614
20
-542.820192
11
2872.305424
21
-542.530001
0
LINE
5
687
100
AcDbEntity
8
1
100
AcDbLine
6
DOT2
62
6
10
2872.153469
20
-542.378046
11
2871.983872
21
-542.208449
0
LINE
5
688
100
AcDbEntity
8
1
100
AcDbLine
6
DOT2
62
6
10
2871.919846
20
-542.144423
11
2871.740225
21
-541.964802
0
LINE
5
689
100
AcDbEntity
8
1
100
AcDbLine
6
DOT2
62
6
10
2873.236618
20
-543.744038
11
2872.982845
21
-543.490265
0
LINE
5
68a
100
AcDbEntity
8
1
100
AcDbLine
6
DOT2
62
6
10
2872.721920
20
-543.229340
11
2872.305424
21
-542.812844
0
LINE
5
68b
100
AcDbEntity
8
1
100
AcDbLine
6
DOT2
62
6
10
2872.302868
20
-542.810288
11
2872.150670
21
-542.658090
0
LINE
5
68c
100
AcDbEntity
8
1
100
AcDbLine
6
DOT2
62
6
10
2871.870626
20
-542.378046
11
2871.640267
21
-542.147687
0
LINE
5
68d
100
AcDbEntity
8
1
100
AcDbLine
6
DOT2
62
6
10
2873.008901
20
-543.799164
11
2872.705931
21
-543.496194
0
LINE
5
68e
100
AcDbEntity
8
1
100
AcDbLine
6
DOT2
62
6
10
2872.595614
20
-543.385877
11
2872.276733
21
-543.066995
0
LINE
5
68f
100
AcDbEntity
8
1
100
AcDbLine
6
DOT2
62
6
10
2872.020026
20
-542.810288
11
2871.867828
21
-542.658090
0
LINE
5
690
100
AcDbEntity
8
1
100
AcDbLine
6
DOT2
62
6
10
2871.645569
20
-542.435831
11
2871.521822
21
-542.312085
0
LINE
5
691
100
AcDbEntity
8
1
100
AcDbLine
6
DOT2
62
6
10
2872.595614
20
-543.668720
11
2872.305424
21
-543.378529
0
LINE
5
692
100
AcDbEntity
8
1
100
AcDbLine
6
DOT2
62
6
10
2872.156234
20
-543.229340
11
2871.993890
21
-543.066995
0
LINE
5
693
100
AcDbEntity
8
1
100
AcDbLine
6
DOT2
62
6
10
2871.737183
20
-542.810288
11
2871.584985
21
-542.658090
0
LINE
5
694
100
AcDbEntity
8
1
100
AcDbLine
6
DOT2
62
6
10
2871.486055
20
-542.559161
11
2871.385978
21
-542.459083
0
LINE
5
695
100
AcDbEntity
8
1
100
AcDbLine
6
DOT2
62
6
10
2872.570458
20
-543.926407
11
2872.305424
21
-543.661372
0
LINE
5
696
100
AcDbEntity
8
1
100
AcDbLine
6
DOT2
62
6
10
2871.911738
20
-543.267687
11
2871.623577
21
-542.979525
0
LINE
5
697
100
AcDbEntity
8
1
100
AcDbLine
6
DOT2
62
6
10
2871.454340
20
-542.810288
11
2871.368785
21
-542.724733
0
LINE
5
698
100
AcDbEntity
8
1
100
AcDbLine
6
DOT2
62
6
10
2871.911738
20
-543.550529
11
2871.623577
21
-543.262368
0
LINE
5
699
100
AcDbEntity
8
1
100
AcDbLine
6
DOT2
62
6
10
2871.911738
20
-543.833372
11
2871.623577
21
-543.545211
0
LINE
5
69a
100
AcDbEntity
8
1
100
AcDbLine
6
DOT2
62
6
10
2871.825184
20
-540.106457
11
2871.881232
21
-540.050409
0
LINE
5
69b
100
AcDbEntity
8
1
100
AcDbLine
6
DOT2
62
6
10
2875.102206
20
-541.072075
11
2875.268532
21
-540.905749
0
LINE
5
69c
100
AcDbEntity
8
1
100
AcDbLine
6
DOT2
62
6
10
2874.819363
20
-541.072075
11
2875.135192
21
-540.756247
0
LINE
5
69d
100
AcDbEntity
8
1
100
AcDbLine
6
DOT2
62
6
10
2874.536520
20
-541.072075
11
2874.700984
21
-540.907612
0
LINE
5
69e
100
AcDbEntity
8
1
100
AcDbLine
6
DOT2
62
6
10
2874.976023
20
-540.632573
11
2874.977581
21
-540.631014
0
LINE
5
69f
100
AcDbEntity
8
1
100
AcDbLine
6
DOT2
62
6
10
2874.253678
20
-541.072075
11
2874.418141
21
-540.907612
0
LINE
5
6a0
100
AcDbEntity
8
1
100
AcDbLine
6
DOT2
62
6
10
2873.970835
20
-541.072075
11
2874.135298
21
-540.907612
0
LINE
5
6a1
100
AcDbEntity
8
1
100
AcDbLine
6
DOT2
62
6
10
2873.687992
20
-541.072075
11
2873.852456
21
-540.907612
0
LINE
5
6a2
100
AcDbEntity
8
1
100
AcDbLine
6
DOT2
62
6
10
2874.530244
20
-540.229823
11
2874.734139
21
-540.025929
0
LINE
5
6a3
100
AcDbEntity
8
1
100
AcDbLine
6
DOT2
62
6
10
2873.405150
20
-541.072075
11
2873.569613
21
-540.907612
0
LINE
5
6a4
100
AcDbEntity
8
1
100
AcDbLine
6
DOT2
62
6
10
2874.247402
20
-540.229823
11
2874.594191
21
-539.883034
0
LINE
5
6a5
100
AcDbEntity
8
1
100
AcDbLine
6
DOT2
62
6
10
2873.122307
20
-541.072075
11
2873.424964
21
-540.769418
0
LINE
5
6a6
100
AcDbEntity
8
1
100
AcDbLine
6
DOT2
62
6
10
2873.964559
20
-540.229823
11
2874.143974
21
-540.050409
0
LINE
5
6a7
100
AcDbEntity
8
1
100
AcDbLine
6
DOT2
62
6
10
2872.839464
20
-541.072075
11
2873.003928
21
-540.907612
0
LINE
5
6a8
100
AcDbEntity
8
1
100
AcDbLine
6
DOT2
62
6
10
2873.086070
20
-540.825470
11
2873.424964
21
-540.486576
0
LINE
5
6a9
100
AcDbEntity
8
1
100
AcDbLine
6
DOT2
62
6
10
2873.681716
20
-540.229823
11
2873.861131
21
-540.050409
0
LINE
5
6aa
100
AcDbEntity
8
1
100
AcDbLine
6
DOT2
62
6
10
2872.556621
20
-541.072075
11
2872.721085
21
-540.907612
0
LINE
5
6ab
100
AcDbEntity
8
1
100
AcDbLine
6
DOT2
62
6
10
2873.086070
20
-540.542627
11
2873.578288
21
-540.050409
0
LINE
5
6ac
100
AcDbEntity
8
1
100
AcDbLine
6
DOT2
62
6
10
2872.273779
20
-541.072075
11
2872.438242
21
-540.907612
0
LINE
5
6ad
100
AcDbEntity
8
1
100
AcDbLine
6
DOT2
62
6
10
2873.086070
20
-540.259784
11
2873.424964
21
-539.920890
0
LINE
5
6ae
100
AcDbEntity
8
1
100
AcDbLine
6
DOT2
62
6
10
2871.990936
20
-541.072075
11
2872.155399
21
-540.907612
0
LINE
5
6af
100
AcDbEntity
8
1
100
AcDbLine
6
DOT2
62
6
10
2872.833188
20
-540.229823
11
2873.012603
21
-540.050409
0
LINE
5
6b0
100
AcDbEntity
8
1
100
AcDbLine
6
DOT2
62
6
10
2873.086070
20
-539.976942
11
2873.541863
21
-539.521148
0
LINE
5
6b1
100
AcDbEntity
8
1
100
AcDbLine
6
DOT2
62
6
10
2871.708093
20
-541.072075
11
2871.872557
21
-540.907612
0
LINE
5
6b2
100
AcDbEntity
8
1
100
AcDbLine
6
DOT2
62
6
10
2872.550345
20
-540.229823
11
2872.729760
21
-540.050409
0
LINE
5
6b3
100
AcDbEntity
8
1
100
AcDbLine
6
DOT2
62
6
10
2873.086070
20
-539.694099
11
2873.307874
21
-539.472295
0
LINE
5
6b4
100
AcDbEntity
8
1
100
AcDbLine
6
DOT2
62
6
10
2871.425251
20
-541.072075
11
2871.589714
21
-540.907612
0
LINE
5
6b5
100
AcDbEntity
8
1
100
AcDbLine
6
DOT2
62
6
10
2872.267503
20
-540.229823
11
2872.446917
21
-540.050409
0
LINE
5
6b6
100
AcDbEntity
8
1
100
AcDbLine
6
DOT2
62
6
10
2871.984660
20
-540.229823
11
2872.164075
21
-540.050409
0
LINE
5
6b7
100
AcDbEntity
8
1
100
AcDbLine
6
DOT2
62
6
10
2874.430296
20
-539.846547
11
2874.753912
21
-540.170164
0
LINE
5
6b8
100
AcDbEntity
8
1
100
AcDbLine
6
DOT2
62
6
10
2871.308735
20
-540.967627
11
2871.413183
21
-541.072075
0
LINE
5
6b9
100
AcDbEntity
8
1
100
AcDbLine
6
DOT2
62
6
10
2871.531563
20
-540.907612
11
2871.696026
21
-541.072075
0
LINE
5
6ba
100
AcDbEntity
8
1
100
AcDbLine
6
DOT2
62
6
10
2871.814405
20
-540.907612
11
2871.978869
21
-541.072075
0
LINE
5
6bb
100
AcDbEntity
8
1
100
AcDbLine
6
DOT2
62
6
10
2872.097248
20
-540.907612
11
2872.261712
21
-541.072075
0
LINE
5
6bc
100
AcDbEntity
8
1
100
AcDbLine
6
DOT2
62
6
10
2872.380091
20
-540.907612
11
2872.544554
21
-541.072075
0
LINE
5
6bd
100
AcDbEntity
8
1
100
AcDbLine
6
DOT2
62
6
10
2871.825184
20
-540.069862
11
2871.985145
21
-540.229823
0
LINE
5
6be
100
AcDbEntity
8
1
100
AcDbLine
6
DOT2
62
6
10
2872.662934
20
-540.907612
11
2872.827397
21
-541.072075
0
LINE
5
6bf
100
AcDbEntity
8
1
100
AcDbLine
6
DOT2
62
6
10
2872.088573
20
-540.050409
11
2872.267988
21
-540.229823
0
LINE
5
6c0
100
AcDbEntity
8
1
100
AcDbLine
6
DOT2
62
6
10
2872.945776
20
-540.907612
11
2873.110240
21
-541.072075
0
LINE
5
6c1
100
AcDbEntity
8
1
100
AcDbLine
6
DOT2
62
6
10
2872.371416
20
-540.050409
11
2872.550830
21
-540.229823
0
LINE
5
6c2
100
AcDbEntity
8
1
100
AcDbLine
6
DOT2
62
6
10
2873.086070
20
-540.765063
11
2873.393082
21
-541.072075
0
LINE
5
6c3
100
AcDbEntity
8
1
100
AcDbLine
6
DOT2
62
6
10
2872.654259
20
-540.050409
11
2872.833673
21
-540.229823
0
LINE
5
6c4
100
AcDbEntity
8
1
100
AcDbLine
6
DOT2
62
6
10
2873.086070
20
-540.482220
11
2873.424964
21
-540.821114
0
LINE
5
6c5
100
AcDbEntity
8
1
100
AcDbLine
6
DOT2
62
6
10
2873.511462
20
-540.907612
11
2873.675925
21
-541.072075
0
LINE
5
6c6
100
AcDbEntity
8
1
100
AcDbLine
6
DOT2
62
6
10
2872.937101
20
-540.050409
11
2873.424964
21
-540.538271
0
LINE
5
6c7
100
AcDbEntity
8
1
100
AcDbLine
6
DOT2
62
6
10
2873.794304
20
-540.907612
11
2873.958768
21
-541.072075
0
LINE
5
6c8
100
AcDbEntity
8
1
100
AcDbLine
6
DOT2
62
6
10
2873.086070
20
-539.916534
11
2873.424964
21
-540.255429
0
LINE
5
6c9
100
AcDbEntity
8
1
100
AcDbLine
6
DOT2
62
6
10
2874.077147
20
-540.907612
11
2874.241611
21
-541.072075
0
LINE
5
6ca
100
AcDbEntity
8
1
100
AcDbLine
6
DOT2
62
6
10
2873.086070
20
-539.633692
11
2873.424964
21
-539.972586
0
LINE
5
6cb
100
AcDbEntity
8
1
100
AcDbLine
6
DOT2
62
6
10
2873.502787
20
-540.050409
11
2873.682201
21
-540.229823
0
LINE
5
6cc
100
AcDbEntity
8
1
100
AcDbLine
6
DOT2
62
6
10
2874.359990
20
-540.907612
11
2874.524453
21
-541.072075
0
LINE
5
6cd
100
AcDbEntity
8
1
100
AcDbLine
6
DOT2
62
6
10
2873.207516
20
-539.472295
11
2873.468910
21
-539.733690
0
LINE
5
6ce
100
AcDbEntity
8
1
100
AcDbLine
6
DOT2
62
6
10
2873.785629
20
-540.050409
11
2873.965044
21
-540.229823
0
LINE
5
6cf
100
AcDbEntity
8
1
100
AcDbLine
6
DOT2
62
6
10
2874.642833
20
-540.907612
11
2874.807296
21
-541.072075
0
LINE
5
6d0
100
AcDbEntity
8
1
100
AcDbLine
6
DOT2
62
6
10
2873.537308
20
-539.519245
11
2873.594644
21
-539.576581
0
LINE
5
6d1
100
AcDbEntity
8
1
100
AcDbLine
6
DOT2
62
6
10
2874.068472
20
-540.050409
11
2874.247887
21
-540.229823
0
LINE
5
6d2
100
AcDbEntity
8
1
100
AcDbLine
6
DOT2
62
6
10
2874.823449
20
-540.805386
11
2875.090139
21
-541.072075
0
LINE
5
6d3
100
AcDbEntity
8
1
100
AcDbLine
6
DOT2
62
6
10
2874.306756
20
-540.005850
11
2874.530729
21
-540.229823
0
LINE
5
6d4
100
AcDbEntity
8
1
100
AcDbLine
6
DOT2
62
6
10
2874.956074
20
-540.655168
11
2875.270194
21
-540.969288
0
LINE
5
6d5
100
AcDbEntity
8
1
100
AcDbLine
6
DOT2
62
6
10
2871.351444
20
-537.468926
11
2871.415082
21
-537.405289
0
LINE
5
6d6
100
AcDbEntity
8
1
100
AcDbLine
6
DOT2
62
6
10
2872.723515
20
-539.773811
11
2872.929082
21
-539.568244
0
LINE
5
6d7
100
AcDbEntity
8
1
100
AcDbLine
6
DOT2
62
6
10
2872.605139
20
-539.609345
11
2872.929082
21
-539.285401
0
LINE
5
6d8
100
AcDbEntity
8
1
100
AcDbLine
6
DOT2
62
6
10
2872.605139
20
-539.326502
11
2872.929082
21
-539.002559
0
LINE
5
6d9
100
AcDbEntity
8
1
100
AcDbLine
6
DOT2
62
6
10
2873.407502
20
-538.524138
11
2873.488507
21
-538.443134
0
LINE
5
6da
100
AcDbEntity
8
1
100
AcDbLine
6
DOT2
62
6
10
2872.605139
20
-539.043659
11
2872.929082
21
-538.719716
0
LINE
5
6db
100
AcDbEntity
8
1
100
AcDbLine
6
DOT2
62
6
10
2873.124659
20
-538.524138
11
2873.369785
21
-538.279013
0
LINE
5
6dc
100
AcDbEntity
8
1
100
AcDbLine
6
DOT2
62
6
10
2871.399430
20
-539.966525
11
2871.933740
21
-539.432216
0
LINE
5
6dd
100
AcDbEntity
8
1
100
AcDbLine
6
DOT2
62
6
10
2872.605139
20
-538.760816
11
2872.998805
21
-538.367151
0
LINE
5
6de
100
AcDbEntity
8
1
100
AcDbLine
6
DOT2
62
6
10
2873.064123
20
-538.301832
11
2873.240229
21
-538.125726
0
LINE
5
6df
100
AcDbEntity
8
1
100
AcDbLine
6
DOT2
62
6
10
2871.599968
20
-539.483145
11
2872.084296
21
-538.998817
0
LINE
5
6e0
100
AcDbEntity
8
1
100
AcDbLine
6
DOT2
62
6
10
2872.558974
20
-538.524138
11
2872.929082
21
-538.154031
0
LINE
5
6e1
100
AcDbEntity
8
1
100
AcDbLine
6
DOT2
62
6
10
2871.762410
20
-539.037860
11
2872.123019
21
-538.677251
0
LINE
5
6e2
100
AcDbEntity
8
1
100
AcDbLine
6
DOT2
62
6
10
2872.276131
20
-538.524138
11
2872.433119
21
-538.367151
0
LINE
5
6e3
100
AcDbEntity
8
1
100
AcDbLine
6
DOT2
62
6
10
2872.605139
20
-538.195131
11
2872.929082
21
-537.871188
0
LINE
5
6e4
100
AcDbEntity
8
1
100
AcDbLine
6
DOT2
62
6
10
2873.221796
20
-537.578474
11
2873.349844
21
-537.450426
0
LINE
5
6e5
100
AcDbEntity
8
1
100
AcDbLine
6
DOT2
62
6
10
2871.804009
20
-538.713418
11
2872.150276
21
-538.367151
0
LINE
5
6e6
100
AcDbEntity
8
1
100
AcDbLine
6
DOT2
62
6
10
2872.605139
20
-537.912288
11
2872.929082
21
-537.588345
0
LINE
5
6e7
100
AcDbEntity
8
1
100
AcDbLine
6
DOT2
62
6
10
2872.938953
20
-537.578474
11
2873.228358
21
-537.289069
0
LINE
5
6e8
100
AcDbEntity
8
1
100
AcDbLine
6
DOT2
62
6
10
2871.710446
20
-538.524138
11
2872.144143
21
-538.090441
0
LINE
5
6e9
100
AcDbEntity
8
1
100
AcDbLine
6
DOT2
62
6
10
2872.605139
20
-537.629446
11
2872.829295
21
-537.405289
0
LINE
5
6ea
100
AcDbEntity
8
1
100
AcDbLine
6
DOT2
62
6
10
2871.427603
20
-538.524138
11
2871.584591
21
-538.367151
0
LINE
5
6eb
100
AcDbEntity
8
1
100
AcDbLine
6
DOT2
62
6
10
2871.840135
20
-538.111607
11
2872.144143
21
-537.807599
0
LINE
5
6ec
100
AcDbEntity
8
1
100
AcDbLine
6
DOT2
62
6
10
2872.373268
20
-537.578474
11
2872.546453
21
-537.405289
0
LINE
5
6ed
100
AcDbEntity
8
1
100
AcDbLine
6
DOT2
62
6
10
2871.249838
20
-538.419061
11
2871.301748
21
-538.367151
0
LINE
5
6ee
100
AcDbEntity
8
1
100
AcDbLine
6
DOT2
62
6
10
2871.840135
20
-537.828764
11
2872.263610
21
-537.405289
0
LINE
5
6ef
100
AcDbEntity
8
1
100
AcDbLine
6
DOT2
62
6
10
2871.807582
20
-537.578474
11
2871.980767
21
-537.405289
0
LINE
5
6f0
100
AcDbEntity
8
1
100
AcDbLine
6
DOT2
62
6
10
2871.524740
20
-537.578474
11
2871.697925
21
-537.405289
0
LINE
5
6f1
100
AcDbEntity
8
1
100
AcDbLine
6
DOT2
62
6
10
2872.994539
20
-537.279419
11
2873.293593
21
-537.578474
0
LINE
5
6f2
100
AcDbEntity
8
1
100
AcDbLine
6
DOT2
62
6
10
2871.336777
20
-539.864298
11
2871.439561
21
-539.967082
0
LINE
5
6f3
100
AcDbEntity
8
1
100
AcDbLine
6
DOT2
62
6
10
2871.458347
20
-539.703026
11
2871.601494
21
-539.846173
0
LINE
5
6f4
100
AcDbEntity
8
1
100
AcDbLine
6
DOT2
62
6
10
2871.572935
20
-539.534770
11
2871.743716
21
-539.705551
0
LINE
5
6f5
100
AcDbEntity
8
1
100
AcDbLine
6
DOT2
62
6
10
2871.664121
20
-539.343114
11
2871.866272
21
-539.545265
0
LINE
5
6f6
100
AcDbEntity
8
1
100
AcDbLine
6
DOT2
62
6
10
2871.737348
20
-539.133498
11
2871.968014
21
-539.364164
0
LINE
5
6f7
100
AcDbEntity
8
1
100
AcDbLine
6
DOT2
62
6
10
2871.253843
20
-538.367151
11
2871.410831
21
-538.524138
0
LINE
5
6f8
100
AcDbEntity
8
1
100
AcDbLine
6
DOT2
62
6
10
2871.789441
20
-538.902749
11
2872.046206
21
-539.159514
0
LINE
5
6f9
100
AcDbEntity
8
1
100
AcDbLine
6
DOT2
62
6
10
2872.605139
20
-539.718446
11
2872.660504
21
-539.773811
0
LINE
5
6fa
100
AcDbEntity
8
1
100
AcDbLine
6
DOT2
62
6
10
2871.536686
20
-538.367151
11
2871.693674
21
-538.524138
0
LINE
5
6fb
100
AcDbEntity
8
1
100
AcDbLine
6
DOT2
62
6
10
2871.805249
20
-538.635713
11
2872.095366
21
-538.925830
0
LINE
5
6fc
100
AcDbEntity
8
1
100
AcDbLine
6
DOT2
62
6
10
2872.605139
20
-539.435604
11
2872.929082
21
-539.759547
0
LINE
5
6fd
100
AcDbEntity
8
1
100
AcDbLine
6
DOT2
62
6
10
2871.819529
20
-538.367151
11
2872.123693
21
-538.671315
0
LINE
5
6fe
100
AcDbEntity
8
1
100
AcDbLine
6
DOT2
62
6
10
2872.605139
20
-539.152761
11
2872.929082
21
-539.476704
0
LINE
5
6ff
100
AcDbEntity
8
1
100
AcDbLine
6
DOT2
62
6
10
2871.840135
20
-538.104914
11
2872.259359
21
-538.524138
0
LINE
5
700
100
AcDbEntity
8
1
100
AcDbLine
6
DOT2
62
6
10
2872.605139
20
-538.869918
11
2872.929082
21
-539.193861
0
LINE
5
701
100
AcDbEntity
8
1
100
AcDbLine
6
DOT2
62
6
10
2871.423352
20
-537.405289
11
2871.596537
21
-537.578474
0
LINE
5
702
100
AcDbEntity
8
1
100
AcDbLine
6
DOT2
62
6
10
2871.840135
20
-537.822071
11
2872.144143
21
-538.126080
0
LINE
5
703
100
AcDbEntity
8
1
100
AcDbLine
6
DOT2
62
6
10
2872.385214
20
-538.367151
11
2872.542202
21
-538.524138
0
LINE
5
704
100
AcDbEntity
8
1
100
AcDbLine
6
DOT2
62
6
10
2872.605139
20
-538.587075
11
2872.929082
21
-538.911019
0
LINE
5
705
100
AcDbEntity
8
1
100
AcDbLine
6
DOT2
62
6
10
2871.706195
20
-537.405289
11
2872.144143
21
-537.843237
0
LINE
5
706
100
AcDbEntity
8
1
100
AcDbLine
6
DOT2
62
6
10
2872.605139
20
-538.304233
11
2872.929082
21
-538.628176
0
LINE
5
707
100
AcDbEntity
8
1
100
AcDbLine
6
DOT2
62
6
10
2871.989038
20
-537.405289
11
2872.162223
21
-537.578474
0
LINE
5
708
100
AcDbEntity
8
1
100
AcDbLine
6
DOT2
62
6
10
2872.605139
20
-538.021390
11
2872.929082
21
-538.345333
0
LINE
5
709
100
AcDbEntity
8
1
100
AcDbLine
6
DOT2
62
6
10
2872.950899
20
-538.367151
11
2873.107887
21
-538.524138
0
LINE
5
70a
100
AcDbEntity
8
1
100
AcDbLine
6
DOT2
62
6
10
2872.271880
20
-537.405289
11
2872.445065
21
-537.578474
0
LINE
5
70b
100
AcDbEntity
8
1
100
AcDbLine
6
DOT2
62
6
10
2872.605139
20
-537.738547
11
2872.929082
21
-538.062490
0
LINE
5
70c
100
AcDbEntity
8
1
100
AcDbLine
6
DOT2
62
6
10
2873.108867
20
-538.242275
11
2873.390730
21
-538.524138
0
LINE
5
70d
100
AcDbEntity
8
1
100
AcDbLine
6
DOT2
62
6
10
2872.554723
20
-537.405289
11
2872.929082
21
-537.779648
0
LINE
5
70e
100
AcDbEntity
8
1
100
AcDbLine
6
DOT2
62
6
10
2872.837566
20
-537.405289
11
2873.010751
21
-537.578474
0
LINE
5
70f
100
AcDbEntity
8
1
100
AcDbLine
6
DOT2
62
6
10
2873.129293
20
-546.439101
11
2873.181893
21
-546.386501
0
LINE
5
710
100
AcDbEntity
8
1
100
AcDbLine
6
DOT2
62
6
10
2873.557185
20
-550.253849
11
2873.803939
21
-550.007095
0
LINE
5
711
100
AcDbEntity
8
1
100
AcDbLine
6
DOT2
62
6
10
2874.709831
20
-549.101204
11
2874.916507
21
-548.894528
0
LINE
5
712
100
AcDbEntity
8
1
100
AcDbLine
6
DOT2
62
6
10
2873.483309
20
-550.044883
11
2873.803939
21
-549.724253
0
LINE
5
713
100
AcDbEntity
8
1
100
AcDbLine
6
DOT2
62
6
10
2874.426988
20
-549.101204
11
2874.789715
21
-548.738476
0
LINE
5
714
100
AcDbEntity
8
1
100
AcDbLine
6
DOT2
62
6
10
2873.483309
20
-549.762040
11
2873.803939
21
-549.441410
0
LINE
5
715
100
AcDbEntity
8
1
100
AcDbLine
6
DOT2
62
6
10
2874.144145
20
-549.101204
11
2874.298373
21
-548.946976
0
LINE
5
716
100
AcDbEntity
8
1
100
AcDbLine
6
DOT2
62
6
10
2873.483309
20
-549.479197
11
2873.803939
21
-549.158567
0
LINE
5
717
100
AcDbEntity
8
1
100
AcDbLine
6
DOT2
62
6
10
2873.861303
20
-549.101204
11
2874.015530
21
-548.946976
0
LINE
5
718
100
AcDbEntity
8
1
100
AcDbLine
6
DOT2
62
6
10
2874.746080
20
-548.216426
11
2874.936266
21
-548.026240
0
LINE
5
719
100
AcDbEntity
8
1
100
AcDbLine
6
DOT2
62
6
10
2873.483309
20
-549.196355
11
2873.803939
21
-548.875724
0
LINE
5
71a
100
AcDbEntity
8
1
100
AcDbLine
6
DOT2
62
6
10
2874.463237
20
-548.216426
11
2874.804821
21
-547.874843
0
LINE
5
71b
100
AcDbEntity
8
1
100
AcDbLine
6
DOT2
62
6
10
2873.483309
20
-548.913512
11
2873.803939
21
-548.592882
0
LINE
5
71c
100
AcDbEntity
8
1
100
AcDbLine
6
DOT2
62
6
10
2874.180395
20
-548.216426
11
2874.346798
21
-548.050023
0
LINE
5
71d
100
AcDbEntity
8
1
100
AcDbLine
6
DOT2
62
6
10
2873.483309
20
-548.630669
11
2873.803939
21
-548.310039
0
LINE
5
71e
100
AcDbEntity
8
1
100
AcDbLine
6
DOT2
62
6
10
2873.897552
20
-548.216426
11
2874.063955
21
-548.050023
0
LINE
5
71f
100
AcDbEntity
8
1
100
AcDbLine
6
DOT2
62
6
10
2874.839150
20
-547.274828
11
2875.044710
21
-547.069268
0
LINE
5
720
100
AcDbEntity
8
1
100
AcDbLine
6
DOT2
62
6
10
2873.483309
20
-548.347827
11
2873.803939
21
-548.027196
0
LINE
5
721
100
AcDbEntity
8
1
100
AcDbLine
6
DOT2
62
6
10
2874.556307
20
-547.274828
11
2874.912530
21
-546.918605
0
LINE
5
722
100
AcDbEntity
8
1
100
AcDbLine
6
DOT2
62
6
10
2873.483309
20
-548.064984
11
2873.803939
21
-547.744354
0
LINE
5
723
100
AcDbEntity
8
1
100
AcDbLine
6
DOT2
62
6
10
2874.273464
20
-547.274828
11
2874.407399
21
-547.140894
0
LINE
5
724
100
AcDbEntity
8
1
100
AcDbLine
6
DOT2
62
6
10
2873.483309
20
-547.782141
11
2873.803939
21
-547.461511
0
LINE
5
725
100
AcDbEntity
8
1
100
AcDbLine
6
DOT2
62
6
10
2873.990622
20
-547.274828
11
2874.124556
21
-547.140894
0
LINE
5
726
100
AcDbEntity
8
1
100
AcDbLine
6
DOT2
62
6
10
2873.483309
20
-547.499298
11
2873.841713
21
-547.140894
0
LINE
5
727
100
AcDbEntity
8
1
100
AcDbLine
6
DOT2
62
6
10
2872.467234
20
-548.232530
11
2873.036453
21
-547.663312
0
LINE
5
728
100
AcDbEntity
8
1
100
AcDbLine
6
DOT2
62
6
10
2873.424936
20
-547.274828
11
2873.558870
21
-547.140894
0
LINE
5
729
100
AcDbEntity
8
1
100
AcDbLine
6
DOT2
62
6
10
2872.762028
20
-547.654894
11
2873.276028
21
-547.140894
0
LINE
5
72a
100
AcDbEntity
8
1
100
AcDbLine
6
DOT2
62
6
10
2872.937781
20
-547.196298
11
2873.365529
21
-546.768550
0
LINE
5
72b
100
AcDbEntity
8
1
100
AcDbLine
6
DOT2
62
6
10
2873.535272
20
-546.598808
11
2873.570569
21
-546.563510
0
LINE
5
72c
100
AcDbEntity
8
1
100
AcDbLine
6
DOT2
62
6
10
2873.053050
20
-546.798187
11
2873.400840
21
-546.450396
0
LINE
5
72d
100
AcDbEntity
8
1
100
AcDbLine
6
DOT2
62
6
10
2873.523890
20
-550.253849
11
2873.483309
21
-550.213269
0
LINE
5
72e
100
AcDbEntity
8
1
100
AcDbLine
6
DOT2
62
6
10
2875.070352
20
-547.274828
11
2874.755412
21
-546.959889
0
LINE
5
72f
100
AcDbEntity
8
1
100
AcDbLine
6
DOT2
62
6
10
2874.787509
20
-547.274828
11
2874.633196
21
-547.120516
0
LINE
5
730
100
AcDbEntity
8
1
100
AcDbLine
6
DOT2
62
6
10
2874.504667
20
-547.274828
11
2874.370732
21
-547.140894
0
LINE
5
731
100
AcDbEntity
8
1
100
AcDbLine
6
DOT2
62
6
10
2874.221824
20
-547.274828
11
2874.087890
21
-547.140894
0
LINE
5
732
100
AcDbEntity
8
1
100
AcDbLine
6
DOT2
62
6
10
2873.542246
20
-546.595251
11
2873.394999
21
-546.448003
0
LINE
5
733
100
AcDbEntity
8
1
100
AcDbLine
6
DOT2
62
6
10
2874.880579
20
-548.216426
11
2874.595612
21
-547.931459
0
LINE
5
734
100
AcDbEntity
8
1
100
AcDbLine
6
DOT2
62
6
10
2873.938981
20
-547.274828
11
2873.805047
21
-547.140894
0
LINE
5
735
100
AcDbEntity
8
1
100
AcDbLine
6
DOT2
62
6
10
2873.377321
20
-546.713168
11
2873.125338
21
-546.461185
0
LINE
5
736
100
AcDbEntity
8
1
100
AcDbLine
6
DOT2
62
6
10
2874.597736
20
-548.216426
11
2874.431333
21
-548.050023
0
LINE
5
737
100
AcDbEntity
8
1
100
AcDbLine
6
DOT2
62
6
10
2873.803939
20
-547.422629
11
2873.522204
21
-547.140894
0
LINE
5
738
100
AcDbEntity
8
1
100
AcDbLine
6
DOT2
62
6
10
2873.322710
20
-546.941400
11
2873.077352
21
-546.696041
0
LINE
5
739
100
AcDbEntity
8
1
100
AcDbLine
6
DOT2
62
6
10
2874.314894
20
-548.216426
11
2874.148491
21
-548.050023
0
LINE
5
73a
100
AcDbEntity
8
1
100
AcDbLine
6
DOT2
62
6
10
2873.803939
20
-547.705472
11
2873.483309
21
-547.384842
0
LINE
5
73b
100
AcDbEntity
8
1
100
AcDbLine
6
DOT2
62
6
10
2873.373296
20
-547.274828
11
2873.020687
21
-546.922220
0
LINE
5
73c
100
AcDbEntity
8
1
100
AcDbLine
6
DOT2
62
6
10
2874.916828
20
-549.101204
11
2874.629600
21
-548.813976
0
LINE
5
73d
100
AcDbEntity
8
1
100
AcDbLine
6
DOT2
62
6
10
2874.032051
20
-548.216426
11
2873.865648
21
-548.050023
0
LINE
5
73e
100
AcDbEntity
8
1
100
AcDbLine
6
DOT2
62
6
10
2873.803939
20
-547.988315
11
2873.483309
21
-547.667684
0
LINE
5
73f
100
AcDbEntity
8
1
100
AcDbLine
6
DOT2
62
6
10
2873.178151
20
-547.362526
11
2872.955997
21
-547.140372
0
LINE
5
740
100
AcDbEntity
8
1
100
AcDbLine
6
DOT2
62
6
10
2874.633986
20
-549.101204
11
2874.479758
21
-548.946976
0
LINE
5
741
100
AcDbEntity
8
1
100
AcDbLine
6
DOT2
62
6
10
2873.803939
20
-548.271157
11
2873.483309
21
-547.950527
0
LINE
5
742
100
AcDbEntity
8
1
100
AcDbLine
6
DOT2
62
6
10
2873.090262
20
-547.557480
11
2872.883816
21
-547.351034
0
LINE
5
743
100
AcDbEntity
8
1
100
AcDbLine
6
DOT2
62
6
10
2874.351143
20
-549.101204
11
2874.196916
21
-548.946976
0
LINE
5
744
100
AcDbEntity
8
1
100
AcDbLine
6
DOT2
62
6
10
2873.803939
20
-548.554000
11
2873.483309
21
-548.233370
0
LINE
5
745
100
AcDbEntity
8
1
100
AcDbLine
6
DOT2
62
6
10
2872.992934
20
-547.742994
11
2872.804588
21
-547.554648
0
LINE
5
746
100
AcDbEntity
8
1
100
AcDbLine
6
DOT2
62
6
10
2874.068300
20
-549.101204
11
2873.914073
21
-548.946976
0
LINE
5
747
100
AcDbEntity
8
1
100
AcDbLine
6
DOT2
62
6
10
2873.803939
20
-548.836843
11
2873.483309
21
-548.516212
0
LINE
5
748
100
AcDbEntity
8
1
100
AcDbLine
6
DOT2
62
6
10
2872.886675
20
-547.919578
11
2872.718680
21
-547.751583
0
LINE
5
749
100
AcDbEntity
8
1
100
AcDbLine
6
DOT2
62
6
10
2873.803939
20
-549.119685
11
2873.483309
21
-548.799055
0
LINE
5
74a
100
AcDbEntity
8
1
100
AcDbLine
6
DOT2
62
6
10
2872.771866
20
-548.087612
11
2872.626400
21
-547.942146
0
LINE
5
74b
100
AcDbEntity
8
1
100
AcDbLine
6
DOT2
62
6
10
2873.803939
20
-549.402528
11
2873.483309
21
-549.081898
0
LINE
5
74c
100
AcDbEntity
8
1
100
AcDbLine
6
DOT2
62
6
10
2872.648779
20
-548.247368
11
2872.528005
21
-548.126594
0
LINE
5
74d
100
AcDbEntity
8
1
100
AcDbLine
6
DOT2
62
6
10
2873.803939
20
-549.685371
11
2873.483309
21
-549.364741
0
LINE
5
74e
100
AcDbEntity
8
1
100
AcDbLine
6
DOT2
62
6
10
2872.517597
20
-548.399029
11
2872.423708
21
-548.305139
0
LINE
5
74f
100
AcDbEntity
8
1
100
AcDbLine
6
DOT2
62
6
10
2873.803939
20
-549.968214
11
2873.483309
21
-549.647583
0
LINE
5
750
100
AcDbEntity
8
1
100
AcDbLine
6
DOT2
62
6
10
2873.803939
20
-550.251056
11
2873.483309
21
-549.930426
0
LINE
5
751
100
AcDbEntity
8
1
100
AcDbLine
6
DOT2
62
6
10
2877.008527
20
-536.202239
11
2877.055517
21
-536.249228
0
LINE
5
752
100
AcDbEntity
8
1
100
AcDbLine
6
DOT2
62
6
10
2876.755517
20
-543.868824
11
2877.055517
21
-544.168824
0
LINE
5
753
100
AcDbEntity
8
1
100
AcDbLine
6
DOT2
62
6
10
2869.455517
20
-536.285982
11
2869.755517
21
-536.585982
0
LINE
5
754
100
AcDbEntity
8
1
100
AcDbLine
6
DOT2
62
6
10
2876.755517
20
-543.585982
11
2877.055517
21
-543.885982
0
LINE
5
755
100
AcDbEntity
8
1
100
AcDbLine
6
DOT2
62
6
10
2869.654617
20
-536.202239
11
2869.954617
21
-536.502239
0
LINE
5
756
100
AcDbEntity
8
1
100
AcDbLine
6
DOT2
62
6
10
2876.755517
20
-543.303139
11
2877.055517
21
-543.603139
0
LINE
5
757
100
AcDbEntity
8
1
100
AcDbLine
6
DOT2
62
6
10
2869.937459
20
-536.202239
11
2870.237459
21
-536.502239
0
LINE
5
758
100
AcDbEntity
8
1
100
AcDbLine
6
DOT2
62
6
10
2876.755517
20
-543.020296
11
2877.055517
21
-543.320296
0
LINE
5
759
100
AcDbEntity
8
1
100
AcDbLine
6
DOT2
62
6
10
2870.220302
20
-536.202239
11
2870.520302
21
-536.502239
0
LINE
5
75a
100
AcDbEntity
8
1
100
AcDbLine
6
DOT2
62
6
10
2876.755517
20
-542.737453
11
2877.055517
21
-543.037453
0
LINE
5
75b
100
AcDbEntity
8
1
100
AcDbLine
6
DOT2
62
6
10
2870.503145
20
-536.202239
11
2870.803145
21
-536.502239
0
LINE
5
75c
100
AcDbEntity
8
1
100
AcDbLine
6
DOT2
62
6
10
2876.755517
20
-542.454611
11
2877.055517
21
-542.754611
0
LINE
5
75d
100
AcDbEntity
8
1
100
AcDbLine
6
DOT2
62
6
10
2870.785988
20
-536.202239
11
2871.085988
21
-536.502239
0
LINE
5
75e
100
AcDbEntity
8
1
100
AcDbLine
6
DOT2
62
6
10
2876.755517
20
-542.171768
11
2877.055517
21
-542.471768
0
LINE
5
75f
100
AcDbEntity
8
1
100
AcDbLine
6
DOT2
62
6
10
2871.068830
20
-536.202239
11
2871.368830
21
-536.502239
0
LINE
5
760
100
AcDbEntity
8
1
100
AcDbLine
6
DOT2
62
6
10
2876.755517
20
-541.888925
11
2877.055517
21
-542.188925
0
LINE
5
761
100
AcDbEntity
8
1
100
AcDbLine
6
DOT2
62
6
10
2871.351673
20
-536.202239
11
2871.651673
21
-536.502239
0
LINE
5
762
100
AcDbEntity
8
1
100
AcDbLine
6
DOT2
62
6
10
2876.755517
20
-541.606083
11
2877.055517
21
-541.906083
0
LINE
5
763
100
AcDbEntity
8
1
100
AcDbLine
6
DOT2
62
6
10
2871.634516
20
-536.202239
11
2871.934516
21
-536.502239
0
LINE
5
764
100
AcDbEntity
8
1
100
AcDbLine
6
DOT2
62
6
10
2876.755517
20
-541.323240
11
2877.055517
21
-541.623240
0
LINE
5
765
100
AcDbEntity
8
1
100
AcDbLine
6
DOT2
62
6
10
2871.917358
20
-536.202239
11
2872.217358
21
-536.502239
0
LINE
5
766
100
AcDbEntity
8
1
100
AcDbLine
6
DOT2
62
6
10
2876.755517
20
-541.040397
11
2877.055517
21
-541.340397
0
LINE
5
767
100
AcDbEntity
8
1
100
AcDbLine
6
DOT2
62
6
10
2872.200201
20
-536.202239
11
2872.500201
21
-536.502239
0
LINE
5
768
100
AcDbEntity
8
1
100
AcDbLine
6
DOT2
62
6
10
2876.755517
20
-540.757554
11
2877.055517
21
-541.057554
0
LINE
5
769
100
AcDbEntity
8
1
100
AcDbLine
6
DOT2
62
6
10
2872.483044
20
-536.202239
11
2872.783044
21
-536.502239
0
LINE
5
76a
100
AcDbEntity
8
1
100
AcDbLine
6
DOT2
62
6
10
2876.755517
20
-540.474712
11
2877.055517
21
-540.774712
0
LINE
5
76b
100
AcDbEntity
8
1
100
AcDbLine
6
DOT2
62
6
10
2872.765887
20
-536.202239
11
2873.065887
21
-536.502239
0
LINE
5
76c
100
AcDbEntity
8
1
100
AcDbLine
6
DOT2
62
6
10
2876.755517
20
-540.191869
11
2877.055517
21
-540.491869
0
LINE
5
76d
100
AcDbEntity
8
1
100
AcDbLine
6
DOT2
62
6
10
2873.048729
20
-536.202239
11
2873.348729
21
-536.502239
0
LINE
5
76e
100
AcDbEntity
8
1
100
AcDbLine
6
DOT2
62
6
10
2876.755517
20
-539.909026
11
2877.055517
21
-540.209026
0
LINE
5
76f
100
AcDbEntity
8
1
100
AcDbLine
6
DOT2
62
6
10
2873.331572
20
-536.202239
11
2873.631572
21
-536.502239
0
LINE
5
770
100
AcDbEntity
8
1
100
AcDbLine
6
DOT2
62
6
10
2876.755517
20
-539.626184
11
2877.055517
21
-539.926184
0
LINE
5
771
100
AcDbEntity
8
1
100
AcDbLine
6
DOT2
62
6
10
2873.614415
20
-536.202239
11
2873.914415
21
-536.502239
0
LINE
5
772
100
AcDbEntity
8
1
100
AcDbLine
6
DOT2
62
6
10
2876.755517
20
-539.343341
11
2877.055517
21
-539.643341
0
LINE
5
773
100
AcDbEntity
8
1
100
AcDbLine
6
DOT2
62
6
10
2873.897257
20
-536.202239
11
2874.197257
21
-536.502239
0
LINE
5
774
100
AcDbEntity
8
1
100
AcDbLine
6
DOT2
62
6
10
2876.755517
20
-539.060498
11
2877.055517
21
-539.360498
0
LINE
5
775
100
AcDbEntity
8
1
100
AcDbLine
6
DOT2
62
6
10
2874.180100
20
-536.202239
11
2874.480100
21
-536.502239
0
LINE
5
776
100
AcDbEntity
8
1
100
AcDbLine
6
DOT2
62
6
10
2876.755517
20
-538.777656
11
2877.055517
21
-539.077656
0
LINE
5
777
100
AcDbEntity
8
1
100
AcDbLine
6
DOT2
62
6
10
2874.462943
20
-536.202239
11
2874.762943
21
-536.502239
0
LINE
5
778
100
AcDbEntity
8
1
100
AcDbLine
6
DOT2
62
6
10
2876.755517
20
-538.494813
11
2877.055517
21
-538.794813
0
LINE
5
779
100
AcDbEntity
8
1
100
AcDbLine
6
DOT2
62
6
10
2874.745786
20
-536.202239
11
2875.045786
21
-536.502239
0
LINE
5
77a
100
AcDbEntity
8
1
100
AcDbLine
6
DOT2
62
6
10
2876.755517
20
-538.211970
11
2877.055517
21
-538.511970
0
LINE
5
77b
100
AcDbEntity
8
1
100
AcDbLine
6
DOT2
62
6
10
2875.028628
20
-536.202239
11
2875.328628
21
-536.502239
0
LINE
5
77c
100
AcDbEntity
8
1
100
AcDbLine
6
DOT2
62
6
10
2876.755517
20
-537.929127
11
2877.055517
21
-538.229127
0
LINE
5
77d
100
AcDbEntity
8
1
100
AcDbLine
6
DOT2
62
6
10
2875.311471
20
-536.202239
11
2875.611471
21
-536.502239
0
LINE
5
77e
100
AcDbEntity
8
1
100
AcDbLine
6
DOT2
62
6
10
2876.755517
20
-537.646285
11
2877.055517
21
-537.946285
0
LINE
5
77f
100
AcDbEntity
8
1
100
AcDbLine
6
DOT2
62
6
10
2875.594314
20
-536.202239
11
2875.894314
21
-536.502239
0
LINE
5
780
100
AcDbEntity
8
1
100
AcDbLine
6
DOT2
62
6
10
2876.755517
20
-537.363442
11
2877.055517
21
-537.663442
0
LINE
5
781
100
AcDbEntity
8
1
100
AcDbLine
6
DOT2
62
6
10
2875.877156
20
-536.202239
11
2876.177156
21
-536.502239
0
LINE
5
782
100
AcDbEntity
8
1
100
AcDbLine
6
DOT2
62
6
10
2876.755517
20
-537.080599
11
2877.055517
21
-537.380599
0
LINE
5
783
100
AcDbEntity
8
1
100
AcDbLine
6
DOT2
62
6
10
2876.159999
20
-536.202239
11
2876.459999
21
-536.502239
0
LINE
5
784
100
AcDbEntity
8
1
100
AcDbLine
6
DOT2
62
6
10
2876.755517
20
-536.797757
11
2877.055517
21
-537.097757
0
LINE
5
785
100
AcDbEntity
8
1
100
AcDbLine
6
DOT2
62
6
10
2876.442842
20
-536.202239
11
2876.742842
21
-536.502239
0
LINE
5
786
100
AcDbEntity
8
1
100
AcDbLine
6
DOT2
62
6
10
2876.755517
20
-536.514914
11
2877.055517
21
-536.814914
0
LINE
5
787
100
AcDbEntity
8
1
100
AcDbLine
6
DOT2
62
6
10
2876.725685
20
-536.202239
11
2877.055517
21
-536.532071
0
LINE
5
788
100
AcDbEntity
8
1
100
AcDbLine
6
DOT2
62
6
10
2869.455517
20
-536.568824
11
2869.755517
21
-536.868824
0
LINE
5
789
100
AcDbEntity
8
1
100
AcDbLine
6
DOT2
62
6
10
2869.455517
20
-550.993803
11
2869.663953
21
-551.202239
0
LINE
5
78a
100
AcDbEntity
8
1
100
AcDbLine
6
DOT2
62
6
10
2869.455517
20
-550.710960
11
2869.946796
21
-551.202239
0
LINE
5
78b
100
AcDbEntity
8
1
100
AcDbLine
6
DOT2
62
6
10
2869.455517
20
-550.428117
11
2869.755517
21
-550.728117
0
LINE
5
78c
100
AcDbEntity
8
1
100
AcDbLine
6
DOT2
62
6
10
2869.929638
20
-550.902239
11
2870.229638
21
-551.202239
0
LINE
5
78d
100
AcDbEntity
8
1
100
AcDbLine
6
DOT2
62
6
10
2869.455517
20
-550.145275
11
2869.755517
21
-550.445275
0
LINE
5
78e
100
AcDbEntity
8
1
100
AcDbLine
6
DOT2
62
6
10
2870.212481
20
-550.902239
11
2870.512481
21
-551.202239
0
LINE
5
78f
100
AcDbEntity
8
1
100
AcDbLine
6
DOT2
62
6
10
2869.455517
20
-549.862432
11
2869.755517
21
-550.162432
0
LINE
5
790
100
AcDbEntity
8
1
100
AcDbLine
6
DOT2
62
6
10
2870.495324
20
-550.902239
11
2870.795324
21
-551.202239
0
LINE
5
791
100
AcDbEntity
8
1
100
AcDbLine
6
DOT2
62
6
10
2869.455517
20
-549.579589
11
2869.755517
21
-549.879589
0
LINE
5
792
100
AcDbEntity
8
1
100
AcDbLine
6
DOT2
62
6
10
2870.778167
20
-550.902239
11
2871.078167
21
-551.202239
0
LINE
5
793
100
AcDbEntity
8
1
100
AcDbLine
6
DOT2
62
6
10
2869.455517
20
-549.296746
11
2869.755517
21
-549.596746
0
LINE
5
794
100
AcDbEntity
8
1
100
AcDbLine
6
DOT2
62
6
10
2871.061009
20
-550.902239
11
2871.361009
21
-551.202239
0
LINE
5
795
100
AcDbEntity
8
1
100
AcDbLine
6
DOT2
62
6
10
2869.455517
20
-549.013904
11
2869.755517
21
-549.313904
0
LINE
5
796
100
AcDbEntity
8
1
100
AcDbLine
6
DOT2
62
6
10
2871.343852
20
-550.902239
11
2871.643852
21
-551.202239
0
LINE
5
797
100
AcDbEntity
8
1
100
AcDbLine
6
DOT2
62
6
10
2869.455517
20
-548.731061
11
2869.755517
21
-549.031061
0
LINE
5
798
100
AcDbEntity
8
1
100
AcDbLine
6
DOT2
62
6
10
2871.626695
20
-550.902239
11
2871.926695
21
-551.202239
0
LINE
5
799
100
AcDbEntity
8
1
100
AcDbLine
6
DOT2
62
6
10
2869.455517
20
-548.448218
11
2869.755517
21
-548.748218
0
LINE
5
79a
100
AcDbEntity
8
1
100
AcDbLine
6
DOT2
62
6
10
2871.909537
20
-550.902239
11
2872.209537
21
-551.202239
0
LINE
5
79b
100
AcDbEntity
8
1
100
AcDbLine
6
DOT2
62
6
10
2869.455517
20
-548.165376
11
2869.755517
21
-548.465376
0
LINE
5
79c
100
AcDbEntity
8
1
100
AcDbLine
6
DOT2
62
6
10
2872.192380
20
-550.902239
11
2872.492380
21
-551.202239
0
LINE
5
79d
100
AcDbEntity
8
1
100
AcDbLine
6
DOT2
62
6
10
2869.455517
20
-547.882533
11
2869.755517
21
-548.182533
0
LINE
5
79e
100
AcDbEntity
8
1
100
AcDbLine
6
DOT2
62
6
10
2872.475223
20
-550.902239
11
2872.775223
21
-551.202239
0
LINE
5
79f
100
AcDbEntity
8
1
100
AcDbLine
6
DOT2
62
6
10
2869.455517
20
-547.599690
11
2869.755517
21
-547.899690
0
LINE
5
7a0
100
AcDbEntity
8
1
100
AcDbLine
6
DOT2
62
6
10
2872.758066
20
-550.902239
11
2873.058066
21
-551.202239
0
LINE
5
7a1
100
AcDbEntity
8
1
100
AcDbLine
6
DOT2
62
6
10
2869.455517
20
-547.316847
11
2869.755517
21
-547.616847
0
LINE
5
7a2
100
AcDbEntity
8
1
100
AcDbLine
6
DOT2
62
6
10
2873.040908
20
-550.902239
11
2873.340908
21
-551.202239
0
LINE
5
7a3
100
AcDbEntity
8
1
100
AcDbLine
6
DOT2
62
6
10
2869.455517
20
-547.034005
11
2869.755517
21
-547.334005
0
LINE
5
7a4
100
AcDbEntity
8
1
100
AcDbLine
6
DOT2
62
6
10
2873.323751
20
-550.902239
11
2873.623751
21
-551.202239
0
LINE
5
7a5
100
AcDbEntity
8
1
100
AcDbLine
6
DOT2
62
6
10
2869.455517
20
-546.751162
11
2869.755517
21
-547.051162
0
LINE
5
7a6
100
AcDbEntity
8
1
100
AcDbLine
6
DOT2
62
6
10
2873.606594
20
-550.902239
11
2873.906594
21
-551.202239
0
LINE
5
7a7
100
AcDbEntity
8
1
100
AcDbLine
6
DOT2
62
6
10
2869.455517
20
-546.468319
11
2869.755517
21
-546.768319
0
LINE
5
7a8
100
AcDbEntity
8
1
100
AcDbLine
6
DOT2
62
6
10
2873.889436
20
-550.902239
11
2874.189436
21
-551.202239
0
LINE
5
7a9
100
AcDbEntity
8
1
100
AcDbLine
6
DOT2
62
6
10
2869.455517
20
-546.185477
11
2869.755517
21
-546.485477
0
LINE
5
7aa
100
AcDbEntity
8
1
100
AcDbLine
6
DOT2
62
6
10
2874.172279
20
-550.902239
11
2874.472279
21
-551.202239
0
LINE
5
7ab
100
AcDbEntity
8
1
100
AcDbLine
6
DOT2
62
6
10
2869.455517
20
-545.902634
11
2869.755517
21
-546.202634
0
LINE
5
7ac
100
AcDbEntity
8
1
100
AcDbLine
6
DOT2
62
6
10
2874.455122
20
-550.902239
11
2874.755122
21
-551.202239
0
LINE
5
7ad
100
AcDbEntity
8
1
100
AcDbLine
6
DOT2
62
6
10
2869.455517
20
-545.619791
11
2869.755517
21
-545.919791
0
LINE
5
7ae
100
AcDbEntity
8
1
100
AcDbLine
6
DOT2
62
6
10
2874.737965
20
-550.902239
11
2875.037965
21
-551.202239
0
LINE
5
7af
100
AcDbEntity
8
1
100
AcDbLine
6
DOT2
62
6
10
2869.455517
20
-545.336948
11
2869.755517
21
-545.636948
0
LINE
5
7b0
100
AcDbEntity
8
1
100
AcDbLine
6
DOT2
62
6
10
2875.020807
20
-550.902239
11
2875.320807
21
-551.202239
0
LINE
5
7b1
100
AcDbEntity
8
1
100
AcDbLine
6
DOT2
62
6
10
2869.455517
20
-545.054106
11
2869.755517
21
-545.354106
0
LINE
5
7b2
100
AcDbEntity
8
1
100
AcDbLine
6
DOT2
62
6
10
2875.303650
20
-550.902239
11
2875.603650
21
-551.202239
0
LINE
5
7b3
100
AcDbEntity
8
1
100
AcDbLine
6
DOT2
62
6
10
2869.455517
20
-544.771263
11
2869.755517
21
-545.071263
0
LINE
5
7b4
100
AcDbEntity
8
1
100
AcDbLine
6
DOT2
62
6
10
2875.586493
20
-550.902239
11
2875.886493
21
-551.202239
0
LINE
5
7b5
100
AcDbEntity
8
1
100
AcDbLine
6
DOT2
62
6
10
2869.455517
20
-544.488420
11
2869.755517
21
-544.788420
0
LINE
5
7b6
100
AcDbEntity
8
1
100
AcDbLine
6
DOT2
62
6
10
2875.869335
20
-550.902239
11
2876.169335
21
-551.202239
0
LINE
5
7b7
100
AcDbEntity
8
1
100
AcDbLine
6
DOT2
62
6
10
2869.455517
20
-544.205578
11
2869.755517
21
-544.505578
0
LINE
5
7b8
100
AcDbEntity
8
1
100
AcDbLine
6
DOT2
62
6
10
2876.152178
20
-550.902239
11
2876.452178
21
-551.202239
0
LINE
5
7b9
100
AcDbEntity
8
1
100
AcDbLine
6
DOT2
62
6
10
2869.455517
20
-543.922735
11
2869.755517
21
-544.222735
0
LINE
5
7ba
100
AcDbEntity
8
1
100
AcDbLine
6
DOT2
62
6
10
2876.435021
20
-550.902239
11
2876.735021
21
-551.202239
0
LINE
5
7bb
100
AcDbEntity
8
1
100
AcDbLine
6
DOT2
62
6
10
2869.455517
20
-543.639892
11
2869.755517
21
-543.939892
0
LINE
5
7bc
100
AcDbEntity
8
1
100
AcDbLine
6
DOT2
62
6
10
2876.717864
20
-550.902239
11
2877.017864
21
-551.202239
0
LINE
5
7bd
100
AcDbEntity
8
1
100
AcDbLine
6
DOT2
62
6
10
2869.455517
20
-543.357049
11
2869.755517
21
-543.657049
0
LINE
5
7be
100
AcDbEntity
8
1
100
AcDbLine
6
DOT2
62
6
10
2876.755517
20
-550.657049
11
2877.055517
21
-550.957049
0
LINE
5
7bf
100
AcDbEntity
8
1
100
AcDbLine
6
DOT2
62
6
10
2869.455517
20
-543.074207
11
2869.755517
21
-543.374207
0
LINE
5
7c0
100
AcDbEntity
8
1
100
AcDbLine
6
DOT2
62
6
10
2876.755517
20
-550.374207
11
2877.055517
21
-550.674207
0
LINE
5
7c1
100
AcDbEntity
8
1
100
AcDbLine
6
DOT2
62
6
10
2869.455517
20
-542.791364
11
2869.755517
21
-543.091364
0
LINE
5
7c2
100
AcDbEntity
8
1
100
AcDbLine
6
DOT2
62
6
10
2876.755517
20
-550.091364
11
2877.055517
21
-550.391364
0
LINE
5
7c3
100
AcDbEntity
8
1
100
AcDbLine
6
DOT2
62
6
10
2869.455517
20
-542.508521
11
2869.755517
21
-542.808521
0
LINE
5
7c4
100
AcDbEntity
8
1
100
AcDbLine
6
DOT2
62
6
10
2876.755517
20
-549.808521
11
2877.055517
21
-550.108521
0
LINE
5
7c5
100
AcDbEntity
8
1
100
AcDbLine
6
DOT2
62
6
10
2869.455517
20
-542.225679
11
2869.755517
21
-542.525679
0
LINE
5
7c6
100
AcDbEntity
8
1
100
AcDbLine
6
DOT2
62
6
10
2876.755517
20
-549.525679
11
2877.055517
21
-549.825679
0
LINE
5
7c7
100
AcDbEntity
8
1
100
AcDbLine
6
DOT2
62
6
10
2869.455517
20
-541.942836
11
2869.755517
21
-542.242836
0
LINE
5
7c8
100
AcDbEntity
8
1
100
AcDbLine
6
DOT2
62
6
10
2876.755517
20
-549.242836
11
2877.055517
21
-549.542836
0
LINE
5
7c9
100
AcDbEntity
8
1
100
AcDbLine
6
DOT2
62
6
10
2869.455517
20
-541.659993
11
2869.755517
21
-541.959993
0
LINE
5
7ca
100
AcDbEntity
8
1
100
AcDbLine
6
DOT2
62
6
10
2876.755517
20
-548.959993
11
2877.055517
21
-549.259993
0
LINE
5
7cb
100
AcDbEntity
8
1
100
AcDbLine
6
DOT2
62
6
10
2869.455517
20
-541.377150
11
2869.755517
21
-541.677150
0
LINE
5
7cc
100
AcDbEntity
8
1
100
AcDbLine
6
DOT2
62
6
10
2876.755517
20
-548.677150
11
2877.055517
21
-548.977150
0
LINE
5
7cd
100
AcDbEntity
8
1
100
AcDbLine
6
DOT2
62
6
10
2869.455517
20
-541.094308
11
2869.755517
21
-541.394308
0
LINE
5
7ce
100
AcDbEntity
8
1
100
AcDbLine
6
DOT2
62
6
10
2876.755517
20
-548.394308
11
2877.055517
21
-548.694308
0
LINE
5
7cf
100
AcDbEntity
8
1
100
AcDbLine
6
DOT2
62
6
10
2869.455517
20
-540.811465
11
2869.755517
21
-541.111465
0
LINE
5
7d0
100
AcDbEntity
8
1
100
AcDbLine
6
DOT2
62
6
10
2876.755517
20
-548.111465
11
2877.055517
21
-548.411465
0
LINE
5
7d1
100
AcDbEntity
8
1
100
AcDbLine
6
DOT2
62
6
10
2869.455517
20
-540.528622
11
2869.755517
21
-540.828622
0
LINE
5
7d2
100
AcDbEntity
8
1
100
AcDbLine
6
DOT2
62
6
10
2876.755517
20
-547.828622
11
2877.055517
21
-548.128622
0
LINE
5
7d3
100
AcDbEntity
8
1
100
AcDbLine
6
DOT2
62
6
10
2869.455517
20
-540.245780
11
2869.755517
21
-540.545780
0
LINE
5
7d4
100
AcDbEntity
8
1
100
AcDbLine
6
DOT2
62
6
10
2876.755517
20
-547.545780
11
2877.055517
21
-547.845780
0
LINE
5
7d5
100
AcDbEntity
8
1
100
AcDbLine
6
DOT2
62
6
10
2869.455517
20
-539.962937
11
2869.755517
21
-540.262937
0
LINE
5
7d6
100
AcDbEntity
8
1
100
AcDbLine
6
DOT2
62
6
10
2876.755517
20
-547.262937
11
2877.055517
21
-547.562937
0
LINE
5
7d7
100
AcDbEntity
8
1
100
AcDbLine
6
DOT2
62
6
10
2869.455517
20
-539.680094
11
2869.755517
21
-539.980094
0
LINE
5
7d8
100
AcDbEntity
8
1
100
AcDbLine
6
DOT2
62
6
10
2876.755517
20
-546.980094
11
2877.055517
21
-547.280094
0
LINE
5
7d9
100
AcDbEntity
8
1
100
AcDbLine
6
DOT2
62
6
10
2869.455517
20
-539.397251
11
2869.755517
21
-539.697251
0
LINE
5
7da
100
AcDbEntity
8
1
100
AcDbLine
6
DOT2
62
6
10
2876.755517
20
-546.697251
11
2877.055517
21
-546.997251
0
LINE
5
7db
100
AcDbEntity
8
1
100
AcDbLine
6
DOT2
62
6
10
2869.455517
20
-539.114409
11
2869.755517
21
-539.414409
0
LINE
5
7dc
100
AcDbEntity
8
1
100
AcDbLine
6
DOT2
62
6
10
2876.755517
20
-546.414409
11
2877.055517
21
-546.714409
0
LINE
5
7dd
100
AcDbEntity
8
1
100
AcDbLine
6
DOT2
62
6
10
2869.455517
20
-538.831566
11
2869.755517
21
-539.131566
0
LINE
5
7de
100
AcDbEntity
8
1
100
AcDbLine
6
DOT2
62
6
10
2876.755517
20
-546.131566
11
2877.055517
21
-546.431566
0
LINE
5
7df
100
AcDbEntity
8
1
100
AcDbLine
6
DOT2
62
6
10
2869.455517
20
-538.548723
11
2869.755517
21
-538.848723
0
LINE
5
7e0
100
AcDbEntity
8
1
100
AcDbLine
6
DOT2
62
6
10
2876.755517
20
-545.848723
11
2877.055517
21
-546.148723
0
LINE
5
7e1
100
AcDbEntity
8
1
100
AcDbLine
6
DOT2
62
6
10
2869.455517
20
-538.265881
11
2869.755517
21
-538.565881
0
LINE
5
7e2
100
AcDbEntity
8
1
100
AcDbLine
6
DOT2
62
6
10
2876.755517
20
-545.565881
11
2877.055517
21
-545.865881
0
LINE
5
7e3
100
AcDbEntity
8
1
100
AcDbLine
6
DOT2
62
6
10
2869.455517
20
-537.983038
11
2869.755517
21
-538.283038
0
LINE
5
7e4
100
AcDbEntity
8
1
100
AcDbLine
6
DOT2
62
6
10
2876.755517
20
-545.283038
11
2877.055517
21
-545.583038
0
LINE
5
7e5
100
AcDbEntity
8
1
100
AcDbLine
6
DOT2
62
6
10
2869.455517
20
-537.700195
11
2869.755517
21
-538.000195
0
LINE
5
7e6
100
AcDbEntity
8
1
100
AcDbLine
6
DOT2
62
6
10
2876.755517
20
-545.000195
11
2877.055517
21
-545.300195
0
LINE
5
7e7
100
AcDbEntity
8
1
100
AcDbLine
6
DOT2
62
6
10
2869.455517
20
-537.417352
11
2869.755517
21
-537.717352
0
LINE
5
7e8
100
AcDbEntity
8
1
100
AcDbLine
6
DOT2
62
6
10
2876.755517
20
-544.717352
11
2877.055517
21
-545.017352
0
LINE
5
7e9
100
AcDbEntity
8
1
100
AcDbLine
6
DOT2
62
6
10
2869.455517
20
-537.134510
11
2869.755517
21
-537.434510
0
LINE
5
7ea
100
AcDbEntity
8
1
100
AcDbLine
6
DOT2
62
6
10
2876.755517
20
-544.434510
11
2877.055517
21
-544.734510
0
LINE
5
7eb
100
AcDbEntity
8
1
100
AcDbLine
6
DOT2
62
6
10
2869.455517
20
-536.851667
11
2869.755517
21
-537.151667
0
LINE
5
7ec
100
AcDbEntity
8
1
100
AcDbLine
6
DOT2
62
6
10
2876.755517
20
-544.151667
11
2877.055517
21
-544.451667
0
LINE
5
7ed
100
AcDbEntity
8
1
100
AcDbLine
6
DOT2
62
6
10
2869.455517
20
-536.253584
11
2869.506862
21
-536.202239
0
LINE
5
7ee
100
AcDbEntity
8
1
100
AcDbLine
6
DOT2
62
6
10
2876.755517
20
-536.873180
11
2877.055517
21
-536.573180
0
LINE
5
7ef
100
AcDbEntity
8
1
100
AcDbLine
6
DOT2
62
6
10
2869.455517
20
-543.890337
11
2869.755517
21
-543.590337
0
LINE
5
7f0
100
AcDbEntity
8
1
100
AcDbLine
6
DOT2
62
6
10
2876.755517
20
-536.590337
11
2877.055517
21
-536.290337
0
LINE
5
7f1
100
AcDbEntity
8
1
100
AcDbLine
6
DOT2
62
6
10
2869.455517
20
-543.607495
11
2869.755517
21
-543.307495
0
LINE
5
7f2
100
AcDbEntity
8
1
100
AcDbLine
6
DOT2
62
6
10
2876.560773
20
-536.502239
11
2876.860773
21
-536.202239
0
LINE
5
7f3
100
AcDbEntity
8
1
100
AcDbLine
6
DOT2
62
6
10
2869.455517
20
-543.324652
11
2869.755517
21
-543.024652
0
LINE
5
7f4
100
AcDbEntity
8
1
100
AcDbLine
6
DOT2
62
6
10
2876.277930
20
-536.502239
11
2876.577930
21
-536.202239
0
LINE
5
7f5
100
AcDbEntity
8
1
100
AcDbLine
6
DOT2
62
6
10
2869.455517
20
-543.041809
11
2869.755517
21
-542.741809
0
LINE
5
7f6
100
AcDbEntity
8
1
100
AcDbLine
6
DOT2
62
6
10
2875.995087
20
-536.502239
11
2876.295087
21
-536.202239
0
LINE
5
7f7
100
AcDbEntity
8
1
100
AcDbLine
6
DOT2
62
6
10
2869.455517
20
-542.758966
11
2869.755517
21
-542.458966
0
LINE
5
7f8
100
AcDbEntity
8
1
100
AcDbLine
6
DOT2
62
6
10
2875.712244
20
-536.502239
11
2876.012244
21
-536.202239
0
LINE
5
7f9
100
AcDbEntity
8
1
100
AcDbLine
6
DOT2
62
6
10
2869.455517
20
-542.476124
11
2869.755517
21
-542.176124
0
LINE
5
7fa
100
AcDbEntity
8
1
100
AcDbLine
6
DOT2
62
6
10
2875.429402
20
-536.502239
11
2875.729402
21
-536.202239
0
LINE
5
7fb
100
AcDbEntity
8
1
100
AcDbLine
6
DOT2
62
6
10
2869.455517
20
-542.193281
11
2869.755517
21
-541.893281
0
LINE
5
7fc
100
AcDbEntity
8
1
100
AcDbLine
6
DOT2
62
6
10
2875.146559
20
-536.502239
11
2875.446559
21
-536.202239
0
LINE
5
7fd
100
AcDbEntity
8
1
100
AcDbLine
6
DOT2
62
6
10
2869.455517
20
-541.910438
11
2869.755517
21
-541.610438
0
LINE
5
7fe
100
AcDbEntity
8
1
100
AcDbLine
6
DOT2
62
6
10
2874.863716
20
-536.502239
11
2875.163716
21
-536.202239
0
LINE
5
7ff
100
AcDbEntity
8
1
100
AcDbLine
6
DOT2
62
6
10
2869.455517
20
-541.627596
11
2869.755517
21
-541.327596
0
LINE
5
800
100
AcDbEntity
8
1
100
AcDbLine
6
DOT2
62
6
10
2874.580874
20
-536.502239
11
2874.880874
21
-536.202239
0
LINE
5
801
100
AcDbEntity
8
1
100
AcDbLine
6
DOT2
62
6
10
2869.455517
20
-541.344753
11
2869.755517
21
-541.044753
0
LINE
5
802
100
AcDbEntity
8
1
100
AcDbLine
6
DOT2
62
6
10
2874.298031
20
-536.502239
11
2874.598031
21
-536.202239
0
LINE
5
803
100
AcDbEntity
8
1
100
AcDbLine
6
DOT2
62
6
10
2869.455517
20
-541.061910
11
2869.755517
21
-540.761910
0
LINE
5
804
100
AcDbEntity
8
1
100
AcDbLine
6
DOT2
62
6
10
2874.015188
20
-536.502239
11
2874.315188
21
-536.202239
0
LINE
5
805
100
AcDbEntity
8
1
100
AcDbLine
6
DOT2
62
6
10
2869.455517
20
-540.779067
11
2869.755517
21
-540.479067
0
LINE
5
806
100
AcDbEntity
8
1
100
AcDbLine
6
DOT2
62
6
10
2873.732345
20
-536.502239
11
2874.032345
21
-536.202239
0
LINE
5
807
100
AcDbEntity
8
1
100
AcDbLine
6
DOT2
62
6
10
2869.455517
20
-540.496225
11
2869.755517
21
-540.196225
0
LINE
5
808
100
AcDbEntity
8
1
100
AcDbLine
6
DOT2
62
6
10
2873.449503
20
-536.502239
11
2873.749503
21
-536.202239
0
LINE
5
809
100
AcDbEntity
8
1
100
AcDbLine
6
DOT2
62
6
10
2869.455517
20
-540.213382
11
2869.755517
21
-539.913382
0
LINE
5
80a
100
AcDbEntity
8
1
100
AcDbLine
6
DOT2
62
6
10
2873.166660
20
-536.502239
11
2873.466660
21
-536.202239
0
LINE
5
80b
100
AcDbEntity
8
1
100
AcDbLine
6
DOT2
62
6
10
2869.455517
20
-539.930539
11
2869.755517
21
-539.630539
0
LINE
5
80c
100
AcDbEntity
8
1
100
AcDbLine
6
DOT2
62
6
10
2872.883817
20
-536.502239
11
2873.183817
21
-536.202239
0
LINE
5
80d
100
AcDbEntity
8
1
100
AcDbLine
6
DOT2
62
6
10
2869.455517
20
-539.647697
11
2869.755517
21
-539.347697
0
LINE
5
80e
100
AcDbEntity
8
1
100
AcDbLine
6
DOT2
62
6
10
2872.600975
20
-536.502239
11
2872.900975
21
-536.202239
0
LINE
5
80f
100
AcDbEntity
8
1
100
AcDbLine
6
DOT2
62
6
10
2869.455517
20
-539.364854
11
2869.755517
21
-539.064854
0
LINE
5
810
100
AcDbEntity
8
1
100
AcDbLine
6
DOT2
62
6
10
2872.318132
20
-536.502239
11
2872.618132
21
-536.202239
0
LINE
5
811
100
AcDbEntity
8
1
100
AcDbLine
6
DOT2
62
6
10
2869.455517
20
-539.082011
11
2869.755517
21
-538.782011
0
LINE
5
812
100
AcDbEntity
8
1
100
AcDbLine
6
DOT2
62
6
10
2872.035289
20
-536.502239
11
2872.335289
21
-536.202239
0
LINE
5
813
100
AcDbEntity
8
1
100
AcDbLine
6
DOT2
62
6
10
2869.455517
20
-538.799168
11
2869.755517
21
-538.499168
0
LINE
5
814
100
AcDbEntity
8
1
100
AcDbLine
6
DOT2
62
6
10
2871.752446
20
-536.502239
11
2872.052446
21
-536.202239
0
LINE
5
815
100
AcDbEntity
8
1
100
AcDbLine
6
DOT2
62
6
10
2869.455517
20
-538.516326
11
2869.755517
21
-538.216326
0
LINE
5
816
100
AcDbEntity
8
1
100
AcDbLine
6
DOT2
62
6
10
2871.469604
20
-536.502239
11
2871.769604
21
-536.202239
0
LINE
5
817
100
AcDbEntity
8
1
100
AcDbLine
6
DOT2
62
6
10
2869.455517
20
-538.233483
11
2869.755517
21
-537.933483
0
LINE
5
818
100
AcDbEntity
8
1
100
AcDbLine
6
DOT2
62
6
10
2871.186761
20
-536.502239
11
2871.486761
21
-536.202239
0
LINE
5
819
100
AcDbEntity
8
1
100
AcDbLine
6
DOT2
62
6
10
2869.455517
20
-537.950640
11
2869.755517
21
-537.650640
0
LINE
5
81a
100
AcDbEntity
8
1
100
AcDbLine
6
DOT2
62
6
10
2870.903918
20
-536.502239
11
2871.203918
21
-536.202239
0
LINE
5
81b
100
AcDbEntity
8
1
100
AcDbLine
6
DOT2
62
6
10
2869.455517
20
-537.667798
11
2869.755517
21
-537.367798
0
LINE
5
81c
100
AcDbEntity
8
1
100
AcDbLine
6
DOT2
62
6
10
2870.621076
20
-536.502239
11
2870.921076
21
-536.202239
0
LINE
5
81d
100
AcDbEntity
8
1
100
AcDbLine
6
DOT2
62
6
10
2869.455517
20
-537.384955
11
2869.755517
21
-537.084955
0
LINE
5
81e
100
AcDbEntity
8
1
100
AcDbLine
6
DOT2
62
6
10
2870.338233
20
-536.502239
11
2870.638233
21
-536.202239
0
LINE
5
81f
100
AcDbEntity
8
1
100
AcDbLine
6
DOT2
62
6
10
2869.455517
20
-537.102112
11
2869.755517
21
-536.802112
0
LINE
5
820
100
AcDbEntity
8
1
100
AcDbLine
6
DOT2
62
6
10
2870.055390
20
-536.502239
11
2870.355390
21
-536.202239
0
LINE
5
821
100
AcDbEntity
8
1
100
AcDbLine
6
DOT2
62
6
10
2869.455517
20
-536.819270
11
2869.755517
21
-536.519270
0
LINE
5
822
100
AcDbEntity
8
1
100
AcDbLine
6
DOT2
62
6
10
2869.772547
20
-536.502239
11
2870.072547
21
-536.202239
0
LINE
5
823
100
AcDbEntity
8
1
100
AcDbLine
6
DOT2
62
6
10
2869.455517
20
-536.536427
11
2869.789705
21
-536.202239
0
LINE
5
824
100
AcDbEntity
8
1
100
AcDbLine
6
DOT2
62
6
10
2869.455517
20
-544.173180
11
2869.755517
21
-543.873180
0
LINE
5
825
100
AcDbEntity
8
1
100
AcDbLine
6
DOT2
62
6
10
2876.851436
20
-551.202239
11
2877.055517
21
-550.998158
0
LINE
5
826
100
AcDbEntity
8
1
100
AcDbLine
6
DOT2
62
6
10
2876.568594
20
-551.202239
11
2877.055517
21
-550.715316
0
LINE
5
827
100
AcDbEntity
8
1
100
AcDbLine
6
DOT2
62
6
10
2876.285751
20
-551.202239
11
2876.585751
21
-550.902239
0
LINE
5
828
100
AcDbEntity
8
1
100
AcDbLine
6
DOT2
62
6
10
2876.755517
20
-550.732473
11
2877.055517
21
-550.432473
0
LINE
5
829
100
AcDbEntity
8
1
100
AcDbLine
6
DOT2
62
6
10
2876.002908
20
-551.202239
11
2876.302908
21
-550.902239
0
LINE
5
82a
100
AcDbEntity
8
1
100
AcDbLine
6
DOT2
62
6
10
2876.755517
20
-550.449630
11
2877.055517
21
-550.149630
0
LINE
5
82b
100
AcDbEntity
8
1
100
AcDbLine
6
DOT2
62
6
10
2875.720066
20
-551.202239
11
2876.020066
21
-550.902239
0
LINE
5
82c
100
AcDbEntity
8
1
100
AcDbLine
6
DOT2
62
6
10
2876.755517
20
-550.166788
11
2877.055517
21
-549.866788
0
LINE
5
82d
100
AcDbEntity
8
1
100
AcDbLine
6
DOT2
62
6
10
2875.437223
20
-551.202239
11
2875.737223
21
-550.902239
0
LINE
5
82e
100
AcDbEntity
8
1
100
AcDbLine
6
DOT2
62
6
10
2876.755517
20
-549.883945
11
2877.055517
21
-549.583945
0
LINE
5
82f
100
AcDbEntity
8
1
100
AcDbLine
6
DOT2
62
6
10
2875.154380
20
-551.202239
11
2875.454380
21
-550.902239
0
LINE
5
830
100
AcDbEntity
8
1
100
AcDbLine
6
DOT2
62
6
10
2876.755517
20
-549.601102
11
2877.055517
21
-549.301102
0
LINE
5
831
100
AcDbEntity
8
1
100
AcDbLine
6
DOT2
62
6
10
2874.871537
20
-551.202239
11
2875.171537
21
-550.902239
0
LINE
5
832
100
AcDbEntity
8
1
100
AcDbLine
6
DOT2
62
6
10
2876.755517
20
-549.318259
11
2877.055517
21
-549.018259
0
LINE
5
833
100
AcDbEntity
8
1
100
AcDbLine
6
DOT2
62
6
10
2874.588695
20
-551.202239
11
2874.888695
21
-550.902239
0
LINE
5
834
100
AcDbEntity
8
1
100
AcDbLine
6
DOT2
62
6
10
2876.755517
20
-549.035417
11
2877.055517
21
-548.735417
0
LINE
5
835
100
AcDbEntity
8
1
100
AcDbLine
6
DOT2
62
6
10
2874.305852
20
-551.202239
11
2874.605852
21
-550.902239
0
LINE
5
836
100
AcDbEntity
8
1
100
AcDbLine
6
DOT2
62
6
10
2876.755517
20
-548.752574
11
2877.055517
21
-548.452574
0
LINE
5
837
100
AcDbEntity
8
1
100
AcDbLine
6
DOT2
62
6
10
2874.023009
20
-551.202239
11
2874.323009
21
-550.902239
0
LINE
5
838
100
AcDbEntity
8
1
100
AcDbLine
6
DOT2
62
6
10
2876.755517
20
-548.469731
11
2877.055517
21
-548.169731
0
LINE
5
839
100
AcDbEntity
8
1
100
AcDbLine
6
DOT2
62
6
10
2873.740167
20
-551.202239
11
2874.040167
21
-550.902239
0
LINE
5
83a
100
AcDbEntity
8
1
100
AcDbLine
6
DOT2
62
6
10
2876.755517
20
-548.186889
11
2877.055517
21
-547.886889
0
LINE
5
83b
100
AcDbEntity
8
1
100
AcDbLine
6
DOT2
62
6
10
2873.457324
20
-551.202239
11
2873.757324
21
-550.902239
0
LINE
5
83c
100
AcDbEntity
8
1
100
AcDbLine
6
DOT2
62
6
10
2876.755517
20
-547.904046
11
2877.055517
21
-547.604046
0
LINE
5
83d
100
AcDbEntity
8
1
100
AcDbLine
6
DOT2
62
6
10
2873.174481
20
-551.202239
11
2873.474481
21
-550.902239
0
LINE
5
83e
100
AcDbEntity
8
1
100
AcDbLine
6
DOT2
62
6
10
2876.755517
20
-547.621203
11
2877.055517
21
-547.321203
0
LINE
5
83f
100
AcDbEntity
8
1
100
AcDbLine
6
DOT2
62
6
10
2872.891638
20
-551.202239
11
2873.191638
21
-550.902239
0
LINE
5
840
100
AcDbEntity
8
1
100
AcDbLine
6
DOT2
62
6
10
2876.755517
20
-547.338360
11
2877.055517
21
-547.038360
0
LINE
5
841
100
AcDbEntity
8
1
100
AcDbLine
6
DOT2
62
6
10
2872.608796
20
-551.202239
11
2872.908796
21
-550.902239
0
LINE
5
842
100
AcDbEntity
8
1
100
AcDbLine
6
DOT2
62
6
10
2876.755517
20
-547.055518
11
2877.055517
21
-546.755518
0
LINE
5
843
100
AcDbEntity
8
1
100
AcDbLine
6
DOT2
62
6
10
2872.325953
20
-551.202239
11
2872.625953
21
-550.902239
0
LINE
5
844
100
AcDbEntity
8
1
100
AcDbLine
6
DOT2
62
6
10
2876.755517
20
-546.772675
11
2877.055517
21
-546.472675
0
LINE
5
845
100
AcDbEntity
8
1
100
AcDbLine
6
DOT2
62
6
10
2872.043110
20
-551.202239
11
2872.343110
21
-550.902239
0
LINE
5
846
100
AcDbEntity
8
1
100
AcDbLine
6
DOT2
62
6
10
2876.755517
20
-546.489832
11
2877.055517
21
-546.189832
0
LINE
5
847
100
AcDbEntity
8
1
100
AcDbLine
6
DOT2
62
6
10
2871.760268
20
-551.202239
11
2872.060268
21
-550.902239
0
LINE
5
848
100
AcDbEntity
8
1
100
AcDbLine
6
DOT2
62
6
10
2876.755517
20
-546.206990
11
2877.055517
21
-545.906990
0
LINE
5
849
100
AcDbEntity
8
1
100
AcDbLine
6
DOT2
62
6
10
2871.477425
20
-551.202239
11
2871.777425
21
-550.902239
0
LINE
5
84a
100
AcDbEntity
8
1
100
AcDbLine
6
DOT2
62
6
10
2876.755517
20
-545.924147
11
2877.055517
21
-545.624147
0
LINE
5
84b
100
AcDbEntity
8
1
100
AcDbLine
6
DOT2
62
6
10
2871.194582
20
-551.202239
11
2871.494582
21
-550.902239
0
LINE
5
84c
100
AcDbEntity
8
1
100
AcDbLine
6
DOT2
62
6
10
2876.755517
20
-545.641304
11
2877.055517
21
-545.341304
0
LINE
5
84d
100
AcDbEntity
8
1
100
AcDbLine
6
DOT2
62
6
10
2870.911739
20
-551.202239
11
2871.211739
21
-550.902239
0
LINE
5
84e
100
AcDbEntity
8
1
100
AcDbLine
6
DOT2
62
6
10
2876.755517
20
-545.358461
11
2877.055517
21
-545.058461
0
LINE
5
84f
100
AcDbEntity
8
1
100
AcDbLine
6
DOT2
62
6
10
2870.628897
20
-551.202239
11
2870.928897
21
-550.902239
0
LINE
5
850
100
AcDbEntity
8
1
100
AcDbLine
6
DOT2
62
6
10
2876.755517
20
-545.075619
11
2877.055517
21
-544.775619
0
LINE
5
851
100
AcDbEntity
8
1
100
AcDbLine
6
DOT2
62
6
10
2870.346054
20
-551.202239
11
2870.646054
21
-550.902239
0
LINE
5
852
100
AcDbEntity
8
1
100
AcDbLine
6
DOT2
62
6
10
2876.755517
20
-544.792776
11
2877.055517
21
-544.492776
0
LINE
5
853
100
AcDbEntity
8
1
100
AcDbLine
6
DOT2
62
6
10
2870.063211
20
-551.202239
11
2870.363211
21
-550.902239
0
LINE
5
854
100
AcDbEntity
8
1
100
AcDbLine
6
DOT2
62
6
10
2876.755517
20
-544.509933
11
2877.055517
21
-544.209933
0
LINE
5
855
100
AcDbEntity
8
1
100
AcDbLine
6
DOT2
62
6
10
2869.780369
20
-551.202239
11
2870.080369
21
-550.902239
0
LINE
5
856
100
AcDbEntity
8
1
100
AcDbLine
6
DOT2
62
6
10
2876.755517
20
-544.227091
11
2877.055517
21
-543.927091
0
LINE
5
857
100
AcDbEntity
8
1
100
AcDbLine
6
DOT2
62
6
10
2869.497526
20
-551.202239
11
2869.797526
21
-550.902239
0
LINE
5
858
100
AcDbEntity
8
1
100
AcDbLine
6
DOT2
62
6
10
2876.755517
20
-543.944248
11
2877.055517
21
-543.644248
0
LINE
5
859
100
AcDbEntity
8
1
100
AcDbLine
6
DOT2
62
6
10
2869.455517
20
-550.961405
11
2869.755517
21
-550.661405
0
LINE
5
85a
100
AcDbEntity
8
1
100
AcDbLine
6
DOT2
62
6
10
2876.755517
20
-543.661405
11
2877.055517
21
-543.361405
0
LINE
5
85b
100
AcDbEntity
8
1
100
AcDbLine
6
DOT2
62
6
10
2869.455517
20
-550.678562
11
2869.755517
21
-550.378562
0
LINE
5
85c
100
AcDbEntity
8
1
100
AcDbLine
6
DOT2
62
6
10
2876.755517
20
-543.378562
11
2877.055517
21
-543.078562
0
LINE
5
85d
100
AcDbEntity
8
1
100
AcDbLine
6
DOT2
62
6
10
2869.455517
20
-550.395720
11
2869.755517
21
-550.095720
0
LINE
5
85e
100
AcDbEntity
8
1
100
AcDbLine
6
DOT2
62
6
10
2876.755517
20
-543.095720
11
2877.055517
21
-542.795720
0
LINE
5
85f
100
AcDbEntity
8
1
100
AcDbLine
6
DOT2
62
6
10
2869.455517
20
-550.112877
11
2869.755517
21
-549.812877
0
LINE
5
860
100
AcDbEntity
8
1
100
AcDbLine
6
DOT2
62
6
10
2876.755517
20
-542.812877
11
2877.055517
21
-542.512877
0
LINE
5
861
100
AcDbEntity
8
1
100
AcDbLine
6
DOT2
62
6
10
2869.455517
20
-549.830034
11
2869.755517
21
-549.530034
0
LINE
5
862
100
AcDbEntity
8
1
100
AcDbLine
6
DOT2
62
6
10
2876.755517
20
-542.530034
11
2877.055517
21
-542.230034
0
LINE
5
863
100
AcDbEntity
8
1
100
AcDbLine
6
DOT2
62
6
10
2869.455517
20
-549.547192
11
2869.755517
21
-549.247192
0
LINE
5
864
100
AcDbEntity
8
1
100
AcDbLine
6
DOT2
62
6
10
2876.755517
20
-542.247192
11
2877.055517
21
-541.947192
0
LINE
5
865
100
AcDbEntity
8
1
100
AcDbLine
6
DOT2
62
6
10
2869.455517
20
-549.264349
11
2869.755517
21
-548.964349
0
LINE
5
866
100
AcDbEntity
8
1
100
AcDbLine
6
DOT2
62
6
10
2876.755517
20
-541.964349
11
2877.055517
21
-541.664349
0
LINE
5
867
100
AcDbEntity
8
1
100
AcDbLine
6
DOT2
62
6
10
2869.455517
20
-548.981506
11
2869.755517
21
-548.681506
0
LINE
5
868
100
AcDbEntity
8
1
100
AcDbLine
6
DOT2
62
6
10
2876.755517
20
-541.681506
11
2877.055517
21
-541.381506
0
LINE
5
869
100
AcDbEntity
8
1
100
AcDbLine
6
DOT2
62
6
10
2869.455517
20
-548.698663
11
2869.755517
21
-548.398663
0
LINE
5
86a
100
AcDbEntity
8
1
100
AcDbLine
6
DOT2
62
6
10
2876.755517
20
-541.398663
11
2877.055517
21
-541.098663
0
LINE
5
86b
100
AcDbEntity
8
1
100
AcDbLine
6
DOT2
62
6
10
2869.455517
20
-548.415821
11
2869.755517
21
-548.115821
0
LINE
5
86c
100
AcDbEntity
8
1
100
AcDbLine
6
DOT2
62
6
10
2876.755517
20
-541.115821
11
2877.055517
21
-540.815821
0
LINE
5
86d
100
AcDbEntity
8
1
100
AcDbLine
6
DOT2
62
6
10
2869.455517
20
-548.132978
11
2869.755517
21
-547.832978
0
LINE
5
86e
100
AcDbEntity
8
1
100
AcDbLine
6
DOT2
62
6
10
2876.755517
20
-540.832978
11
2877.055517
21
-540.532978
0
LINE
5
86f
100
AcDbEntity
8
1
100
AcDbLine
6
DOT2
62
6
10
2869.455517
20
-547.850135
11
2869.755517
21
-547.550135
0
LINE
5
870
100
AcDbEntity
8
1
100
AcDbLine
6
DOT2
62
6
10
2876.755517
20
-540.550135
11
2877.055517
21
-540.250135
0
LINE
5
871
100
AcDbEntity
8
1
100
AcDbLine
6
DOT2
62
6
10
2869.455517
20
-547.567293
11
2869.755517
21
-547.267293
0
LINE
5
872
100
AcDbEntity
8
1
100
AcDbLine
6
DOT2
62
6
10
2876.755517
20
-540.267293
11
2877.055517
21
-539.967293
0
LINE
5
873
100
AcDbEntity
8
1
100
AcDbLine
6
DOT2
62
6
10
2869.455517
20
-547.284450
11
2869.755517
21
-546.984450
0
LINE
5
874
100
AcDbEntity
8
1
100
AcDbLine
6
DOT2
62
6
10
2876.755517
20
-539.984450
11
2877.055517
21
-539.684450
0
LINE
5
875
100
AcDbEntity
8
1
100
AcDbLine
6
DOT2
62
6
10
2869.455517
20
-547.001607
11
2869.755517
21
-546.701607
0
LINE
5
876
100
AcDbEntity
8
1
100
AcDbLine
6
DOT2
62
6
10
2876.755517
20
-539.701607
11
2877.055517
21
-539.401607
0
LINE
5
877
100
AcDbEntity
8
1
100
AcDbLine
6
DOT2
62
6
10
2869.455517
20
-546.718764
11
2869.755517
21
-546.418764
0
LINE
5
878
100
AcDbEntity
8
1
100
AcDbLine
6
DOT2
62
6
10
2876.755517
20
-539.418764
11
2877.055517
21
-539.118764
0
LINE
5
879
100
AcDbEntity
8
1
100
AcDbLine
6
DOT2
62
6
10
2869.455517
20
-546.435922
11
2869.755517
21
-546.135922
0
LINE
5
87a
100
AcDbEntity
8
1
100
AcDbLine
6
DOT2
62
6
10
2876.755517
20
-539.135922
11
2877.055517
21
-538.835922
0
LINE
5
87b
100
AcDbEntity
8
1
100
AcDbLine
6
DOT2
62
6
10
2869.455517
20
-546.153079
11
2869.755517
21
-545.853079
0
LINE
5
87c
100
AcDbEntity
8
1
100
AcDbLine
6
DOT2
62
6
10
2876.755517
20
-538.853079
11
2877.055517
21
-538.553079
0
LINE
5
87d
100
AcDbEntity
8
1
100
AcDbLine
6
DOT2
62
6
10
2869.455517
20
-545.870236
11
2869.755517
21
-545.570236
0
LINE
5
87e
100
AcDbEntity
8
1
100
AcDbLine
6
DOT2
62
6
10
2876.755517
20
-538.570236
11
2877.055517
21
-538.270236
0
LINE
5
87f
100
AcDbEntity
8
1
100
AcDbLine
6
DOT2
62
6
10
2869.455517
20
-545.587394
11
2869.755517
21
-545.287394
0
LINE
5
880
100
AcDbEntity
8
1
100
AcDbLine
6
DOT2
62
6
10
2876.755517
20
-538.287394
11
2877.055517
21
-537.987394
0
LINE
5
881
100
AcDbEntity
8
1
100
AcDbLine
6
DOT2
62
6
10
2869.455517
20
-545.304551
11
2869.755517
21
-545.004551
0
LINE
5
882
100
AcDbEntity
8
1
100
AcDbLine
6
DOT2
62
6
10
2876.755517
20
-538.004551
11
2877.055517
21
-537.704551
0
LINE
5
883
100
AcDbEntity
8
1
100
AcDbLine
6
DOT2
62
6
10
2869.455517
20
-545.021708
11
2869.755517
21
-544.721708
0
LINE
5
884
100
AcDbEntity
8
1
100
AcDbLine
6
DOT2
62
6
10
2876.755517
20
-537.721708
11
2877.055517
21
-537.421708
0
LINE
5
885
100
AcDbEntity
8
1
100
AcDbLine
6
DOT2
62
6
10
2869.455517
20
-544.738865
11
2869.755517
21
-544.438865
0
LINE
5
886
100
AcDbEntity
8
1
100
AcDbLine
6
DOT2
62
6
10
2876.755517
20
-537.438865
11
2877.055517
21
-537.138865
0
LINE
5
887
100
AcDbEntity
8
1
100
AcDbLine
6
DOT2
62
6
10
2869.455517
20
-544.456023
11
2869.755517
21
-544.156023
0
LINE
5
888
100
AcDbEntity
8
1
100
AcDbLine
6
DOT2
62
6
10
2876.755517
20
-537.156023
11
2877.055517
21
-536.856023
0
LINE
5
889
100
AcDbEntity
8
1
100
AcDbLine
6
DOT2
62
6
10
2871.323310
20
-544.285286
11
2871.416858
21
-544.191738
0
LINE
5
88a
100
AcDbEntity
8
1
100
AcDbLine
6
DOT2
62
6
10
2874.841453
20
-545.575469
11
2875.147885
21
-545.269037
0
LINE
5
88b
100
AcDbEntity
8
1
100
AcDbLine
6
DOT2
62
6
10
2874.617251
20
-545.516829
11
2874.894502
21
-545.239577
0
LINE
5
88c
100
AcDbEntity
8
1
100
AcDbLine
6
DOT2
62
6
10
2874.409938
20
-545.441298
11
2874.663109
21
-545.188127
0
LINE
5
88d
100
AcDbEntity
8
1
100
AcDbLine
6
DOT2
62
6
10
2874.217470
20
-545.350924
11
2874.449848
21
-545.118546
0
LINE
5
88e
100
AcDbEntity
8
1
100
AcDbLine
6
DOT2
62
6
10
2874.038484
20
-545.247067
11
2874.252270
21
-545.033281
0
LINE
5
88f
100
AcDbEntity
8
1
100
AcDbLine
6
DOT2
62
6
10
2874.568658
20
-544.716893
11
2874.710521
21
-544.575030
0
LINE
5
890
100
AcDbEntity
8
1
100
AcDbLine
6
DOT2
62
6
10
2874.941490
20
-544.344061
11
2875.098808
21
-544.186744
0
LINE
5
891
100
AcDbEntity
8
1
100
AcDbLine
6
DOT2
62
6
10
2873.872083
20
-545.130626
11
2874.068761
21
-544.933948
0
LINE
5
892
100
AcDbEntity
8
1
100
AcDbLine
6
DOT2
62
6
10
2874.179225
20
-544.823483
11
2874.565488
21
-544.437221
0
LINE
5
893
100
AcDbEntity
8
1
100
AcDbLine
6
DOT2
62
6
10
2874.658390
20
-544.344319
11
2874.963684
21
-544.039024
0
LINE
5
894
100
AcDbEntity
8
1
100
AcDbLine
6
DOT2
62
6
10
2873.513266
20
-545.206599
11
2873.593300
21
-545.126565
0
LINE
5
895
100
AcDbEntity
8
1
100
AcDbLine
6
DOT2
62
6
10
2873.717715
20
-545.002151
11
2874.025071
21
-544.694794
0
LINE
5
896
100
AcDbEntity
8
1
100
AcDbLine
6
DOT2
62
6
10
2874.375289
20
-544.344576
11
2874.528127
21
-544.191738
0
LINE
5
897
100
AcDbEntity
8
1
100
AcDbLine
6
DOT2
62
6
10
2873.150509
20
-545.286514
11
2873.323732
21
-545.113291
0
LINE
5
898
100
AcDbEntity
8
1
100
AcDbLine
6
DOT2
62
6
10
2873.575107
20
-544.861916
11
2873.740081
21
-544.696942
0
LINE
5
899
100
AcDbEntity
8
1
100
AcDbLine
6
DOT2
62
6
10
2874.092189
20
-544.344834
11
2874.245285
21
-544.191738
0
LINE
5
89a
100
AcDbEntity
8
1
100
AcDbLine
6
DOT2
62
6
10
2872.787752
20
-545.366428
11
2873.005884
21
-545.148296
0
LINE
5
89b
100
AcDbEntity
8
1
100
AcDbLine
6
DOT2
62
6
10
2873.444233
20
-544.709947
11
2873.593869
21
-544.560311
0
LINE
5
89c
100
AcDbEntity
8
1
100
AcDbLine
6
DOT2
62
6
10
2873.809089
20
-544.345092
11
2873.962442
21
-544.191738
0
LINE
5
89d
100
AcDbEntity
8
1
100
AcDbLine
6
DOT2
62
6
10
2872.424995
20
-545.446342
11
2872.688036
21
-545.183301
0
LINE
5
89e
100
AcDbEntity
8
1
100
AcDbLine
6
DOT2
62
6
10
2873.325317
20
-544.546021
11
2873.459518
21
-544.411820
0
LINE
5
89f
100
AcDbEntity
8
1
100
AcDbLine
6
DOT2
62
6
10
2873.525988
20
-544.345349
11
2873.679599
21
-544.191738
0
LINE
5
8a0
100
AcDbEntity
8
1
100
AcDbLine
6
DOT2
62
6
10
2872.062238
20
-545.526257
11
2872.645099
21
-544.943396
0
LINE
5
8a1
100
AcDbEntity
8
1
100
AcDbLine
6
DOT2
62
6
10
2873.218848
20
-544.369646
11
2873.435240
21
-544.153255
0
LINE
5
8a2
100
AcDbEntity
8
1
100
AcDbLine
6
DOT2
62
6
10
2871.715229
20
-545.590423
11
2872.052340
21
-545.253312
0
LINE
5
8a3
100
AcDbEntity
8
1
100
AcDbLine
6
DOT2
62
6
10
2872.346517
20
-544.959135
11
2873.113914
21
-544.191738
0
LINE
5
8a4
100
AcDbEntity
8
1
100
AcDbLine
6
DOT2
62
6
10
2873.122727
20
-544.182925
11
2873.487987
21
-543.817665
0
LINE
5
8a5
100
AcDbEntity
8
1
100
AcDbLine
6
DOT2
62
6
10
2871.654584
20
-545.368226
11
2871.734492
21
-545.288317
0
LINE
5
8a6
100
AcDbEntity
8
1
100
AcDbLine
6
DOT2
62
6
10
2872.061675
20
-544.961135
11
2872.590917
21
-544.431892
0
LINE
5
8a7
100
AcDbEntity
8
1
100
AcDbLine
6
DOT2
62
6
10
2872.678873
20
-544.343936
11
2872.831071
21
-544.191738
0
LINE
5
8a8
100
AcDbEntity
8
1
100
AcDbLine
6
DOT2
62
6
10
2873.122727
20
-543.900083
11
2873.247079
21
-543.775731
0
LINE
5
8a9
100
AcDbEntity
8
1
100
AcDbLine
6
DOT2
62
6
10
2871.640718
20
-545.099249
11
2871.927386
21
-544.812581
0
LINE
5
8aa
100
AcDbEntity
8
1
100
AcDbLine
6
DOT2
62
6
10
2872.396031
20
-544.343936
11
2872.548228
21
-544.191738
0
LINE
5
8ab
100
AcDbEntity
8
1
100
AcDbLine
6
DOT2
62
6
10
2871.318652
20
-545.138472
11
2871.453564
21
-545.003560
0
LINE
5
8ac
100
AcDbEntity
8
1
100
AcDbLine
6
DOT2
62
6
10
2872.113188
20
-544.343936
11
2872.265386
21
-544.191738
0
LINE
5
8ad
100
AcDbEntity
8
1
100
AcDbLine
6
DOT2
62
6
10
2871.830345
20
-544.343936
11
2871.982543
21
-544.191738
0
LINE
5
8ae
100
AcDbEntity
8
1
100
AcDbLine
6
DOT2
62
6
10
2871.547502
20
-544.343936
11
2871.699700
21
-544.191738
0
LINE
5
8af
100
AcDbEntity
8
1
100
AcDbLine
6
DOT2
62
6
10
2871.817667
20
-545.719199
11
2871.725117
21
-545.626650
0
LINE
5
8b0
100
AcDbEntity
8
1
100
AcDbLine
6
DOT2
62
6
10
2875.124911
20
-544.218118
11
2874.861103
21
-543.954309
0
LINE
5
8b1
100
AcDbEntity
8
1
100
AcDbLine
6
DOT2
62
6
10
2874.967988
20
-544.344037
11
2874.702765
21
-544.078814
0
LINE
5
8b2
100
AcDbEntity
8
1
100
AcDbLine
6
DOT2
62
6
10
2874.685402
20
-544.344294
11
2874.532846
21
-544.191738
0
LINE
5
8b3
100
AcDbEntity
8
1
100
AcDbLine
6
DOT2
62
6
10
2874.770924
20
-544.712658
11
2874.467981
21
-544.409716
0
LINE
5
8b4
100
AcDbEntity
8
1
100
AcDbLine
6
DOT2
62
6
10
2874.402817
20
-544.344551
11
2874.250004
21
-544.191738
0
LINE
5
8b5
100
AcDbEntity
8
1
100
AcDbLine
6
DOT2
62
6
10
2875.170692
20
-545.395270
11
2875.034688
21
-545.259265
0
LINE
5
8b6
100
AcDbEntity
8
1
100
AcDbLine
6
DOT2
62
6
10
2874.493122
20
-544.717700
11
2874.299610
21
-544.524187
0
LINE
5
8b7
100
AcDbEntity
8
1
100
AcDbLine
6
DOT2
62
6
10
2874.120231
20
-544.344809
11
2873.967161
21
-544.191738
0
LINE
5
8b8
100
AcDbEntity
8
1
100
AcDbLine
6
DOT2
62
6
10
2875.062394
20
-545.569814
11
2874.687198
21
-545.194618
0
LINE
5
8b9
100
AcDbEntity
8
1
100
AcDbLine
6
DOT2
62
6
10
2874.284918
20
-544.792338
11
2874.126542
21
-544.633962
0
LINE
5
8ba
100
AcDbEntity
8
1
100
AcDbLine
6
DOT2
62
6
10
2873.837646
20
-544.345066
11
2873.684318
21
-544.191738
0
LINE
5
8bb
100
AcDbEntity
8
1
100
AcDbLine
6
DOT2
62
6
10
2873.476085
20
-543.983505
11
2873.268310
21
-543.775731
0
LINE
5
8bc
100
AcDbEntity
8
1
100
AcDbLine
6
DOT2
62
6
10
2874.768679
20
-545.558941
11
2874.234082
21
-545.024345
0
LINE
5
8bd
100
AcDbEntity
8
1
100
AcDbLine
6
DOT2
62
6
10
2874.062568
20
-544.852831
11
2873.948675
21
-544.738938
0
LINE
5
8be
100
AcDbEntity
8
1
100
AcDbLine
6
DOT2
62
6
10
2873.555060
20
-544.345323
11
2873.122727
21
-543.912989
0
LINE
5
8bf
100
AcDbEntity
8
1
100
AcDbLine
6
DOT2
62
6
10
2874.335829
20
-545.408934
11
2873.118633
21
-544.191738
0
LINE
5
8c0
100
AcDbEntity
8
1
100
AcDbLine
6
DOT2
62
6
10
2873.078580
20
-544.434528
11
2872.835790
21
-544.191738
0
LINE
5
8c1
100
AcDbEntity
8
1
100
AcDbLine
6
DOT2
62
6
10
2873.557962
20
-545.196753
11
2873.459543
21
-545.098334
0
LINE
5
8c2
100
AcDbEntity
8
1
100
AcDbLine
6
DOT2
62
6
10
2872.907619
20
-544.546409
11
2872.708975
21
-544.347766
0
LINE
5
8c3
100
AcDbEntity
8
1
100
AcDbLine
6
DOT2
62
6
10
2872.705145
20
-544.343936
11
2872.552947
21
-544.191738
0
LINE
5
8c4
100
AcDbEntity
8
1
100
AcDbLine
6
DOT2
62
6
10
2873.326180
20
-545.247814
11
2873.204760
21
-545.126394
0
LINE
5
8c5
100
AcDbEntity
8
1
100
AcDbLine
6
DOT2
62
6
10
2872.729440
20
-544.651074
11
2872.542908
21
-544.464542
0
LINE
5
8c6
100
AcDbEntity
8
1
100
AcDbLine
6
DOT2
62
6
10
2872.422303
20
-544.343936
11
2872.270105
21
-544.191738
0
LINE
5
8c7
100
AcDbEntity
8
1
100
AcDbLine
6
DOT2
62
6
10
2873.094398
20
-545.298875
11
2872.949977
21
-545.154453
0
LINE
5
8c8
100
AcDbEntity
8
1
100
AcDbLine
6
DOT2
62
6
10
2872.645099
20
-544.849575
11
2872.370378
21
-544.574854
0
LINE
5
8c9
100
AcDbEntity
8
1
100
AcDbLine
6
DOT2
62
6
10
2872.139460
20
-544.343936
11
2871.987262
21
-544.191738
0
LINE
5
8ca
100
AcDbEntity
8
1
100
AcDbLine
6
DOT2
62
6
10
2872.862617
20
-545.349936
11
2872.695194
21
-545.182513
0
LINE
5
8cb
100
AcDbEntity
8
1
100
AcDbLine
6
DOT2
62
6
10
2872.645099
20
-545.132418
11
2872.191192
21
-544.678511
0
LINE
5
8cc
100
AcDbEntity
8
1
100
AcDbLine
6
DOT2
62
6
10
2871.856617
20
-544.343936
11
2871.704419
21
-544.191738
0
LINE
5
8cd
100
AcDbEntity
8
1
100
AcDbLine
6
DOT2
62
6
10
2872.630835
20
-545.400996
11
2872.346517
21
-545.116679
0
LINE
5
8ce
100
AcDbEntity
8
1
100
AcDbLine
6
DOT2
62
6
10
2872.154729
20
-544.924891
11
2872.005108
21
-544.775269
0
LINE
5
8cf
100
AcDbEntity
8
1
100
AcDbLine
6
DOT2
62
6
10
2871.573774
20
-544.343936
11
2871.421576
21
-544.191738
0
LINE
5
8d0
100
AcDbEntity
8
1
100
AcDbLine
6
DOT2
62
6
10
2872.399053
20
-545.452057
11
2872.185628
21
-545.238633
0
LINE
5
8d1
100
AcDbEntity
8
1
100
AcDbLine
6
DOT2
62
6
10
2871.949136
20
-545.002140
11
2871.811822
21
-544.864826
0
LINE
5
8d2
100
AcDbEntity
8
1
100
AcDbLine
6
DOT2
62
6
10
2872.167271
20
-545.503118
11
2871.930845
21
-545.266693
0
LINE
5
8d3
100
AcDbEntity
8
1
100
AcDbLine
6
DOT2
62
6
10
2871.735797
20
-545.071644
11
2871.610960
21
-544.946808
0
LINE
5
8d4
100
AcDbEntity
8
1
100
AcDbLine
6
DOT2
62
6
10
2871.935489
20
-545.554179
11
2871.676062
21
-545.294752
0
LINE
5
8d5
100
AcDbEntity
8
1
100
AcDbLine
6
DOT2
62
6
10
2871.514162
20
-545.132852
11
2871.402061
21
-545.020751
0
LINE
5
8d6
100
AcDbEntity
8
1
100
AcDbLine
6
DOT2
62
6
10
2704.138102
20
-435.698849
11
2704.341659
21
-435.495292
0
LINE
5
8d7
100
AcDbEntity
8
1
100
AcDbLine
6
DOT2
62
6
10
2704.414017
20
-437.119991
11
2704.457062
21
-437.076946
0
LINE
5
8d8
100
AcDbEntity
8
1
100
AcDbLine
6
DOT2
62
6
10
2704.138102
20
-437.113062
11
2704.457062
21
-436.794103
0
LINE
5
8d9
100
AcDbEntity
8
1
100
AcDbLine
6
DOT2
62
6
10
2704.138102
20
-436.830220
11
2704.457062
21
-436.511260
0
LINE
5
8da
100
AcDbEntity
8
1
100
AcDbLine
6
DOT2
62
6
10
2704.138102
20
-436.547377
11
2704.457062
21
-436.228418
0
LINE
5
8db
100
AcDbEntity
8
1
100
AcDbLine
6
DOT2
62
6
10
2704.138102
20
-436.264534
11
2704.457062
21
-435.945575
0
LINE
5
8dc
100
AcDbEntity
8
1
100
AcDbLine
6
DOT2
62
6
10
2704.138102
20
-435.981692
11
2704.584232
21
-435.535562
0
LINE
5
8dd
100
AcDbEntity
8
1
100
AcDbLine
6
DOT2
62
6
10
2704.460676
20
-435.496436
11
2704.602109
21
-435.637869
0
LINE
5
8de
100
AcDbEntity
8
1
100
AcDbLine
6
DOT2
62
6
10
2704.138102
20
-436.870919
11
2704.387174
21
-437.119991
0
LINE
5
8df
100
AcDbEntity
8
1
100
AcDbLine
6
DOT2
62
6
10
2704.138102
20
-436.588076
11
2704.457062
21
-436.907036
0
LINE
5
8e0
100
AcDbEntity
8
1
100
AcDbLine
6
DOT2
62
6
10
2704.138102
20
-436.305234
11
2704.457062
21
-436.624193
0
LINE
5
8e1
100
AcDbEntity
8
1
100
AcDbLine
6
DOT2
62
6
10
2704.138102
20
-436.022391
11
2704.457062
21
-436.341350
0
LINE
5
8e2
100
AcDbEntity
8
1
100
AcDbLine
6
DOT2
62
6
10
2704.138102
20
-435.739548
11
2704.457062
21
-436.058508
0
LINE
5
8e3
100
AcDbEntity
8
1
100
AcDbLine
6
DOT2
62
6
10
2704.176688
20
-435.495292
11
2704.457062
21
-435.775665
0
LINE
5
8e4
100
AcDbEntity
8
1
100
AcDbLine
6
DOT2
62
6
10
2705.114915
20
-435.287721
11
2705.218829
21
-435.183808
0
LINE
5
8e5
100
AcDbEntity
8
1
100
AcDbLine
6
DOT2
62
6
10
2705.146704
20
-437.801517
11
2705.433875
21
-437.514346
0
LINE
5
8e6
100
AcDbEntity
8
1
100
AcDbLine
6
DOT2
62
6
10
2704.971988
20
-437.693390
11
2705.433875
21
-437.231504
0
LINE
5
8e7
100
AcDbEntity
8
1
100
AcDbLine
6
DOT2
62
6
10
2704.798532
20
-437.584003
11
2705.000642
21
-437.381893
0
LINE
5
8e8
100
AcDbEntity
8
1
100
AcDbLine
6
DOT2
62
6
10
2705.114915
20
-437.267620
11
2705.433875
21
-436.948661
0
LINE
5
8e9
100
AcDbEntity
8
1
100
AcDbLine
6
DOT2
62
6
10
2704.589152
20
-437.510541
11
2704.725202
21
-437.374491
0
LINE
5
8ea
100
AcDbEntity
8
1
100
AcDbLine
6
DOT2
62
6
10
2705.114915
20
-436.984778
11
2705.433875
21
-436.665818
0
LINE
5
8eb
100
AcDbEntity
8
1
100
AcDbLine
6
DOT2
62
6
10
2705.114915
20
-436.701935
11
2705.433875
21
-436.382976
0
LINE
5
8ec
100
AcDbEntity
8
1
100
AcDbLine
6
DOT2
62
6
10
2705.114915
20
-436.419092
11
2705.433875
21
-436.100133
0
LINE
5
8ed
100
AcDbEntity
8
1
100
AcDbLine
6
DOT2
62
6
10
2705.114915
20
-436.136249
11
2705.433875
21
-435.817290
0
LINE
5
8ee
100
AcDbEntity
8
1
100
AcDbLine
6
DOT2
62
6
10
2705.114915
20
-435.853407
11
2705.433875
21
-435.534447
0
LINE
5
8ef
100
AcDbEntity
8
1
100
AcDbLine
6
DOT2
62
6
10
2705.114915
20
-435.570564
11
2705.501671
21
-435.183808
0
LINE
5
8f0
100
AcDbEntity
8
1
100
AcDbLine
6
DOT2
62
6
10
2705.279418
20
-435.183808
11
2705.493719
21
-435.398109
0
LINE
5
8f1
100
AcDbEntity
8
1
100
AcDbLine
6
DOT2
62
6
10
2704.633869
20
-437.366686
11
2704.895613
21
-437.628430
0
LINE
5
8f2
100
AcDbEntity
8
1
100
AcDbLine
6
DOT2
62
6
10
2704.980020
20
-437.712837
11
2705.068700
21
-437.801517
0
LINE
5
8f3
100
AcDbEntity
8
1
100
AcDbLine
6
DOT2
62
6
10
2704.932214
20
-437.382188
11
2705.294629
21
-437.744603
0
LINE
5
8f4
100
AcDbEntity
8
1
100
AcDbLine
6
DOT2
62
6
10
2705.114915
20
-437.282047
11
2705.433875
21
-437.601006
0
LINE
5
8f5
100
AcDbEntity
8
1
100
AcDbLine
6
DOT2
62
6
10
2705.114915
20
-436.999204
11
2705.433875
21
-437.318163
0
LINE
5
8f6
100
AcDbEntity
8
1
100
AcDbLine
6
DOT2
62
6
10
2705.114915
20
-436.716361
11
2705.433875
21
-437.035321
0
LINE
5
8f7
100
AcDbEntity
8
1
100
AcDbLine
6
DOT2
62
6
10
2705.114915
20
-436.433519
11
2705.433875
21
-436.752478
0
LINE
5
8f8
100
AcDbEntity
8
1
100
AcDbLine
6
DOT2
62
6
10
2705.114915
20
-436.150676
11
2705.433875
21
-436.469635
0
LINE
5
8f9
100
AcDbEntity
8
1
100
AcDbLine
6
DOT2
62
6
10
2705.114915
20
-435.867833
11
2705.433875
21
-436.186792
0
LINE
5
8fa
100
AcDbEntity
8
1
100
AcDbLine
6
DOT2
62
6
10
2705.114915
20
-435.584990
11
2705.433875
21
-435.903950
0
LINE
5
8fb
100
AcDbEntity
8
1
100
AcDbLine
6
DOT2
62
6
10
2705.114915
20
-435.302148
11
2705.433875
21
-435.621107
0
LINE
5
8fc
100
AcDbEntity
8
1
100
AcDbLine
6
DOT2
62
6
10
2704.245441
20
-440.116993
11
2704.389797
21
-439.972637
0
LINE
5
8fd
100
AcDbEntity
8
1
100
AcDbLine
6
DOT2
62
6
10
2704.442347
20
-441.334301
11
2704.533603
21
-441.243045
0
LINE
5
8fe
100
AcDbEntity
8
1
100
AcDbLine
6
DOT2
62
6
10
2704.245441
20
-441.248364
11
2704.533603
21
-440.960203
0
LINE
5
8ff
100
AcDbEntity
8
1
100
AcDbLine
6
DOT2
62
6
10
2704.245441
20
-440.965521
11
2704.533603
21
-440.677360
0
LINE
5
900
100
AcDbEntity
8
1
100
AcDbLine
6
DOT2
62
6
10
2704.245441
20
-440.682679
11
2704.533603
21
-440.394517
0
LINE
5
901
100
AcDbEntity
8
1
100
AcDbLine
6
DOT2
62
6
10
2704.245441
20
-440.399836
11
2704.621634
21
-440.023643
0
LINE
5
902
100
AcDbEntity
8
1
100
AcDbLine
6
DOT2
62
6
10
2704.358844
20
-441.334301
11
2704.245441
21
-441.220899
0
LINE
5
903
100
AcDbEntity
8
1
100
AcDbLine
6
DOT2
62
6
10
2704.608318
20
-440.169562
11
2704.411393
21
-439.972637
0
LINE
5
904
100
AcDbEntity
8
1
100
AcDbLine
6
DOT2
62
6
10
2704.533603
20
-440.377690
11
2704.245441
21
-440.089528
0
LINE
5
905
100
AcDbEntity
8
1
100
AcDbLine
6
DOT2
62
6
10
2704.533603
20
-440.660532
11
2704.245441
21
-440.372371
0
LINE
5
906
100
AcDbEntity
8
1
100
AcDbLine
6
DOT2
62
6
10
2704.533603
20
-440.943375
11
2704.245441
21
-440.655214
0
LINE
5
907
100
AcDbEntity
8
1
100
AcDbLine
6
DOT2
62
6
10
2704.533603
20
-441.226218
11
2704.245441
21
-440.938056
0
LINE
5
908
100
AcDbEntity
8
1
100
AcDbLine
6
DOT2
62
6
10
2705.054120
20
-439.874000
11
2705.111739
21
-439.816381
0
LINE
5
909
100
AcDbEntity
8
1
100
AcDbLine
6
DOT2
62
6
10
2705.022761
20
-441.885258
11
2705.362574
21
-441.545445
0
LINE
5
90a
100
AcDbEntity
8
1
100
AcDbLine
6
DOT2
62
6
10
2704.892379
20
-441.732797
11
2705.362574
21
-441.262602
0
LINE
5
90b
100
AcDbEntity
8
1
100
AcDbLine
6
DOT2
62
6
10
2704.699910
20
-441.642424
11
2704.854052
21
-441.488281
0
LINE
5
90c
100
AcDbEntity
8
1
100
AcDbLine
6
DOT2
62
6
10
2705.054120
20
-441.288214
11
2705.362574
21
-440.979759
0
LINE
5
90d
100
AcDbEntity
8
1
100
AcDbLine
6
DOT2
62
6
10
2704.509759
20
-441.549732
11
2704.595763
21
-441.463728
0
LINE
5
90e
100
AcDbEntity
8
1
100
AcDbLine
6
DOT2
62
6
10
2705.054120
20
-441.005371
11
2705.362574
21
-440.696917
0
LINE
5
90f
100
AcDbEntity
8
1
100
AcDbLine
6
DOT2
62
6
10
2705.054120
20
-440.722528
11
2705.362574
21
-440.414074
0
LINE
5
910
100
AcDbEntity
8
1
100
AcDbLine
6
DOT2
62
6
10
2705.054120
20
-440.439686
11
2705.362574
21
-440.131231
0
LINE
5
911
100
AcDbEntity
8
1
100
AcDbLine
6
DOT2
62
6
10
2705.054120
20
-440.156843
11
2705.372931
21
-439.838031
0
LINE
5
912
100
AcDbEntity
8
1
100
AcDbLine
6
DOT2
62
6
10
2704.656196
20
-441.631653
11
2704.509759
21
-441.485216
0
LINE
5
913
100
AcDbEntity
8
1
100
AcDbLine
6
DOT2
62
6
10
2705.498538
20
-439.928411
11
2705.421858
21
-439.851731
0
LINE
5
914
100
AcDbEntity
8
1
100
AcDbLine
6
DOT2
62
6
10
2705.362574
20
-440.075290
11
2705.103665
21
-439.816381
0
LINE
5
915
100
AcDbEntity
8
1
100
AcDbLine
6
DOT2
62
6
10
2705.362574
20
-440.358133
11
2705.054120
21
-440.049678
0
LINE
5
916
100
AcDbEntity
8
1
100
AcDbLine
6
DOT2
62
6
10
2705.362574
20
-440.640976
11
2705.054120
21
-440.332521
0
LINE
5
917
100
AcDbEntity
8
1
100
AcDbLine
6
DOT2
62
6
10
2705.362574
20
-440.923818
11
2705.054120
21
-440.615364
0
LINE
5
918
100
AcDbEntity
8
1
100
AcDbLine
6
DOT2
62
6
10
2705.362574
20
-441.206661
11
2705.054120
21
-440.898206
0
LINE
5
919
100
AcDbEntity
8
1
100
AcDbLine
6
DOT2
62
6
10
2705.362574
20
-441.489504
11
2705.054120
21
-441.181049
0
LINE
5
91a
100
AcDbEntity
8
1
100
AcDbLine
6
DOT2
62
6
10
2705.318401
20
-441.728173
11
2705.037566
21
-441.447338
0
LINE
5
91b
100
AcDbEntity
8
1
100
AcDbLine
6
DOT2
62
6
10
2705.167547
20
-441.860161
11
2704.789533
21
-441.482148
0
LINE
5
91c
100
AcDbEntity
8
1
100
AcDbLine
6
DOT2
62
6
10
2702.631154
20
-444.559708
11
2702.753844
21
-444.437018
0
LINE
5
91d
100
AcDbEntity
8
1
100
AcDbLine
6
DOT2
62
6
10
2702.580032
20
-448.287785
11
2702.610709
21
-448.257108
0
LINE
5
91e
100
AcDbEntity
8
1
100
AcDbLine
6
DOT2
62
6
10
2702.297189
20
-448.287785
11
2702.610709
21
-447.974265
0
LINE
5
91f
100
AcDbEntity
8
1
100
AcDbLine
6
DOT2
62
6
10
2702.292108
20
-448.010024
11
2702.610709
21
-447.691423
0
LINE
5
920
100
AcDbEntity
8
1
100
AcDbLine
6
DOT2
62
6
10
2702.292108
20
-447.727181
11
2702.610709
21
-447.408580
0
LINE
5
921
100
AcDbEntity
8
1
100
AcDbLine
6
DOT2
62
6
10
2702.292108
20
-447.444338
11
2702.610709
21
-447.125737
0
LINE
5
922
100
AcDbEntity
8
1
100
AcDbLine
6
DOT2
62
6
10
2702.292108
20
-447.161496
11
2702.610709
21
-446.842895
0
LINE
5
923
100
AcDbEntity
8
1
100
AcDbLine
6
DOT2
62
6
10
2702.292108
20
-446.878653
11
2702.610709
21
-446.560052
0
LINE
5
924
100
AcDbEntity
8
1
100
AcDbLine
6
DOT2
62
6
10
2702.292108
20
-446.595810
11
2702.610709
21
-446.277209
0
LINE
5
925
100
AcDbEntity
8
1
100
AcDbLine
6
DOT2
62
6
10
2702.292108
20
-446.312968
11
2702.610709
21
-445.994366
0
LINE
5
926
100
AcDbEntity
8
1
100
AcDbLine
6
DOT2
62
6
10
2701.735404
20
-446.586829
11
2702.198818
21
-446.123414
0
LINE
5
927
100
AcDbEntity
8
1
100
AcDbLine
6
DOT2
62
6
10
2702.292108
20
-446.030125
11
2702.762907
21
-445.559326
0
LINE
5
928
100
AcDbEntity
8
1
100
AcDbLine
6
DOT2
62
6
10
2702.084644
20
-445.954746
11
2702.630929
21
-445.408461
0
LINE
5
929
100
AcDbEntity
8
1
100
AcDbLine
6
DOT2
62
6
10
2702.343087
20
-445.413460
11
2702.867760
21
-444.888787
0
LINE
5
92a
100
AcDbEntity
8
1
100
AcDbLine
6
DOT2
62
6
10
2702.512858
20
-444.960846
11
2702.972756
21
-444.500948
0
LINE
5
92b
100
AcDbEntity
8
1
100
AcDbLine
6
DOT2
62
6
10
2702.544204
20
-448.287785
11
2702.292108
21
-448.035689
0
LINE
5
92c
100
AcDbEntity
8
1
100
AcDbLine
6
DOT2
62
6
10
2703.105342
20
-444.606283
11
2703.011248
21
-444.512189
0
LINE
5
92d
100
AcDbEntity
8
1
100
AcDbLine
6
DOT2
62
6
10
2702.933659
20
-444.717443
11
2702.659991
21
-444.443774
0
LINE
5
92e
100
AcDbEntity
8
1
100
AcDbLine
6
DOT2
62
6
10
2702.854619
20
-444.921246
11
2702.601925
21
-444.668552
0
LINE
5
92f
100
AcDbEntity
8
1
100
AcDbLine
6
DOT2
62
6
10
2702.769795
20
-445.119264
11
2702.537006
21
-444.886475
0
LINE
5
930
100
AcDbEntity
8
1
100
AcDbLine
6
DOT2
62
6
10
2702.679420
20
-445.311732
11
2702.465626
21
-445.097938
0
LINE
5
931
100
AcDbEntity
8
1
100
AcDbLine
6
DOT2
62
6
10
2702.734861
20
-445.650016
11
2702.388120
21
-445.303274
0
LINE
5
932
100
AcDbEntity
8
1
100
AcDbLine
6
DOT2
62
6
10
2702.610709
20
-445.808706
11
2702.304772
21
-445.502770
0
LINE
5
933
100
AcDbEntity
8
1
100
AcDbLine
6
DOT2
62
6
10
2702.610709
20
-446.091549
11
2702.215828
21
-445.696668
0
LINE
5
934
100
AcDbEntity
8
1
100
AcDbLine
6
DOT2
62
6
10
2702.610709
20
-446.374391
11
2702.292108
21
-446.055790
0
LINE
5
935
100
AcDbEntity
8
1
100
AcDbLine
6
DOT2
62
6
10
2702.265133
20
-446.028815
11
2702.121494
21
-445.885177
0
LINE
5
936
100
AcDbEntity
8
1
100
AcDbLine
6
DOT2
62
6
10
2702.610709
20
-446.657234
11
2702.292108
21
-446.338633
0
LINE
5
937
100
AcDbEntity
8
1
100
AcDbLine
6
DOT2
62
6
10
2702.148570
20
-446.195095
11
2702.021951
21
-446.068477
0
LINE
5
938
100
AcDbEntity
8
1
100
AcDbLine
6
DOT2
62
6
10
2702.610709
20
-446.940077
11
2702.292108
21
-446.621476
0
LINE
5
939
100
AcDbEntity
8
1
100
AcDbLine
6
DOT2
62
6
10
2702.028435
20
-446.357803
11
2701.917350
21
-446.246718
0
LINE
5
93a
100
AcDbEntity
8
1
100
AcDbLine
6
DOT2
62
6
10
2702.610709
20
-447.222920
11
2702.292108
21
-446.904318
0
LINE
5
93b
100
AcDbEntity
8
1
100
AcDbLine
6
DOT2
62
6
10
2701.902394
20
-446.514604
11
2701.807821
21
-446.420032
0
LINE
5
93c
100
AcDbEntity
8
1
100
AcDbLine
6
DOT2
62
6
10
2702.610709
20
-447.505762
11
2702.292108
21
-447.187161
0
LINE
5
93d
100
AcDbEntity
8
1
100
AcDbLine
6
DOT2
62
6
10
2702.610709
20
-447.788605
11
2702.292108
21
-447.470004
0
LINE
5
93e
100
AcDbEntity
8
1
100
AcDbLine
6
DOT2
62
6
10
2702.610709
20
-448.071448
11
2702.292108
21
-447.752847
0
LINE
5
93f
100
AcDbEntity
8
1
100
AcDbLine
6
DOT2
62
6
10
2701.977619
20
-440.404917
11
2702.526529
21
-439.856007
0
LINE
5
940
100
AcDbEntity
8
1
100
AcDbLine
6
DOT2
62
6
10
2703.661469
20
-441.832336
11
2703.786659
21
-441.707147
0
LINE
5
941
100
AcDbEntity
8
1
100
AcDbLine
6
DOT2
62
6
10
2703.426487
20
-441.784476
11
2703.800009
21
-441.410954
0
LINE
5
942
100
AcDbEntity
8
1
100
AcDbLine
6
DOT2
62
6
10
2702.967778
20
-441.960342
11
2703.101928
21
-441.826192
0
LINE
5
943
100
AcDbEntity
8
1
100
AcDbLine
6
DOT2
62
6
10
2703.249869
20
-441.678251
11
2703.397991
21
-441.530129
0
LINE
5
944
100
AcDbEntity
8
1
100
AcDbLine
6
DOT2
62
6
10
2703.517935
20
-441.410185
11
2703.823060
21
-441.105060
0
LINE
5
945
100
AcDbEntity
8
1
100
AcDbLine
6
DOT2
62
6
10
2702.811737
20
-441.833540
11
2703.101928
21
-441.543350
0
LINE
5
946
100
AcDbEntity
8
1
100
AcDbLine
6
DOT2
62
6
10
2703.382002
20
-441.263276
11
2703.663060
21
-440.982217
0
LINE
5
947
100
AcDbEntity
8
1
100
AcDbLine
6
DOT2
62
6
10
2703.801053
20
-440.844224
11
2704.007520
21
-440.637757
0
LINE
5
948
100
AcDbEntity
8
1
100
AcDbLine
6
DOT2
62
6
10
2702.402092
20
-441.960342
11
2702.418052
21
-441.944383
0
LINE
5
949
100
AcDbEntity
8
1
100
AcDbLine
6
DOT2
62
6
10
2702.811737
20
-441.550698
11
2703.261503
21
-441.100931
0
LINE
5
94a
100
AcDbEntity
8
1
100
AcDbLine
6
DOT2
62
6
10
2703.518210
20
-440.844224
11
2703.670408
21
-440.692026
0
LINE
5
94b
100
AcDbEntity
8
1
100
AcDbLine
6
DOT2
62
6
10
2703.810495
20
-440.551939
11
2703.830724
21
-440.531711
0
LINE
5
94c
100
AcDbEntity
8
1
100
AcDbLine
6
DOT2
62
6
10
2702.129890
20
-441.949702
11
2702.418052
21
-441.661540
0
LINE
5
94d
100
AcDbEntity
8
1
100
AcDbLine
6
DOT2
62
6
10
2702.811737
20
-441.267855
11
2703.101928
21
-440.977664
0
LINE
5
94e
100
AcDbEntity
8
1
100
AcDbLine
6
DOT2
62
6
10
2703.235368
20
-440.844224
11
2703.387566
21
-440.692026
0
LINE
5
94f
100
AcDbEntity
8
1
100
AcDbLine
6
DOT2
62
6
10
2703.667610
20
-440.411982
11
2703.876866
21
-440.202726
0
LINE
5
950
100
AcDbEntity
8
1
100
AcDbLine
6
DOT2
62
6
10
2702.129890
20
-441.666859
11
2702.418052
21
-441.378698
0
LINE
5
951
100
AcDbEntity
8
1
100
AcDbLine
6
DOT2
62
6
10
2702.533473
20
-441.263276
11
2702.695818
21
-441.100931
0
LINE
5
952
100
AcDbEntity
8
1
100
AcDbLine
6
DOT2
62
6
10
2702.811737
20
-440.985012
11
2703.104723
21
-440.692026
0
LINE
5
953
100
AcDbEntity
8
1
100
AcDbLine
6
DOT2
62
6
10
2703.384767
20
-440.411982
11
2703.554364
21
-440.242385
0
LINE
5
954
100
AcDbEntity
8
1
100
AcDbLine
6
DOT2
62
6
10
2703.650379
20
-440.146371
11
2703.714529
21
-440.082220
0
LINE
5
955
100
AcDbEntity
8
1
100
AcDbLine
6
DOT2
62
6
10
2702.129890
20
-441.384016
11
2702.414521
21
-441.099386
0
LINE
5
956
100
AcDbEntity
8
1
100
AcDbLine
6
DOT2
62
6
10
2702.669682
20
-440.844224
11
2703.271522
21
-440.242385
0
LINE
5
957
100
AcDbEntity
8
1
100
AcDbLine
6
DOT2
62
6
10
2702.129890
20
-441.101174
11
2702.217803
21
-441.013260
0
LINE
5
958
100
AcDbEntity
8
1
100
AcDbLine
6
DOT2
62
6
10
2702.386840
20
-440.844224
11
2702.539038
21
-440.692026
0
LINE
5
959
100
AcDbEntity
8
1
100
AcDbLine
6
DOT2
62
6
10
2702.811737
20
-440.419327
11
2703.101928
21
-440.129136
0
LINE
5
95a
100
AcDbEntity
8
1
100
AcDbLine
6
DOT2
62
6
10
2702.103997
20
-440.844224
11
2702.256195
21
-440.692026
0
LINE
5
95b
100
AcDbEntity
8
1
100
AcDbLine
6
DOT2
62
6
10
2702.536239
20
-440.411982
11
2702.705836
21
-440.242385
0
LINE
5
95c
100
AcDbEntity
8
1
100
AcDbLine
6
DOT2
62
6
10
2702.811737
20
-440.136484
11
2703.180571
21
-439.767650
0
LINE
5
95d
100
AcDbEntity
8
1
100
AcDbLine
6
DOT2
62
6
10
2701.880939
20
-440.784439
11
2701.973352
21
-440.692026
0
LINE
5
95e
100
AcDbEntity
8
1
100
AcDbLine
6
DOT2
62
6
10
2702.253396
20
-440.411982
11
2702.422994
21
-440.242385
0
LINE
5
95f
100
AcDbEntity
8
1
100
AcDbLine
6
DOT2
62
6
10
2702.649331
20
-440.016047
11
2702.693023
21
-439.972356
0
LINE
5
960
100
AcDbEntity
8
1
100
AcDbLine
6
DOT2
62
6
10
2702.811737
20
-439.853641
11
2702.926111
21
-439.739267
0
LINE
5
961
100
AcDbEntity
8
1
100
AcDbLine
6
DOT2
62
6
10
2701.816660
20
-440.565875
11
2701.853464
21
-440.529072
0
LINE
5
962
100
AcDbEntity
8
1
100
AcDbLine
6
DOT2
62
6
10
2702.156458
20
-441.960342
11
2702.129890
21
-441.933775
0
LINE
5
963
100
AcDbEntity
8
1
100
AcDbLine
6
DOT2
62
6
10
2703.935978
20
-440.345750
11
2703.689481
21
-440.099253
0
LINE
5
964
100
AcDbEntity
8
1
100
AcDbLine
6
DOT2
62
6
10
2704.077009
20
-440.769624
11
2703.839096
21
-440.531711
0
LINE
5
965
100
AcDbEntity
8
1
100
AcDbLine
6
DOT2
62
6
10
2703.719367
20
-440.411982
11
2703.549770
21
-440.242385
0
LINE
5
966
100
AcDbEntity
8
1
100
AcDbLine
6
DOT2
62
6
10
2703.204964
20
-439.897579
11
2703.046652
21
-439.739267
0
LINE
5
967
100
AcDbEntity
8
1
100
AcDbLine
6
DOT2
62
6
10
2703.868767
20
-440.844224
11
2703.700556
21
-440.676014
0
LINE
5
968
100
AcDbEntity
8
1
100
AcDbLine
6
DOT2
62
6
10
2703.436524
20
-440.411982
11
2703.266927
21
-440.242385
0
LINE
5
969
100
AcDbEntity
8
1
100
AcDbLine
6
DOT2
62
6
10
2703.101928
20
-440.077385
11
2702.811737
21
-439.787194
0
LINE
5
96a
100
AcDbEntity
8
1
100
AcDbLine
6
DOT2
62
6
10
2703.585924
20
-440.844224
11
2703.433726
21
-440.692026
0
LINE
5
96b
100
AcDbEntity
8
1
100
AcDbLine
6
DOT2
62
6
10
2703.153682
20
-440.411982
11
2702.811737
21
-440.070037
0
LINE
5
96c
100
AcDbEntity
8
1
100
AcDbLine
6
DOT2
62
6
10
2702.693023
20
-439.951323
11
2702.688422
21
-439.946723
0
LINE
5
96d
100
AcDbEntity
8
1
100
AcDbLine
6
DOT2
62
6
10
2703.800009
20
-441.341152
11
2703.536557
21
-441.077699
0
LINE
5
96e
100
AcDbEntity
8
1
100
AcDbLine
6
DOT2
62
6
10
2703.303081
20
-440.844224
11
2703.150883
21
-440.692026
0
LINE
5
96f
100
AcDbEntity
8
1
100
AcDbLine
6
DOT2
62
6
10
2703.101928
20
-440.643071
11
2702.701242
21
-440.242385
0
LINE
5
970
100
AcDbEntity
8
1
100
AcDbLine
6
DOT2
62
6
10
2702.517198
20
-440.058341
11
2702.307822
21
-439.848964
0
LINE
5
971
100
AcDbEntity
8
1
100
AcDbLine
6
DOT2
62
6
10
2703.800009
20
-441.623994
11
2703.517935
21
-441.341921
0
LINE
5
972
100
AcDbEntity
8
1
100
AcDbLine
6
DOT2
62
6
10
2703.439290
20
-441.263276
11
2703.276946
21
-441.100931
0
LINE
5
973
100
AcDbEntity
8
1
100
AcDbLine
6
DOT2
62
6
10
2703.101928
20
-440.925913
11
2702.811737
21
-440.635723
0
LINE
5
974
100
AcDbEntity
8
1
100
AcDbLine
6
DOT2
62
6
10
2702.587996
20
-440.411982
11
2702.418399
21
-440.242385
0
LINE
5
975
100
AcDbEntity
8
1
100
AcDbLine
6
DOT2
62
6
10
2702.394656
20
-440.218641
11
2702.223017
21
-440.047003
0
LINE
5
976
100
AcDbEntity
8
1
100
AcDbLine
6
DOT2
62
6
10
2703.703992
20
-441.810820
11
2703.423301
21
-441.530129
0
LINE
5
977
100
AcDbEntity
8
1
100
AcDbLine
6
DOT2
62
6
10
2703.156447
20
-441.263276
11
2702.811737
21
-440.918565
0
LINE
5
978
100
AcDbEntity
8
1
100
AcDbLine
6
DOT2
62
6
10
2702.737396
20
-440.844224
11
2702.585198
21
-440.692026
0
LINE
5
979
100
AcDbEntity
8
1
100
AcDbLine
6
DOT2
62
6
10
2702.305154
20
-440.411982
11
2702.118210
21
-440.225039
0
LINE
5
97a
100
AcDbEntity
8
1
100
AcDbLine
6
DOT2
62
6
10
2703.346996
20
-441.736667
11
2703.179041
21
-441.568712
0
LINE
5
97b
100
AcDbEntity
8
1
100
AcDbLine
6
DOT2
62
6
10
2703.101928
20
-441.491599
11
2702.711260
21
-441.100931
0
LINE
5
97c
100
AcDbEntity
8
1
100
AcDbLine
6
DOT2
62
6
10
2702.454553
20
-440.844224
11
2702.302355
21
-440.692026
0
LINE
5
97d
100
AcDbEntity
8
1
100
AcDbLine
6
DOT2
62
6
10
2702.112828
20
-440.502499
11
2701.995282
21
-440.384953
0
LINE
5
97e
100
AcDbEntity
8
1
100
AcDbLine
6
DOT2
62
6
10
2703.101928
20
-441.774441
11
2702.811737
21
-441.484251
0
LINE
5
97f
100
AcDbEntity
8
1
100
AcDbLine
6
DOT2
62
6
10
2702.590762
20
-441.263276
11
2702.428418
21
-441.100931
0
LINE
5
980
100
AcDbEntity
8
1
100
AcDbLine
6
DOT2
62
6
10
2702.171710
20
-440.844224
11
2702.019512
21
-440.692026
0
LINE
5
981
100
AcDbEntity
8
1
100
AcDbLine
6
DOT2
62
6
10
2701.949443
20
-440.621957
11
2701.855092
21
-440.527606
0
LINE
5
982
100
AcDbEntity
8
1
100
AcDbLine
6
DOT2
62
6
10
2703.004986
20
-441.960342
11
2702.811737
21
-441.767093
0
LINE
5
983
100
AcDbEntity
8
1
100
AcDbLine
6
DOT2
62
6
10
2702.418052
20
-441.373408
11
2702.129890
21
-441.085247
0
LINE
5
984
100
AcDbEntity
8
1
100
AcDbLine
6
DOT2
62
6
10
2702.418052
20
-441.656251
11
2702.129890
21
-441.368089
0
LINE
5
985
100
AcDbEntity
8
1
100
AcDbLine
6
DOT2
62
6
10
2702.418052
20
-441.939093
11
2702.129890
21
-441.650932
0
LINE
5
986
100
AcDbEntity
8
1
100
AcDbLine
6
DOT2
62
6
10
2702.421720
20
-438.263759
11
2702.601135
21
-438.084345
0
LINE
5
987
100
AcDbEntity
8
1
100
AcDbLine
6
DOT2
62
6
10
2705.539266
20
-439.106011
11
2705.742197
21
-438.903080
0
LINE
5
988
100
AcDbEntity
8
1
100
AcDbLine
6
DOT2
62
6
10
2705.256423
20
-439.106011
11
2705.608857
21
-438.753577
0
LINE
5
989
100
AcDbEntity
8
1
100
AcDbLine
6
DOT2
62
6
10
2704.973581
20
-439.106011
11
2705.138044
21
-438.941548
0
LINE
5
98a
100
AcDbEntity
8
1
100
AcDbLine
6
DOT2
62
6
10
2704.690738
20
-439.106011
11
2704.855201
21
-438.941548
0
LINE
5
98b
100
AcDbEntity
8
1
100
AcDbLine
6
DOT2
62
6
10
2704.407895
20
-439.106011
11
2704.572359
21
-438.941548
0
LINE
5
98c
100
AcDbEntity
8
1
100
AcDbLine
6
DOT2
62
6
10
2704.125053
20
-439.106011
11
2704.289516
21
-438.941548
0
LINE
5
98d
100
AcDbEntity
8
1
100
AcDbLine
6
DOT2
62
6
10
2704.967305
20
-438.263759
11
2705.206186
21
-438.024877
0
LINE
5
98e
100
AcDbEntity
8
1
100
AcDbLine
6
DOT2
62
6
10
2703.842210
20
-439.106011
11
2704.006673
21
-438.941548
0
LINE
5
98f
100
AcDbEntity
8
1
100
AcDbLine
6
DOT2
62
6
10
2704.684462
20
-438.263759
11
2705.066238
21
-437.881983
0
LINE
5
990
100
AcDbEntity
8
1
100
AcDbLine
6
DOT2
62
6
10
2703.559367
20
-439.106011
11
2703.931277
21
-438.734101
0
LINE
5
991
100
AcDbEntity
8
1
100
AcDbLine
6
DOT2
62
6
10
2704.401619
20
-438.263759
11
2704.581034
21
-438.084345
0
LINE
5
992
100
AcDbEntity
8
1
100
AcDbLine
6
DOT2
62
6
10
2703.276524
20
-439.106011
11
2703.440988
21
-438.941548
0
LINE
5
993
100
AcDbEntity
8
1
100
AcDbLine
6
DOT2
62
6
10
2703.592383
20
-438.790153
11
2703.931277
21
-438.451258
0
LINE
5
994
100
AcDbEntity
8
1
100
AcDbLine
6
DOT2
62
6
10
2704.118776
20
-438.263759
11
2704.298191
21
-438.084345
0
LINE
5
995
100
AcDbEntity
8
1
100
AcDbLine
6
DOT2
62
6
10
2702.993682
20
-439.106011
11
2703.158145
21
-438.941548
0
LINE
5
996
100
AcDbEntity
8
1
100
AcDbLine
6
DOT2
62
6
10
2703.592383
20
-438.507310
11
2704.015348
21
-438.084345
0
LINE
5
997
100
AcDbEntity
8
1
100
AcDbLine
6
DOT2
62
6
10
2702.710839
20
-439.106011
11
2702.875302
21
-438.941548
0
LINE
5
998
100
AcDbEntity
8
1
100
AcDbLine
6
DOT2
62
6
10
2703.553091
20
-438.263759
11
2703.931277
21
-437.885573
0
LINE
5
999
100
AcDbEntity
8
1
100
AcDbLine
6
DOT2
62
6
10
2702.427996
20
-439.106011
11
2702.592460
21
-438.941548
0
LINE
5
99a
100
AcDbEntity
8
1
100
AcDbLine
6
DOT2
62
6
10
2703.270248
20
-438.263759
11
2703.449663
21
-438.084345
0
LINE
5
99b
100
AcDbEntity
8
1
100
AcDbLine
6
DOT2
62
6
10
2703.592383
20
-437.941625
11
2703.999335
21
-437.534673
0
LINE
5
99c
100
AcDbEntity
8
1
100
AcDbLine
6
DOT2
62
6
10
2702.145154
20
-439.106011
11
2702.309617
21
-438.941548
0
LINE
5
99d
100
AcDbEntity
8
1
100
AcDbLine
6
DOT2
62
6
10
2702.987406
20
-438.263759
11
2703.166820
21
-438.084345
0
LINE
5
99e
100
AcDbEntity
8
1
100
AcDbLine
6
DOT2
62
6
10
2703.592383
20
-437.658782
11
2703.744934
21
-437.506231
0
LINE
5
99f
100
AcDbEntity
8
1
100
AcDbLine
6
DOT2
62
6
10
2701.863643
20
-439.104679
11
2702.026774
21
-438.941548
0
LINE
5
9a0
100
AcDbEntity
8
1
100
AcDbLine
6
DOT2
62
6
10
2702.704563
20
-438.263759
11
2702.883978
21
-438.084345
0
LINE
5
9a1
100
AcDbEntity
8
1
100
AcDbLine
6
DOT2
62
6
10
2704.905255
20
-437.920914
11
2705.235083
21
-438.250742
0
LINE
5
9a2
100
AcDbEntity
8
1
100
AcDbLine
6
DOT2
62
6
10
2701.966090
20
-438.941548
11
2702.130554
21
-439.106011
0
LINE
5
9a3
100
AcDbEntity
8
1
100
AcDbLine
6
DOT2
62
6
10
2702.248933
20
-438.941548
11
2702.413396
21
-439.106011
0
LINE
5
9a4
100
AcDbEntity
8
1
100
AcDbLine
6
DOT2
62
6
10
2702.531776
20
-438.941548
11
2702.696239
21
-439.106011
0
LINE
5
9a5
100
AcDbEntity
8
1
100
AcDbLine
6
DOT2
62
6
10
2702.814618
20
-438.941548
11
2702.979082
21
-439.106011
0
LINE
5
9a6
100
AcDbEntity
8
1
100
AcDbLine
6
DOT2
62
6
10
2702.333641
20
-438.177727
11
2702.419673
21
-438.263759
0
LINE
5
9a7
100
AcDbEntity
8
1
100
AcDbLine
6
DOT2
62
6
10
2703.097461
20
-438.941548
11
2703.261925
21
-439.106011
0
LINE
5
9a8
100
AcDbEntity
8
1
100
AcDbLine
6
DOT2
62
6
10
2702.523101
20
-438.084345
11
2702.702515
21
-438.263759
0
LINE
5
9a9
100
AcDbEntity
8
1
100
AcDbLine
6
DOT2
62
6
10
2703.380304
20
-438.941548
11
2703.544767
21
-439.106011
0
LINE
5
9aa
100
AcDbEntity
8
1
100
AcDbLine
6
DOT2
62
6
10
2702.805943
20
-438.084345
11
2702.985358
21
-438.263759
0
LINE
5
9ab
100
AcDbEntity
8
1
100
AcDbLine
6
DOT2
62
6
10
2703.592383
20
-438.870784
11
2703.827610
21
-439.106011
0
LINE
5
9ac
100
AcDbEntity
8
1
100
AcDbLine
6
DOT2
62
6
10
2703.088786
20
-438.084345
11
2703.268201
21
-438.263759
0
LINE
5
9ad
100
AcDbEntity
8
1
100
AcDbLine
6
DOT2
62
6
10
2703.592383
20
-438.587941
11
2703.931277
21
-438.926836
0
LINE
5
9ae
100
AcDbEntity
8
1
100
AcDbLine
6
DOT2
62
6
10
2703.945989
20
-438.941548
11
2704.110453
21
-439.106011
0
LINE
5
9af
100
AcDbEntity
8
1
100
AcDbLine
6
DOT2
62
6
10
2703.371629
20
-438.084345
11
2703.551043
21
-438.263759
0
LINE
5
9b0
100
AcDbEntity
8
1
100
AcDbLine
6
DOT2
62
6
10
2703.592383
20
-438.305099
11
2703.931277
21
-438.643993
0
LINE
5
9b1
100
AcDbEntity
8
1
100
AcDbLine
6
DOT2
62
6
10
2704.228832
20
-438.941548
11
2704.393295
21
-439.106011
0
LINE
5
9b2
100
AcDbEntity
8
1
100
AcDbLine
6
DOT2
62
6
10
2703.592383
20
-438.022256
11
2703.931277
21
-438.361150
0
LINE
5
9b3
100
AcDbEntity
8
1
100
AcDbLine
6
DOT2
62
6
10
2704.511675
20
-438.941548
11
2704.676138
21
-439.106011
0
LINE
5
9b4
100
AcDbEntity
8
1
100
AcDbLine
6
DOT2
62
6
10
2703.592383
20
-437.739413
11
2703.931277
21
-438.078307
0
LINE
5
9b5
100
AcDbEntity
8
1
100
AcDbLine
6
DOT2
62
6
10
2703.937314
20
-438.084345
11
2704.116729
21
-438.263759
0
LINE
5
9b6
100
AcDbEntity
8
1
100
AcDbLine
6
DOT2
62
6
10
2704.794517
20
-438.941548
11
2704.958981
21
-439.106011
0
LINE
5
9b7
100
AcDbEntity
8
1
100
AcDbLine
6
DOT2
62
6
10
2703.642043
20
-437.506231
11
2703.934035
21
-437.798223
0
LINE
5
9b8
100
AcDbEntity
8
1
100
AcDbLine
6
DOT2
62
6
10
2704.220157
20
-438.084345
11
2704.399571
21
-438.263759
0
LINE
5
9b9
100
AcDbEntity
8
1
100
AcDbLine
6
DOT2
62
6
10
2705.077360
20
-438.941548
11
2705.241824
21
-439.106011
0
LINE
5
9ba
100
AcDbEntity
8
1
100
AcDbLine
6
DOT2
62
6
10
2703.924886
20
-437.506231
11
2704.096322
21
-437.677667
0
LINE
5
9bb
100
AcDbEntity
8
1
100
AcDbLine
6
DOT2
62
6
10
2704.503000
20
-438.084345
11
2704.682414
21
-438.263759
0
LINE
5
9bc
100
AcDbEntity
8
1
100
AcDbLine
6
DOT2
62
6
10
2705.296102
20
-438.877447
11
2705.524666
21
-439.106011
0
LINE
5
9bd
100
AcDbEntity
8
1
100
AcDbLine
6
DOT2
62
6
10
2704.781714
20
-438.080216
11
2704.965257
21
-438.263759
0
LINE
5
9be
100
AcDbEntity
8
1
100
AcDbLine
6
DOT2
62
6
10
2705.428727
20
-438.727229
11
2705.758853
21
-439.057355
0
LINE
5
9bf
100
AcDbEntity
8
1
100
AcDbLine
6
DOT2
62
6
10
2701.961800
20
-435.612410
11
2702.134985
21
-435.439225
0
LINE
5
9c0
100
AcDbEntity
8
1
100
AcDbLine
6
DOT2
62
6
10
2703.160575
20
-437.807747
11
2703.435395
21
-437.532927
0
LINE
5
9c1
100
AcDbEntity
8
1
100
AcDbLine
6
DOT2
62
6
10
2703.111452
20
-437.574027
11
2703.435395
21
-437.250084
0
LINE
5
9c2
100
AcDbEntity
8
1
100
AcDbLine
6
DOT2
62
6
10
2703.111452
20
-437.291185
11
2703.435395
21
-436.967242
0
LINE
5
9c3
100
AcDbEntity
8
1
100
AcDbLine
6
DOT2
62
6
10
2703.844562
20
-436.558074
11
2703.973933
21
-436.428703
0
LINE
5
9c4
100
AcDbEntity
8
1
100
AcDbLine
6
DOT2
62
6
10
2703.111452
20
-437.008342
11
2703.435395
21
-436.684399
0
LINE
5
9c5
100
AcDbEntity
8
1
100
AcDbLine
6
DOT2
62
6
10
2703.561720
20
-436.558074
11
2703.844377
21
-436.275417
0
LINE
5
9c6
100
AcDbEntity
8
1
100
AcDbLine
6
DOT2
62
6
10
2701.865554
20
-437.971397
11
2702.502464
21
-437.334487
0
LINE
5
9c7
100
AcDbEntity
8
1
100
AcDbLine
6
DOT2
62
6
10
2703.111452
20
-436.725499
11
2703.435865
21
-436.401086
0
LINE
5
9c8
100
AcDbEntity
8
1
100
AcDbLine
6
DOT2
62
6
10
2702.165712
20
-437.388397
11
2702.602706
21
-436.951402
0
LINE
5
9c9
100
AcDbEntity
8
1
100
AcDbLine
6
DOT2
62
6
10
2702.996034
20
-436.558074
11
2703.435395
21
-436.118713
0
LINE
5
9ca
100
AcDbEntity
8
1
100
AcDbLine
6
DOT2
62
6
10
2702.287408
20
-436.983858
11
2702.638203
21
-436.633063
0
LINE
5
9cb
100
AcDbEntity
8
1
100
AcDbLine
6
DOT2
62
6
10
2702.713192
20
-436.558074
11
2702.870179
21
-436.401086
0
LINE
5
9cc
100
AcDbEntity
8
1
100
AcDbLine
6
DOT2
62
6
10
2703.111452
20
-436.159814
11
2703.435395
21
-435.835871
0
LINE
5
9cd
100
AcDbEntity
8
1
100
AcDbLine
6
DOT2
62
6
10
2703.658856
20
-435.612410
11
2703.837532
21
-435.433734
0
LINE
5
9ce
100
AcDbEntity
8
1
100
AcDbLine
6
DOT2
62
6
10
2702.311562
20
-436.676861
11
2702.650456
21
-436.337967
0
LINE
5
9cf
100
AcDbEntity
8
1
100
AcDbLine
6
DOT2
62
6
10
2703.111452
20
-435.876971
11
2703.701321
21
-435.287102
0
LINE
5
9d0
100
AcDbEntity
8
1
100
AcDbLine
6
DOT2
62
6
10
2702.147506
20
-436.558074
11
2702.304494
21
-436.401086
0
LINE
5
9d1
100
AcDbEntity
8
1
100
AcDbLine
6
DOT2
62
6
10
2702.346448
20
-436.359132
11
2702.650456
21
-436.055124
0
LINE
5
9d2
100
AcDbEntity
8
1
100
AcDbLine
6
DOT2
62
6
10
2703.093171
20
-435.612410
11
2703.266356
21
-435.439225
0
LINE
5
9d3
100
AcDbEntity
8
1
100
AcDbLine
6
DOT2
62
6
10
2701.864663
20
-436.558074
11
2702.021651
21
-436.401086
0
LINE
5
9d4
100
AcDbEntity
8
1
100
AcDbLine
6
DOT2
62
6
10
2702.346448
20
-436.076290
11
2702.650456
21
-435.772282
0
LINE
5
9d5
100
AcDbEntity
8
1
100
AcDbLine
6
DOT2
62
6
10
2702.810328
20
-435.612410
11
2702.983513
21
-435.439225
0
LINE
5
9d6
100
AcDbEntity
8
1
100
AcDbLine
6
DOT2
62
6
10
2702.346448
20
-435.793447
11
2702.700670
21
-435.439225
0
LINE
5
9d7
100
AcDbEntity
8
1
100
AcDbLine
6
DOT2
62
6
10
2702.244643
20
-435.612410
11
2702.417828
21
-435.439225
0
LINE
5
9d8
100
AcDbEntity
8
1
100
AcDbLine
6
DOT2
62
6
10
2703.607281
20
-435.208727
11
2703.856476
21
-435.457922
0
LINE
5
9d9
100
AcDbEntity
8
1
100
AcDbLine
6
DOT2
62
6
10
2701.931989
20
-437.776075
11
2702.068603
21
-437.912689
0
LINE
5
9da
100
AcDbEntity
8
1
100
AcDbLine
6
DOT2
62
6
10
2702.053498
20
-437.614742
11
2702.215777
21
-437.777021
0
LINE
5
9db
100
AcDbEntity
8
1
100
AcDbLine
6
DOT2
62
6
10
2702.148898
20
-437.427299
11
2702.343383
21
-437.621784
0
LINE
5
9dc
100
AcDbEntity
8
1
100
AcDbLine
6
DOT2
62
6
10
2702.226923
20
-437.222482
11
2702.450593
21
-437.446151
0
LINE
5
9dd
100
AcDbEntity
8
1
100
AcDbLine
6
DOT2
62
6
10
2701.757045
20
-436.469761
11
2701.845358
21
-436.558074
0
LINE
5
9de
100
AcDbEntity
8
1
100
AcDbLine
6
DOT2
62
6
10
2702.284779
20
-436.997495
11
2702.535140
21
-437.247856
0
LINE
5
9df
100
AcDbEntity
8
1
100
AcDbLine
6
DOT2
62
6
10
2701.971213
20
-436.401086
11
2702.128201
21
-436.558074
0
LINE
5
9e0
100
AcDbEntity
8
1
100
AcDbLine
6
DOT2
62
6
10
2702.310770
20
-436.740643
11
2702.592427
21
-437.022300
0
LINE
5
9e1
100
AcDbEntity
8
1
100
AcDbLine
6
DOT2
62
6
10
2703.111452
20
-437.541325
11
2703.377874
21
-437.807747
0
LINE
5
9e2
100
AcDbEntity
8
1
100
AcDbLine
6
DOT2
62
6
10
2702.254056
20
-436.401086
11
2702.622686
21
-436.769716
0
LINE
5
9e3
100
AcDbEntity
8
1
100
AcDbLine
6
DOT2
62
6
10
2703.111452
20
-437.258482
11
2703.435395
21
-437.582425
0
LINE
5
9e4
100
AcDbEntity
8
1
100
AcDbLine
6
DOT2
62
6
10
2702.346448
20
-436.210636
11
2702.693887
21
-436.558074
0
LINE
5
9e5
100
AcDbEntity
8
1
100
AcDbLine
6
DOT2
62
6
10
2703.111452
20
-436.975640
11
2703.435395
21
-437.299583
0
LINE
5
9e6
100
AcDbEntity
8
1
100
AcDbLine
6
DOT2
62
6
10
2701.861404
20
-435.442749
11
2702.031065
21
-435.612410
0
LINE
5
9e7
100
AcDbEntity
8
1
100
AcDbLine
6
DOT2
62
6
10
2702.346448
20
-435.927793
11
2702.650456
21
-436.231801
0
LINE
5
9e8
100
AcDbEntity
8
1
100
AcDbLine
6
DOT2
62
6
10
2702.819741
20
-436.401086
11
2702.976729
21
-436.558074
0
LINE
5
9e9
100
AcDbEntity
8
1
100
AcDbLine
6
DOT2
62
6
10
2703.111452
20
-436.692797
11
2703.435395
21
-437.016740
0
LINE
5
9ea
100
AcDbEntity
8
1
100
AcDbLine
6
DOT2
62
6
10
2702.140722
20
-435.439225
11
2702.313907
21
-435.612410
0
LINE
5
9eb
100
AcDbEntity
8
1
100
AcDbLine
6
DOT2
62
6
10
2702.346448
20
-435.644950
11
2702.650456
21
-435.948958
0
LINE
5
9ec
100
AcDbEntity
8
1
100
AcDbLine
6
DOT2
62
6
10
2703.102584
20
-436.401086
11
2703.435395
21
-436.733897
0
LINE
5
9ed
100
AcDbEntity
8
1
100
AcDbLine
6
DOT2
62
6
10
2702.423565
20
-435.439225
11
2702.650456
21
-435.666115
0
LINE
5
9ee
100
AcDbEntity
8
1
100
AcDbLine
6
DOT2
62
6
10
2703.111452
20
-436.127111
11
2703.542415
21
-436.558074
0
LINE
5
9ef
100
AcDbEntity
8
1
100
AcDbLine
6
DOT2
62
6
10
2702.706408
20
-435.439225
11
2702.879593
21
-435.612410
0
LINE
5
9f0
100
AcDbEntity
8
1
100
AcDbLine
6
DOT2
62
6
10
2703.111452
20
-435.844269
11
2703.435395
21
-436.168212
0
LINE
5
9f1
100
AcDbEntity
8
1
100
AcDbLine
6
DOT2
62
6
10
2703.584385
20
-436.317201
11
2703.825257
21
-436.558074
0
LINE
5
9f2
100
AcDbEntity
8
1
100
AcDbLine
6
DOT2
62
6
10
2702.989251
20
-435.439225
11
2703.435395
21
-435.885369
0
LINE
5
9f3
100
AcDbEntity
8
1
100
AcDbLine
6
DOT2
62
6
10
2703.705720
20
-436.155694
11
2703.947749
21
-436.397724
0
LINE
5
9f4
100
AcDbEntity
8
1
100
AcDbLine
6
DOT2
62
6
10
2703.272093
20
-435.439225
11
2703.445278
21
-435.612410
0
LINE
5
9f5
100
AcDbEntity
8
1
100
AcDbLine
6
DOT2
62
6
10
2703.471092
20
-435.355381
11
2703.728121
21
-435.612410
0
LINE
5
9f6
100
AcDbEntity
8
1
100
AcDbLine
6
DOT2
62
6
10
2703.581117
20
-444.741116
11
2703.858026
21
-444.464207
0
LINE
5
9f7
100
AcDbEntity
8
1
100
AcDbLine
6
DOT2
62
6
10
2704.277088
20
-448.287785
11
2704.310252
21
-448.254621
0
LINE
5
9f8
100
AcDbEntity
8
1
100
AcDbLine
6
DOT2
62
6
10
2705.429734
20
-447.135139
11
2705.518567
21
-447.046306
0
LINE
5
9f9
100
AcDbEntity
8
1
100
AcDbLine
6
DOT2
62
6
10
2703.994245
20
-448.287785
11
2704.310252
21
-447.971778
0
LINE
5
9fa
100
AcDbEntity
8
1
100
AcDbLine
6
DOT2
62
6
10
2705.146891
20
-447.135139
11
2705.391776
21
-446.890255
0
LINE
5
9fb
100
AcDbEntity
8
1
100
AcDbLine
6
DOT2
62
6
10
2703.989622
20
-448.009566
11
2704.310252
21
-447.688935
0
LINE
5
9fc
100
AcDbEntity
8
1
100
AcDbLine
6
DOT2
62
6
10
2704.864048
20
-447.135139
11
2705.018276
21
-446.980912
0
LINE
5
9fd
100
AcDbEntity
8
1
100
AcDbLine
6
DOT2
62
6
10
2705.084909
20
-446.914279
11
2705.237441
21
-446.761747
0
LINE
5
9fe
100
AcDbEntity
8
1
100
AcDbLine
6
DOT2
62
6
10
2703.989622
20
-447.726723
11
2704.310252
21
-447.406093
0
LINE
5
9ff
100
AcDbEntity
8
1
100
AcDbLine
6
DOT2
62
6
10
2704.581206
20
-447.135139
11
2704.735433
21
-446.980912
0
LINE
5
a00
100
AcDbEntity
8
1
100
AcDbLine
6
DOT2
62
6
10
2703.989622
20
-447.443880
11
2704.452590
21
-446.980912
0
LINE
5
a01
100
AcDbEntity
8
1
100
AcDbLine
6
DOT2
62
6
10
2705.183140
20
-446.250362
11
2705.410396
21
-446.023107
0
LINE
5
a02
100
AcDbEntity
8
1
100
AcDbLine
6
DOT2
62
6
10
2703.989622
20
-447.161038
11
2704.310252
21
-446.840407
0
LINE
5
a03
100
AcDbEntity
8
1
100
AcDbLine
6
DOT2
62
6
10
2704.900298
20
-446.250362
11
2705.278950
21
-445.871710
0
LINE
5
a04
100
AcDbEntity
8
1
100
AcDbLine
6
DOT2
62
6
10
2703.989622
20
-446.878195
11
2704.310252
21
-446.557565
0
LINE
5
a05
100
AcDbEntity
8
1
100
AcDbLine
6
DOT2
62
6
10
2704.617455
20
-446.250362
11
2704.783858
21
-446.083959
0
LINE
5
a06
100
AcDbEntity
8
1
100
AcDbLine
6
DOT2
62
6
10
2705.559053
20
-445.308764
11
2705.643421
21
-445.224396
0
LINE
5
a07
100
AcDbEntity
8
1
100
AcDbLine
6
DOT2
62
6
10
2703.989622
20
-446.595352
11
2704.310252
21
-446.274722
0
LINE
5
a08
100
AcDbEntity
8
1
100
AcDbLine
6
DOT2
62
6
10
2704.334612
20
-446.250362
11
2704.501015
21
-446.083959
0
LINE
5
a09
100
AcDbEntity
8
1
100
AcDbLine
6
DOT2
62
6
10
2705.276210
20
-445.308764
11
2705.518660
21
-445.066315
0
LINE
5
a0a
100
AcDbEntity
8
1
100
AcDbLine
6
DOT2
62
6
10
2703.989622
20
-446.312509
11
2704.310252
21
-445.991879
0
LINE
5
a0b
100
AcDbEntity
8
1
100
AcDbLine
6
DOT2
62
6
10
2704.993367
20
-445.308764
11
2705.360672
21
-444.941460
0
LINE
5
a0c
100
AcDbEntity
8
1
100
AcDbLine
6
DOT2
62
6
10
2703.989622
20
-446.029667
11
2704.310252
21
-445.709036
0
LINE
5
a0d
100
AcDbEntity
8
1
100
AcDbLine
6
DOT2
62
6
10
2704.710525
20
-445.308764
11
2704.844459
21
-445.174830
0
LINE
5
a0e
100
AcDbEntity
8
1
100
AcDbLine
6
DOT2
62
6
10
2703.989622
20
-445.746824
11
2704.310252
21
-445.426194
0
LINE
5
a0f
100
AcDbEntity
8
1
100
AcDbLine
6
DOT2
62
6
10
2704.427682
20
-445.308764
11
2704.561616
21
-445.174830
0
LINE
5
a10
100
AcDbEntity
8
1
100
AcDbLine
6
DOT2
62
6
10
2702.954937
20
-446.498667
11
2703.054648
21
-446.398956
0
LINE
5
a11
100
AcDbEntity
8
1
100
AcDbLine
6
DOT2
62
6
10
2703.989622
20
-445.463981
11
2704.278773
21
-445.174830
0
LINE
5
a12
100
AcDbEntity
8
1
100
AcDbLine
6
DOT2
62
6
10
2703.063904
20
-446.106857
11
2703.612555
21
-445.558206
0
LINE
5
a13
100
AcDbEntity
8
1
100
AcDbLine
6
DOT2
62
6
10
2703.861996
20
-445.308764
11
2703.995931
21
-445.174830
0
LINE
5
a14
100
AcDbEntity
8
1
100
AcDbLine
6
DOT2
62
6
10
2703.318951
20
-445.568967
11
2703.794349
21
-445.093569
0
LINE
5
a15
100
AcDbEntity
8
1
100
AcDbLine
6
DOT2
62
6
10
2703.476798
20
-445.128277
11
2703.890041
21
-444.715034
0
LINE
5
a16
100
AcDbEntity
8
1
100
AcDbLine
6
DOT2
62
6
10
2703.900252
20
-444.704823
11
2704.058673
21
-444.546403
0
LINE
5
a17
100
AcDbEntity
8
1
100
AcDbLine
6
DOT2
62
6
10
2704.241260
20
-448.287785
11
2703.989622
21
-448.036147
0
LINE
5
a18
100
AcDbEntity
8
1
100
AcDbLine
6
DOT2
62
6
10
2705.504880
20
-445.308764
11
2705.230707
21
-445.034592
0
LINE
5
a19
100
AcDbEntity
8
1
100
AcDbLine
6
DOT2
62
6
10
2705.222037
20
-445.308764
11
2705.088103
21
-445.174830
0
LINE
5
a1a
100
AcDbEntity
8
1
100
AcDbLine
6
DOT2
62
6
10
2704.939194
20
-445.308764
11
2704.805260
21
-445.174830
0
LINE
5
a1b
100
AcDbEntity
8
1
100
AcDbLine
6
DOT2
62
6
10
2705.496091
20
-446.148504
11
2705.218469
21
-445.870882
0
LINE
5
a1c
100
AcDbEntity
8
1
100
AcDbLine
6
DOT2
62
6
10
2704.656351
20
-445.308764
11
2704.522417
21
-445.174830
0
LINE
5
a1d
100
AcDbEntity
8
1
100
AcDbLine
6
DOT2
62
6
10
2704.001019
20
-444.653432
11
2703.779713
21
-444.432125
0
LINE
5
a1e
100
AcDbEntity
8
1
100
AcDbLine
6
DOT2
62
6
10
2705.315107
20
-446.250362
11
2705.072485
21
-446.007740
0
LINE
5
a1f
100
AcDbEntity
8
1
100
AcDbLine
6
DOT2
62
6
10
2704.373509
20
-445.308764
11
2704.239575
21
-445.174830
0
LINE
5
a20
100
AcDbEntity
8
1
100
AcDbLine
6
DOT2
62
6
10
2703.871005
20
-444.806260
11
2703.620335
21
-444.555591
0
LINE
5
a21
100
AcDbEntity
8
1
100
AcDbLine
6
DOT2
62
6
10
2705.032264
20
-446.250362
11
2704.865861
21
-446.083959
0
LINE
5
a22
100
AcDbEntity
8
1
100
AcDbLine
6
DOT2
62
6
10
2704.310252
20
-445.528351
11
2703.956732
21
-445.174830
0
LINE
5
a23
100
AcDbEntity
8
1
100
AcDbLine
6
DOT2
62
6
10
2703.813174
20
-445.031272
11
2703.570077
21
-444.788175
0
LINE
5
a24
100
AcDbEntity
8
1
100
AcDbLine
6
DOT2
62
6
10
2705.402443
20
-446.903384
11
2705.260806
21
-446.761747
0
LINE
5
a25
100
AcDbEntity
8
1
100
AcDbLine
6
DOT2
62
6
10
2704.749421
20
-446.250362
11
2704.583018
21
-446.083959
0
LINE
5
a26
100
AcDbEntity
8
1
100
AcDbLine
6
DOT2
62
6
10
2704.310252
20
-445.811193
11
2703.989622
21
-445.490563
0
LINE
5
a27
100
AcDbEntity
8
1
100
AcDbLine
6
DOT2
62
6
10
2703.807823
20
-445.308764
11
2703.511319
21
-445.012260
0
LINE
5
a28
100
AcDbEntity
8
1
100
AcDbLine
6
DOT2
62
6
10
2705.351356
20
-447.135139
11
2705.104719
21
-446.888502
0
LINE
5
a29
100
AcDbEntity
8
1
100
AcDbLine
6
DOT2
62
6
10
2704.466578
20
-446.250362
11
2703.989622
21
-445.773406
0
LINE
5
a2a
100
AcDbEntity
8
1
100
AcDbLine
6
DOT2
62
6
10
2703.663086
20
-445.446869
11
2703.444681
21
-445.228464
0
LINE
5
a2b
100
AcDbEntity
8
1
100
AcDbLine
6
DOT2
62
6
10
2705.068513
20
-447.135139
11
2704.914286
21
-446.980912
0
LINE
5
a2c
100
AcDbEntity
8
1
100
AcDbLine
6
DOT2
62
6
10
2704.310252
20
-446.376879
11
2703.989622
21
-446.056248
0
LINE
5
a2d
100
AcDbEntity
8
1
100
AcDbLine
6
DOT2
62
6
10
2703.572744
20
-445.639371
11
2703.370673
21
-445.437299
0
LINE
5
a2e
100
AcDbEntity
8
1
100
AcDbLine
6
DOT2
62
6
10
2704.785670
20
-447.135139
11
2704.631443
21
-446.980912
0
LINE
5
a2f
100
AcDbEntity
8
1
100
AcDbLine
6
DOT2
62
6
10
2704.310252
20
-446.659721
11
2703.989622
21
-446.339091
0
LINE
5
a30
100
AcDbEntity
8
1
100
AcDbLine
6
DOT2
62
6
10
2703.473107
20
-445.822576
11
2703.289717
21
-445.639186
0
LINE
5
a31
100
AcDbEntity
8
1
100
AcDbLine
6
DOT2
62
6
10
2704.502828
20
-447.135139
11
2704.348600
21
-446.980912
0
LINE
5
a32
100
AcDbEntity
8
1
100
AcDbLine
6
DOT2
62
6
10
2704.310252
20
-446.942564
11
2703.989622
21
-446.621934
0
LINE
5
a33
100
AcDbEntity
8
1
100
AcDbLine
6
DOT2
62
6
10
2703.364647
20
-445.996958
11
2703.202165
21
-445.834477
0
LINE
5
a34
100
AcDbEntity
8
1
100
AcDbLine
6
DOT2
62
6
10
2704.310252
20
-447.225407
11
2703.989622
21
-446.904777
0
LINE
5
a35
100
AcDbEntity
8
1
100
AcDbLine
6
DOT2
62
6
10
2703.247714
20
-446.162869
11
2703.108311
21
-446.023465
0
LINE
5
a36
100
AcDbEntity
8
1
100
AcDbLine
6
DOT2
62
6
10
2704.310252
20
-447.508250
11
2703.989622
21
-447.187619
0
LINE
5
a37
100
AcDbEntity
8
1
100
AcDbLine
6
DOT2
62
6
10
2703.122560
20
-446.320557
11
2703.008399
21
-446.206396
0
LINE
5
a38
100
AcDbEntity
8
1
100
AcDbLine
6
DOT2
62
6
10
2704.310252
20
-447.791092
11
2703.989622
21
-447.470462
0
LINE
5
a39
100
AcDbEntity
8
1
100
AcDbLine
6
DOT2
62
6
10
2702.989342
20
-446.470182
11
2702.902633
21
-446.383473
0
LINE
5
a3a
100
AcDbEntity
8
1
100
AcDbLine
6
DOT2
62
6
10
2704.310252
20
-448.073935
11
2703.989622
21
-447.753305
0
LINE
5
a3b
100
AcDbEntity
8
1
100
AcDbLine
6
DOT2
62
6
10
2707.443055
20
-434.236175
11
2707.561830
21
-434.354950
0
LINE
5
a3c
100
AcDbEntity
8
1
100
AcDbLine
6
DOT2
62
6
10
2707.261830
20
-441.974546
11
2707.561830
21
-442.274546
0
LINE
5
a3d
100
AcDbEntity
8
1
100
AcDbLine
6
DOT2
62
6
10
2699.961830
20
-434.391703
11
2700.261830
21
-434.691703
0
LINE
5
a3e
100
AcDbEntity
8
1
100
AcDbLine
6
DOT2
62
6
10
2707.261830
20
-441.691703
11
2707.561830
21
-441.991703
0
LINE
5
a3f
100
AcDbEntity
8
1
100
AcDbLine
6
DOT2
62
6
10
2700.089144
20
-434.236175
11
2700.389144
21
-434.536175
0
LINE
5
a40
100
AcDbEntity
8
1
100
AcDbLine
6
DOT2
62
6
10
2707.261830
20
-441.408860
11
2707.561830
21
-441.708860
0
LINE
5
a41
100
AcDbEntity
8
1
100
AcDbLine
6
DOT2
62
6
10
2700.371987
20
-434.236175
11
2700.671987
21
-434.536175
0
LINE
5
a42
100
AcDbEntity
8
1
100
AcDbLine
6
DOT2
62
6
10
2707.261830
20
-441.126018
11
2707.561830
21
-441.426018
0
LINE
5
a43
100
AcDbEntity
8
1
100
AcDbLine
6
DOT2
62
6
10
2700.654830
20
-434.236175
11
2700.954830
21
-434.536175
0
LINE
5
a44
100
AcDbEntity
8
1
100
AcDbLine
6
DOT2
62
6
10
2707.261830
20
-440.843175
11
2707.561830
21
-441.143175
0
LINE
5
a45
100
AcDbEntity
8
1
100
AcDbLine
6
DOT2
62
6
10
2700.937672
20
-434.236175
11
2701.237672
21
-434.536175
0
LINE
5
a46
100
AcDbEntity
8
1
100
AcDbLine
6
DOT2
62
6
10
2707.261830
20
-440.560332
11
2707.561830
21
-440.860332
0
LINE
5
a47
100
AcDbEntity
8
1
100
AcDbLine
6
DOT2
62
6
10
2701.220515
20
-434.236175
11
2701.520515
21
-434.536175
0
LINE
5
a48
100
AcDbEntity
8
1
100
AcDbLine
6
DOT2
62
6
10
2707.261830
20
-440.277489
11
2707.561830
21
-440.577489
0
LINE
5
a49
100
AcDbEntity
8
1
100
AcDbLine
6
DOT2
62
6
10
2701.503358
20
-434.236175
11
2701.803358
21
-434.536175
0
LINE
5
a4a
100
AcDbEntity
8
1
100
AcDbLine
6
DOT2
62
6
10
2707.261830
20
-439.994647
11
2707.561830
21
-440.294647
0
LINE
5
a4b
100
AcDbEntity
8
1
100
AcDbLine
6
DOT2
62
6
10
2701.786201
20
-434.236175
11
2702.086201
21
-434.536175
0
LINE
5
a4c
100
AcDbEntity
8
1
100
AcDbLine
6
DOT2
62
6
10
2707.261830
20
-439.711804
11
2707.561830
21
-440.011804
0
LINE
5
a4d
100
AcDbEntity
8
1
100
AcDbLine
6
DOT2
62
6
10
2702.069043
20
-434.236175
11
2702.369043
21
-434.536175
0
LINE
5
a4e
100
AcDbEntity
8
1
100
AcDbLine
6
DOT2
62
6
10
2707.261830
20
-439.428961
11
2707.561830
21
-439.728961
0
LINE
5
a4f
100
AcDbEntity
8
1
100
AcDbLine
6
DOT2
62
6
10
2702.351886
20
-434.236175
11
2702.651886
21
-434.536175
0
LINE
5
a50
100
AcDbEntity
8
1
100
AcDbLine
6
DOT2
62
6
10
2707.261830
20
-439.146119
11
2707.561830
21
-439.446119
0
LINE
5
a51
100
AcDbEntity
8
1
100
AcDbLine
6
DOT2
62
6
10
2702.634729
20
-434.236175
11
2702.934729
21
-434.536175
0
LINE
5
a52
100
AcDbEntity
8
1
100
AcDbLine
6
DOT2
62
6
10
2707.261830
20
-438.863276
11
2707.561830
21
-439.163276
0
LINE
5
a53
100
AcDbEntity
8
1
100
AcDbLine
6
DOT2
62
6
10
2702.917571
20
-434.236175
11
2703.217571
21
-434.536175
0
LINE
5
a54
100
AcDbEntity
8
1
100
AcDbLine
6
DOT2
62
6
10
2707.261830
20
-438.580433
11
2707.561830
21
-438.880433
0
LINE
5
a55
100
AcDbEntity
8
1
100
AcDbLine
6
DOT2
62
6
10
2703.200414
20
-434.236175
11
2703.500414
21
-434.536175
0
LINE
5
a56
100
AcDbEntity
8
1
100
AcDbLine
6
DOT2
62
6
10
2707.261830
20
-438.297590
11
2707.561830
21
-438.597590
0
LINE
5
a57
100
AcDbEntity
8
1
100
AcDbLine
6
DOT2
62
6
10
2703.483257
20
-434.236175
11
2703.783257
21
-434.536175
0
LINE
5
a58
100
AcDbEntity
8
1
100
AcDbLine
6
DOT2
62
6
10
2707.261830
20
-438.014748
11
2707.561830
21
-438.314748
0
LINE
5
a59
100
AcDbEntity
8
1
100
AcDbLine
6
DOT2
62
6
10
2703.766100
20
-434.236175
11
2704.066100
21
-434.536175
0
LINE
5
a5a
100
AcDbEntity
8
1
100
AcDbLine
6
DOT2
62
6
10
2707.261830
20
-437.731905
11
2707.561830
21
-438.031905
0
LINE
5
a5b
100
AcDbEntity
8
1
100
AcDbLine
6
DOT2
62
6
10
2704.048942
20
-434.236175
11
2704.348942
21
-434.536175
0
LINE
5
a5c
100
AcDbEntity
8
1
100
AcDbLine
6
DOT2
62
6
10
2707.261830
20
-437.449062
11
2707.561830
21
-437.749062
0
LINE
5
a5d
100
AcDbEntity
8
1
100
AcDbLine
6
DOT2
62
6
10
2704.331785
20
-434.236175
11
2704.631785
21
-434.536175
0
LINE
5
a5e
100
AcDbEntity
8
1
100
AcDbLine
6
DOT2
62
6
10
2707.261830
20
-437.166220
11
2707.561830
21
-437.466220
0
LINE
5
a5f
100
AcDbEntity
8
1
100
AcDbLine
6
DOT2
62
6
10
2704.614628
20
-434.236175
11
2704.914628
21
-434.536175
0
LINE
5
a60
100
AcDbEntity
8
1
100
AcDbLine
6
DOT2
62
6
10
2707.261830
20
-436.883377
11
2707.561830
21
-437.183377
0
LINE
5
a61
100
AcDbEntity
8
1
100
AcDbLine
6
DOT2
62
6
10
2704.897470
20
-434.236175
11
2705.197470
21
-434.536175
0
LINE
5
a62
100
AcDbEntity
8
1
100
AcDbLine
6
DOT2
62
6
10
2707.261830
20
-436.600534
11
2707.561830
21
-436.900534
0
LINE
5
a63
100
AcDbEntity
8
1
100
AcDbLine
6
DOT2
62
6
10
2705.180313
20
-434.236175
11
2705.480313
21
-434.536175
0
LINE
5
a64
100
AcDbEntity
8
1
100
AcDbLine
6
DOT2
62
6
10
2707.261830
20
-436.317691
11
2707.561830
21
-436.617691
0
LINE
5
a65
100
AcDbEntity
8
1
100
AcDbLine
6
DOT2
62
6
10
2705.463156
20
-434.236175
11
2705.763156
21
-434.536175
0
LINE
5
a66
100
AcDbEntity
8
1
100
AcDbLine
6
DOT2
62
6
10
2707.261830
20
-436.034849
11
2707.561830
21
-436.334849
0
LINE
5
a67
100
AcDbEntity
8
1
100
AcDbLine
6
DOT2
62
6
10
2705.745999
20
-434.236175
11
2706.045999
21
-434.536175
0
LINE
5
a68
100
AcDbEntity
8
1
100
AcDbLine
6
DOT2
62
6
10
2707.261830
20
-435.752006
11
2707.561830
21
-436.052006
0
LINE
5
a69
100
AcDbEntity
8
1
100
AcDbLine
6
DOT2
62
6
10
2706.028841
20
-434.236175
11
2706.328841
21
-434.536175
0
LINE
5
a6a
100
AcDbEntity
8
1
100
AcDbLine
6
DOT2
62
6
10
2707.261830
20
-435.469163
11
2707.561830
21
-435.769163
0
LINE
5
a6b
100
AcDbEntity
8
1
100
AcDbLine
6
DOT2
62
6
10
2706.311684
20
-434.236175
11
2706.611684
21
-434.536175
0
LINE
5
a6c
100
AcDbEntity
8
1
100
AcDbLine
6
DOT2
62
6
10
2707.261830
20
-435.186321
11
2707.561830
21
-435.486321
0
LINE
5
a6d
100
AcDbEntity
8
1
100
AcDbLine
6
DOT2
62
6
10
2706.594527
20
-434.236175
11
2706.894527
21
-434.536175
0
LINE
5
a6e
100
AcDbEntity
8
1
100
AcDbLine
6
DOT2
62
6
10
2707.261830
20
-434.903478
11
2707.561830
21
-435.203478
0
LINE
5
a6f
100
AcDbEntity
8
1
100
AcDbLine
6
DOT2
62
6
10
2706.877369
20
-434.236175
11
2707.177369
21
-434.536175
0
LINE
5
a70
100
AcDbEntity
8
1
100
AcDbLine
6
DOT2
62
6
10
2707.261830
20
-434.620635
11
2707.561830
21
-434.920635
0
LINE
5
a71
100
AcDbEntity
8
1
100
AcDbLine
6
DOT2
62
6
10
2707.160212
20
-434.236175
11
2707.561830
21
-434.637793
0
LINE
5
a72
100
AcDbEntity
8
1
100
AcDbLine
6
DOT2
62
6
10
2699.961830
20
-434.674546
11
2700.261830
21
-434.974546
0
LINE
5
a73
100
AcDbEntity
8
1
100
AcDbLine
6
DOT2
62
6
10
2699.961830
20
-449.099524
11
2700.098480
21
-449.236175
0
LINE
5
a74
100
AcDbEntity
8
1
100
AcDbLine
6
DOT2
62
6
10
2699.961830
20
-448.816681
11
2700.381323
21
-449.236175
0
LINE
5
a75
100
AcDbEntity
8
1
100
AcDbLine
6
DOT2
62
6
10
2699.961830
20
-448.533839
11
2700.261830
21
-448.833839
0
LINE
5
a76
100
AcDbEntity
8
1
100
AcDbLine
6
DOT2
62
6
10
2700.364166
20
-448.936175
11
2700.664166
21
-449.236175
0
LINE
5
a77
100
AcDbEntity
8
1
100
AcDbLine
6
DOT2
62
6
10
2699.961830
20
-448.250996
11
2700.261830
21
-448.550996
0
LINE
5
a78
100
AcDbEntity
8
1
100
AcDbLine
6
DOT2
62
6
10
2700.647009
20
-448.936175
11
2700.947009
21
-449.236175
0
LINE
5
a79
100
AcDbEntity
8
1
100
AcDbLine
6
DOT2
62
6
10
2699.961830
20
-447.968153
11
2700.261830
21
-448.268153
0
LINE
5
a7a
100
AcDbEntity
8
1
100
AcDbLine
6
DOT2
62
6
10
2700.929851
20
-448.936175
11
2701.229851
21
-449.236175
0
LINE
5
a7b
100
AcDbEntity
8
1
100
AcDbLine
6
DOT2
62
6
10
2699.961830
20
-447.685311
11
2700.261830
21
-447.985311
0
LINE
5
a7c
100
AcDbEntity
8
1
100
AcDbLine
6
DOT2
62
6
10
2701.212694
20
-448.936175
11
2701.512694
21
-449.236175
0
LINE
5
a7d
100
AcDbEntity
8
1
100
AcDbLine
6
DOT2
62
6
10
2699.961830
20
-447.402468
11
2700.261830
21
-447.702468
0
LINE
5
a7e
100
AcDbEntity
8
1
100
AcDbLine
6
DOT2
62
6
10
2701.495537
20
-448.936175
11
2701.795537
21
-449.236175
0
LINE
5
a7f
100
AcDbEntity
8
1
100
AcDbLine
6
DOT2
62
6
10
2699.961830
20
-447.119625
11
2700.261830
21
-447.419625
0
LINE
5
a80
100
AcDbEntity
8
1
100
AcDbLine
6
DOT2
62
6
10
2701.778379
20
-448.936175
11
2702.078379
21
-449.236175
0
LINE
5
a81
100
AcDbEntity
8
1
100
AcDbLine
6
DOT2
62
6
10
2699.961830
20
-446.836782
11
2700.261830
21
-447.136782
0
LINE
5
a82
100
AcDbEntity
8
1
100
AcDbLine
6
DOT2
62
6
10
2702.061222
20
-448.936175
11
2702.361222
21
-449.236175
0
LINE
5
a83
100
AcDbEntity
8
1
100
AcDbLine
6
DOT2
62
6
10
2699.961830
20
-446.553940
11
2700.261830
21
-446.853940
0
LINE
5
a84
100
AcDbEntity
8
1
100
AcDbLine
6
DOT2
62
6
10
2702.344065
20
-448.936175
11
2702.644065
21
-449.236175
0
LINE
5
a85
100
AcDbEntity
8
1
100
AcDbLine
6
DOT2
62
6
10
2699.961830
20
-446.271097
11
2700.261830
21
-446.571097
0
LINE
5
a86
100
AcDbEntity
8
1
100
AcDbLine
6
DOT2
62
6
10
2702.626908
20
-448.936175
11
2702.926908
21
-449.236175
0
LINE
5
a87
100
AcDbEntity
8
1
100
AcDbLine
6
DOT2
62
6
10
2699.961830
20
-445.988254
11
2700.261830
21
-446.288254
0
LINE
5
a88
100
AcDbEntity
8
1
100
AcDbLine
6
DOT2
62
6
10
2702.909750
20
-448.936175
11
2703.209750
21
-449.236175
0
LINE
5
a89
100
AcDbEntity
8
1
100
AcDbLine
6
DOT2
62
6
10
2699.961830
20
-445.705412
11
2700.261830
21
-446.005412
0
LINE
5
a8a
100
AcDbEntity
8
1
100
AcDbLine
6
DOT2
62
6
10
2703.192593
20
-448.936175
11
2703.492593
21
-449.236175
0
LINE
5
a8b
100
AcDbEntity
8
1
100
AcDbLine
6
DOT2
62
6
10
2699.961830
20
-445.422569
11
2700.261830
21
-445.722569
0
LINE
5
a8c
100
AcDbEntity
8
1
100
AcDbLine
6
DOT2
62
6
10
2703.475436
20
-448.936175
11
2703.775436
21
-449.236175
0
LINE
5
a8d
100
AcDbEntity
8
1
100
AcDbLine
6
DOT2
62
6
10
2699.961830
20
-445.139726
11
2700.261830
21
-445.439726
0
LINE
5
a8e
100
AcDbEntity
8
1
100
AcDbLine
6
DOT2
62
6
10
2703.758278
20
-448.936175
11
2704.058278
21
-449.236175
0
LINE
5
a8f
100
AcDbEntity
8
1
100
AcDbLine
6
DOT2
62
6
10
2699.961830
20
-444.856883
11
2700.261830
21
-445.156883
0
LINE
5
a90
100
AcDbEntity
8
1
100
AcDbLine
6
DOT2
62
6
10
2704.041121
20
-448.936175
11
2704.341121
21
-449.236175
0
LINE
5
a91
100
AcDbEntity
8
1
100
AcDbLine
6
DOT2
62
6
10
2699.961830
20
-444.574041
11
2700.261830
21
-444.874041
0
LINE
5
a92
100
AcDbEntity
8
1
100
AcDbLine
6
DOT2
62
6
10
2704.323964
20
-448.936175
11
2704.623964
21
-449.236175
0
LINE
5
a93
100
AcDbEntity
8
1
100
AcDbLine
6
DOT2
62
6
10
2699.961830
20
-444.291198
11
2700.261830
21
-444.591198
0
LINE
5
a94
100
AcDbEntity
8
1
100
AcDbLine
6
DOT2
62
6
10
2704.606807
20
-448.936175
11
2704.906807
21
-449.236175
0
LINE
5
a95
100
AcDbEntity
8
1
100
AcDbLine
6
DOT2
62
6
10
2699.961830
20
-444.008355
11
2700.261830
21
-444.308355
0
LINE
5
a96
100
AcDbEntity
8
1
100
AcDbLine
6
DOT2
62
6
10
2704.889649
20
-448.936175
11
2705.189649
21
-449.236175
0
LINE
5
a97
100
AcDbEntity
8
1
100
AcDbLine
6
DOT2
62
6
10
2699.961830
20
-443.725513
11
2700.261830
21
-444.025513
0
LINE
5
a98
100
AcDbEntity
8
1
100
AcDbLine
6
DOT2
62
6
10
2705.172492
20
-448.936175
11
2705.472492
21
-449.236175
0
LINE
5
a99
100
AcDbEntity
8
1
100
AcDbLine
6
DOT2
62
6
10
2699.961830
20
-443.442670
11
2700.261830
21
-443.742670
0
LINE
5
a9a
100
AcDbEntity
8
1
100
AcDbLine
6
DOT2
62
6
10
2705.455335
20
-448.936175
11
2705.755335
21
-449.236175
0
LINE
5
a9b
100
AcDbEntity
8
1
100
AcDbLine
6
DOT2
62
6
10
2699.961830
20
-443.159827
11
2700.261830
21
-443.459827
0
LINE
5
a9c
100
AcDbEntity
8
1
100
AcDbLine
6
DOT2
62
6
10
2705.738177
20
-448.936175
11
2706.038177
21
-449.236175
0
LINE
5
a9d
100
AcDbEntity
8
1
100
AcDbLine
6
DOT2
62
6
10
2699.961830
20
-442.876984
11
2700.261830
21
-443.176984
0
LINE
5
a9e
100
AcDbEntity
8
1
100
AcDbLine
6
DOT2
62
6
10
2706.021020
20
-448.936175
11
2706.321020
21
-449.236175
0
LINE
5
a9f
100
AcDbEntity
8
1
100
AcDbLine
6
DOT2
62
6
10
2699.961830
20
-442.594142
11
2700.261830
21
-442.894142
0
LINE
5
aa0
100
AcDbEntity
8
1
100
AcDbLine
6
DOT2
62
6
10
2706.303863
20
-448.936175
11
2706.603863
21
-449.236175
0
LINE
5
aa1
100
AcDbEntity
8
1
100
AcDbLine
6
DOT2
62
6
10
2699.961830
20
-442.311299
11
2700.261830
21
-442.611299
0
LINE
5
aa2
100
AcDbEntity
8
1
100
AcDbLine
6
DOT2
62
6
10
2706.586706
20
-448.936175
11
2706.886706
21
-449.236175
0
LINE
5
aa3
100
AcDbEntity
8
1
100
AcDbLine
6
DOT2
62
6
10
2699.961830
20
-442.028456
11
2700.261830
21
-442.328456
0
LINE
5
aa4
100
AcDbEntity
8
1
100
AcDbLine
6
DOT2
62
6
10
2706.869548
20
-448.936175
11
2707.169548
21
-449.236175
0
LINE
5
aa5
100
AcDbEntity
8
1
100
AcDbLine
6
DOT2
62
6
10
2699.961830
20
-441.745614
11
2700.261830
21
-442.045614
0
LINE
5
aa6
100
AcDbEntity
8
1
100
AcDbLine
6
DOT2
62
6
10
2707.152391
20
-448.936175
11
2707.452391
21
-449.236175
0
LINE
5
aa7
100
AcDbEntity
8
1
100
AcDbLine
6
DOT2
62
6
10
2699.961830
20
-441.462771
11
2700.261830
21
-441.762771
0
LINE
5
aa8
100
AcDbEntity
8
1
100
AcDbLine
6
DOT2
62
6
10
2707.261830
20
-448.762771
11
2707.561830
21
-449.062771
0
LINE
5
aa9
100
AcDbEntity
8
1
100
AcDbLine
6
DOT2
62
6
10
2699.961830
20
-441.179928
11
2700.261830
21
-441.479928
0
LINE
5
aaa
100
AcDbEntity
8
1
100
AcDbLine
6
DOT2
62
6
10
2707.261830
20
-448.479928
11
2707.561830
21
-448.779928
0
LINE
5
aab
100
AcDbEntity
8
1
100
AcDbLine
6
DOT2
62
6
10
2699.961830
20
-440.897085
11
2700.261830
21
-441.197085
0
LINE
5
aac
100
AcDbEntity
8
1
100
AcDbLine
6
DOT2
62
6
10
2707.261830
20
-448.197085
11
2707.561830
21
-448.497085
0
LINE
5
aad
100
AcDbEntity
8
1
100
AcDbLine
6
DOT2
62
6
10
2699.961830
20
-440.614243
11
2700.261830
21
-440.914243
0
LINE
5
aae
100
AcDbEntity
8
1
100
AcDbLine
6
DOT2
62
6
10
2707.261830
20
-447.914243
11
2707.561830
21
-448.214243
0
LINE
5
aaf
100
AcDbEntity
8
1
100
AcDbLine
6
DOT2
62
6
10
2699.961830
20
-440.331400
11
2700.261830
21
-440.631400
0
LINE
5
ab0
100
AcDbEntity
8
1
100
AcDbLine
6
DOT2
62
6
10
2707.261830
20
-447.631400
11
2707.561830
21
-447.931400
0
LINE
5
ab1
100
AcDbEntity
8
1
100
AcDbLine
6
DOT2
62
6
10
2699.961830
20
-440.048557
11
2700.261830
21
-440.348557
0
LINE
5
ab2
100
AcDbEntity
8
1
100
AcDbLine
6
DOT2
62
6
10
2707.261830
20
-447.348557
11
2707.561830
21
-447.648557
0
LINE
5
ab3
100
AcDbEntity
8
1
100
AcDbLine
6
DOT2
62
6
10
2699.961830
20
-439.765715
11
2700.261830
21
-440.065715
0
LINE
5
ab4
100
AcDbEntity
8
1
100
AcDbLine
6
DOT2
62
6
10
2707.261830
20
-447.065715
11
2707.561830
21
-447.365715
0
LINE
5
ab5
100
AcDbEntity
8
1
100
AcDbLine
6
DOT2
62
6
10
2699.961830
20
-439.482872
11
2700.261830
21
-439.782872
0
LINE
5
ab6
100
AcDbEntity
8
1
100
AcDbLine
6
DOT2
62
6
10
2707.261830
20
-446.782872
11
2707.561830
21
-447.082872
0
LINE
5
ab7
100
AcDbEntity
8
1
100
AcDbLine
6
DOT2
62
6
10
2699.961830
20
-439.200029
11
2700.261830
21
-439.500029
0
LINE
5
ab8
100
AcDbEntity
8
1
100
AcDbLine
6
DOT2
62
6
10
2707.261830
20
-446.500029
11
2707.561830
21
-446.800029
0
LINE
5
ab9
100
AcDbEntity
8
1
100
AcDbLine
6
DOT2
62
6
10
2699.961830
20
-438.917186
11
2700.261830
21
-439.217186
0
LINE
5
aba
100
AcDbEntity
8
1
100
AcDbLine
6
DOT2
62
6
10
2707.261830
20
-446.217186
11
2707.561830
21
-446.517186
0
LINE
5
abb
100
AcDbEntity
8
1
100
AcDbLine
6
DOT2
62
6
10
2699.961830
20
-438.634344
11
2700.261830
21
-438.934344
0
LINE
5
abc
100
AcDbEntity
8
1
100
AcDbLine
6
DOT2
62
6
10
2707.261830
20
-445.934344
11
2707.561830
21
-446.234344
0
LINE
5
abd
100
AcDbEntity
8
1
100
AcDbLine
6
DOT2
62
6
10
2699.961830
20
-438.351501
11
2700.261830
21
-438.651501
0
LINE
5
abe
100
AcDbEntity
8
1
100
AcDbLine
6
DOT2
62
6
10
2707.261830
20
-445.651501
11
2707.561830
21
-445.951501
0
LINE
5
abf
100
AcDbEntity
8
1
100
AcDbLine
6
DOT2
62
6
10
2699.961830
20
-438.068658
11
2700.261830
21
-438.368658
0
LINE
5
ac0
100
AcDbEntity
8
1
100
AcDbLine
6
DOT2
62
6
10
2707.261830
20
-445.368658
11
2707.561830
21
-445.668658
0
LINE
5
ac1
100
AcDbEntity
8
1
100
AcDbLine
6
DOT2
62
6
10
2699.961830
20
-437.785816
11
2700.261830
21
-438.085816
0
LINE
5
ac2
100
AcDbEntity
8
1
100
AcDbLine
6
DOT2
62
6
10
2707.261830
20
-445.085816
11
2707.561830
21
-445.385816
0
LINE
5
ac3
100
AcDbEntity
8
1
100
AcDbLine
6
DOT2
62
6
10
2699.961830
20
-437.502973
11
2700.261830
21
-437.802973
0
LINE
5
ac4
100
AcDbEntity
8
1
100
AcDbLine
6
DOT2
62
6
10
2707.261830
20
-444.802973
11
2707.561830
21
-445.102973
0
LINE
5
ac5
100
AcDbEntity
8
1
100
AcDbLine
6
DOT2
62
6
10
2699.961830
20
-437.220130
11
2700.261830
21
-437.520130
0
LINE
5
ac6
100
AcDbEntity
8
1
100
AcDbLine
6
DOT2
62
6
10
2707.261830
20
-444.520130
11
2707.561830
21
-444.820130
0
LINE
5
ac7
100
AcDbEntity
8
1
100
AcDbLine
6
DOT2
62
6
10
2699.961830
20
-436.937287
11
2700.261830
21
-437.237287
0
LINE
5
ac8
100
AcDbEntity
8
1
100
AcDbLine
6
DOT2
62
6
10
2707.261830
20
-444.237287
11
2707.561830
21
-444.537287
0
LINE
5
ac9
100
AcDbEntity
8
1
100
AcDbLine
6
DOT2
62
6
10
2699.961830
20
-436.654445
11
2700.261830
21
-436.954445
0
LINE
5
aca
100
AcDbEntity
8
1
100
AcDbLine
6
DOT2
62
6
10
2707.261830
20
-443.954445
11
2707.561830
21
-444.254445
0
LINE
5
acb
100
AcDbEntity
8
1
100
AcDbLine
6
DOT2
62
6
10
2699.961830
20
-436.371602
11
2700.261830
21
-436.671602
0
LINE
5
acc
100
AcDbEntity
8
1
100
AcDbLine
6
DOT2
62
6
10
2707.261830
20
-443.671602
11
2707.561830
21
-443.971602
0
LINE
5
acd
100
AcDbEntity
8
1
100
AcDbLine
6
DOT2
62
6
10
2699.961830
20
-436.088759
11
2700.261830
21
-436.388759
0
LINE
5
ace
100
AcDbEntity
8
1
100
AcDbLine
6
DOT2
62
6
10
2707.261830
20
-443.388759
11
2707.561830
21
-443.688759
0
LINE
5
acf
100
AcDbEntity
8
1
100
AcDbLine
6
DOT2
62
6
10
2699.961830
20
-435.805917
11
2700.261830
21
-436.105917
0
LINE
5
ad0
100
AcDbEntity
8
1
100
AcDbLine
6
DOT2
62
6
10
2707.261830
20
-443.105917
11
2707.561830
21
-443.405917
0
LINE
5
ad1
100
AcDbEntity
8
1
100
AcDbLine
6
DOT2
62
6
10
2699.961830
20
-435.523074
11
2700.261830
21
-435.823074
0
LINE
5
ad2
100
AcDbEntity
8
1
100
AcDbLine
6
DOT2
62
6
10
2707.261830
20
-442.823074
11
2707.561830
21
-443.123074
0
LINE
5
ad3
100
AcDbEntity
8
1
100
AcDbLine
6
DOT2
62
6
10
2699.961830
20
-435.240231
11
2700.261830
21
-435.540231
0
LINE
5
ad4
100
AcDbEntity
8
1
100
AcDbLine
6
DOT2
62
6
10
2707.261830
20
-442.540231
11
2707.561830
21
-442.840231
0
LINE
5
ad5
100
AcDbEntity
8
1
100
AcDbLine
6
DOT2
62
6
10
2699.961830
20
-434.957388
11
2700.261830
21
-435.257388
0
LINE
5
ad6
100
AcDbEntity
8
1
100
AcDbLine
6
DOT2
62
6
10
2707.261830
20
-442.257388
11
2707.561830
21
-442.557388
0
LINE
5
ad7
100
AcDbEntity
8
1
100
AcDbLine
6
DOT2
62
6
10
2699.961830
20
-434.501110
11
2700.226765
21
-434.236175
0
LINE
5
ad8
100
AcDbEntity
8
1
100
AcDbLine
6
DOT2
62
6
10
2707.261830
20
-434.837863
11
2707.561830
21
-434.537863
0
LINE
5
ad9
100
AcDbEntity
8
1
100
AcDbLine
6
DOT2
62
6
10
2699.961830
20
-441.855020
11
2700.261830
21
-441.555020
0
LINE
5
ada
100
AcDbEntity
8
1
100
AcDbLine
6
DOT2
62
6
10
2707.261830
20
-434.555020
11
2707.561830
21
-434.255020
0
LINE
5
adb
100
AcDbEntity
8
1
100
AcDbLine
6
DOT2
62
6
10
2699.961830
20
-441.572178
11
2700.261830
21
-441.272178
0
LINE
5
adc
100
AcDbEntity
8
1
100
AcDbLine
6
DOT2
62
6
10
2706.997833
20
-434.536175
11
2707.297833
21
-434.236175
0
LINE
5
add
100
AcDbEntity
8
1
100
AcDbLine
6
DOT2
62
6
10
2699.961830
20
-441.289335
11
2700.261830
21
-440.989335
0
LINE
5
ade
100
AcDbEntity
8
1
100
AcDbLine
6
DOT2
62
6
10
2706.714990
20
-434.536175
11
2707.014990
21
-434.236175
0
LINE
5
adf
100
AcDbEntity
8
1
100
AcDbLine
6
DOT2
62
6
10
2699.961830
20
-441.006492
11
2700.261830
21
-440.706492
0
LINE
5
ae0
100
AcDbEntity
8
1
100
AcDbLine
6
DOT2
62
6
10
2706.432147
20
-434.536175
11
2706.732147
21
-434.236175
0
LINE
5
ae1
100
AcDbEntity
8
1
100
AcDbLine
6
DOT2
62
6
10
2699.961830
20
-440.723649
11
2700.261830
21
-440.423649
0
LINE
5
ae2
100
AcDbEntity
8
1
100
AcDbLine
6
DOT2
62
6
10
2706.149305
20
-434.536175
11
2706.449305
21
-434.236175
0
LINE
5
ae3
100
AcDbEntity
8
1
100
AcDbLine
6
DOT2
62
6
10
2699.961830
20
-440.440807
11
2700.261830
21
-440.140807
0
LINE
5
ae4
100
AcDbEntity
8
1
100
AcDbLine
6
DOT2
62
6
10
2705.866462
20
-434.536175
11
2706.166462
21
-434.236175
0
LINE
5
ae5
100
AcDbEntity
8
1
100
AcDbLine
6
DOT2
62
6
10
2699.961830
20
-440.157964
11
2700.261830
21
-439.857964
0
LINE
5
ae6
100
AcDbEntity
8
1
100
AcDbLine
6
DOT2
62
6
10
2705.583619
20
-434.536175
11
2705.883619
21
-434.236175
0
LINE
5
ae7
100
AcDbEntity
8
1
100
AcDbLine
6
DOT2
62
6
10
2699.961830
20
-439.875121
11
2700.261830
21
-439.575121
0
LINE
5
ae8
100
AcDbEntity
8
1
100
AcDbLine
6
DOT2
62
6
10
2705.300777
20
-434.536175
11
2705.600777
21
-434.236175
0
LINE
5
ae9
100
AcDbEntity
8
1
100
AcDbLine
6
DOT2
62
6
10
2699.961830
20
-439.592279
11
2700.261830
21
-439.292279
0
LINE
5
aea
100
AcDbEntity
8
1
100
AcDbLine
6
DOT2
62
6
10
2705.017934
20
-434.536175
11
2705.317934
21
-434.236175
0
LINE
5
aeb
100
AcDbEntity
8
1
100
AcDbLine
6
DOT2
62
6
10
2699.961830
20
-439.309436
11
2700.261830
21
-439.009436
0
LINE
5
aec
100
AcDbEntity
8
1
100
AcDbLine
6
DOT2
62
6
10
2704.735091
20
-434.536175
11
2705.035091
21
-434.236175
0
LINE
5
aed
100
AcDbEntity
8
1
100
AcDbLine
6
DOT2
62
6
10
2699.961830
20
-439.026593
11
2700.261830
21
-438.726593
0
LINE
5
aee
100
AcDbEntity
8
1
100
AcDbLine
6
DOT2
62
6
10
2704.452248
20
-434.536175
11
2704.752248
21
-434.236175
0
LINE
5
aef
100
AcDbEntity
8
1
100
AcDbLine
6
DOT2
62
6
10
2699.961830
20
-438.743750
11
2700.261830
21
-438.443750
0
LINE
5
af0
100
AcDbEntity
8
1
100
AcDbLine
6
DOT2
62
6
10
2704.169406
20
-434.536175
11
2704.469406
21
-434.236175
0
LINE
5
af1
100
AcDbEntity
8
1
100
AcDbLine
6
DOT2
62
6
10
2699.961830
20
-438.460908
11
2700.261830
21
-438.160908
0
LINE
5
af2
100
AcDbEntity
8
1
100
AcDbLine
6
DOT2
62
6
10
2703.886563
20
-434.536175
11
2704.186563
21
-434.236175
0
LINE
5
af3
100
AcDbEntity
8
1
100
AcDbLine
6
DOT2
62
6
10
2699.961830
20
-438.178065
11
2700.261830
21
-437.878065
0
LINE
5
af4
100
AcDbEntity
8
1
100
AcDbLine
6
DOT2
62
6
10
2703.603720
20
-434.536175
11
2703.903720
21
-434.236175
0
LINE
5
af5
100
AcDbEntity
8
1
100
AcDbLine
6
DOT2
62
6
10
2699.961830
20
-437.895222
11
2700.261830
21
-437.595222
0
LINE
5
af6
100
AcDbEntity
8
1
100
AcDbLine
6
DOT2
62
6
10
2703.320878
20
-434.536175
11
2703.620878
21
-434.236175
0
LINE
5
af7
100
AcDbEntity
8
1
100
AcDbLine
6
DOT2
62
6
10
2699.961830
20
-437.612380
11
2700.261830
21
-437.312380
0
LINE
5
af8
100
AcDbEntity
8
1
100
AcDbLine
6
DOT2
62
6
10
2703.038035
20
-434.536175
11
2703.338035
21
-434.236175
0
LINE
5
af9
100
AcDbEntity
8
1
100
AcDbLine
6
DOT2
62
6
10
2699.961830
20
-437.329537
11
2700.261830
21
-437.029537
0
LINE
5
afa
100
AcDbEntity
8
1
100
AcDbLine
6
DOT2
62
6
10
2702.755192
20
-434.536175
11
2703.055192
21
-434.236175
0
LINE
5
afb
100
AcDbEntity
8
1
100
AcDbLine
6
DOT2
62
6
10
2699.961830
20
-437.046694
11
2700.261830
21
-436.746694
0
LINE
5
afc
100
AcDbEntity
8
1
100
AcDbLine
6
DOT2
62
6
10
2702.472349
20
-434.536175
11
2702.772349
21
-434.236175
0
LINE
5
afd
100
AcDbEntity
8
1
100
AcDbLine
6
DOT2
62
6
10
2699.961830
20
-436.763851
11
2700.261830
21
-436.463851
0
LINE
5
afe
100
AcDbEntity
8
1
100
AcDbLine
6
DOT2
62
6
10
2702.189507
20
-434.536175
11
2702.489507
21
-434.236175
0
LINE
5
aff
100
AcDbEntity
8
1
100
AcDbLine
6
DOT2
62
6
10
2699.961830
20
-436.481009
11
2700.261830
21
-436.181009
0
LINE
5
b00
100
AcDbEntity
8
1
100
AcDbLine
6
DOT2
62
6
10
2701.906664
20
-434.536175
11
2702.206664
21
-434.236175
0
LINE
5
b01
100
AcDbEntity
8
1
100
AcDbLine
6
DOT2
62
6
10
2699.961830
20
-436.198166
11
2700.261830
21
-435.898166
0
LINE
5
b02
100
AcDbEntity
8
1
100
AcDbLine
6
DOT2
62
6
10
2701.623821
20
-434.536175
11
2701.923821
21
-434.236175
0
LINE
5
b03
100
AcDbEntity
8
1
100
AcDbLine
6
DOT2
62
6
10
2699.961830
20
-435.915323
11
2700.261830
21
-435.615323
0
LINE
5
b04
100
AcDbEntity
8
1
100
AcDbLine
6
DOT2
62
6
10
2701.340979
20
-434.536175
11
2701.640979
21
-434.236175
0
LINE
5
b05
100
AcDbEntity
8
1
100
AcDbLine
6
DOT2
62
6
10
2699.961830
20
-435.632481
11
2700.261830
21
-435.332481
0
LINE
5
b06
100
AcDbEntity
8
1
100
AcDbLine
6
DOT2
62
6
10
2701.058136
20
-434.536175
11
2701.358136
21
-434.236175
0
LINE
5
b07
100
AcDbEntity
8
1
100
AcDbLine
6
DOT2
62
6
10
2699.961830
20
-435.349638
11
2700.261830
21
-435.049638
0
LINE
5
b08
100
AcDbEntity
8
1
100
AcDbLine
6
DOT2
62
6
10
2700.775293
20
-434.536175
11
2701.075293
21
-434.236175
0
LINE
5
b09
100
AcDbEntity
8
1
100
AcDbLine
6
DOT2
62
6
10
2699.961830
20
-435.066795
11
2700.261830
21
-434.766795
0
LINE
5
b0a
100
AcDbEntity
8
1
100
AcDbLine
6
DOT2
62
6
10
2700.492450
20
-434.536175
11
2700.792450
21
-434.236175
0
LINE
5
b0b
100
AcDbEntity
8
1
100
AcDbLine
6
DOT2
62
6
10
2699.961830
20
-434.783952
11
2700.509608
21
-434.236175
0
LINE
5
b0c
100
AcDbEntity
8
1
100
AcDbLine
6
DOT2
62
6
10
2699.961830
20
-442.137863
11
2700.261830
21
-441.837863
0
LINE
5
b0d
100
AcDbEntity
8
1
100
AcDbLine
6
DOT2
62
6
10
2707.288497
20
-449.236175
11
2707.561830
21
-448.962841
0
LINE
5
b0e
100
AcDbEntity
8
1
100
AcDbLine
6
DOT2
62
6
10
2707.005654
20
-449.236175
11
2707.561830
21
-448.679999
0
LINE
5
b0f
100
AcDbEntity
8
1
100
AcDbLine
6
DOT2
62
6
10
2706.722811
20
-449.236175
11
2707.022811
21
-448.936175
0
LINE
5
b10
100
AcDbEntity
8
1
100
AcDbLine
6
DOT2
62
6
10
2707.261830
20
-448.697156
11
2707.561830
21
-448.397156
0
LINE
5
b11
100
AcDbEntity
8
1
100
AcDbLine
6
DOT2
62
6
10
2706.439968
20
-449.236175
11
2706.739968
21
-448.936175
0
LINE
5
b12
100
AcDbEntity
8
1
100
AcDbLine
6
DOT2
62
6
10
2707.261830
20
-448.414313
11
2707.561830
21
-448.114313
0
LINE
5
b13
100
AcDbEntity
8
1
100
AcDbLine
6
DOT2
62
6
10
2706.157126
20
-449.236175
11
2706.457126
21
-448.936175
0
LINE
5
b14
100
AcDbEntity
8
1
100
AcDbLine
6
DOT2
62
6
10
2707.261830
20
-448.131470
11
2707.561830
21
-447.831470
0
LINE
5
b15
100
AcDbEntity
8
1
100
AcDbLine
6
DOT2
62
6
10
2705.874283
20
-449.236175
11
2706.174283
21
-448.936175
0
LINE
5
b16
100
AcDbEntity
8
1
100
AcDbLine
6
DOT2
62
6
10
2707.261830
20
-447.848628
11
2707.561830
21
-447.548628
0
LINE
5
b17
100
AcDbEntity
8
1
100
AcDbLine
6
DOT2
62
6
10
2705.591440
20
-449.236175
11
2705.891440
21
-448.936175
0
LINE
5
b18
100
AcDbEntity
8
1
100
AcDbLine
6
DOT2
62
6
10
2707.261830
20
-447.565785
11
2707.561830
21
-447.265785
0
LINE
5
b19
100
AcDbEntity
8
1
100
AcDbLine
6
DOT2
62
6
10
2705.308598
20
-449.236175
11
2705.608598
21
-448.936175
0
LINE
5
b1a
100
AcDbEntity
8
1
100
AcDbLine
6
DOT2
62
6
10
2707.261830
20
-447.282942
11
2707.561830
21
-446.982942
0
LINE
5
b1b
100
AcDbEntity
8
1
100
AcDbLine
6
DOT2
62
6
10
2705.025755
20
-449.236175
11
2705.325755
21
-448.936175
0
LINE
5
b1c
100
AcDbEntity
8
1
100
AcDbLine
6
DOT2
62
6
10
2707.261830
20
-447.000100
11
2707.561830
21
-446.700100
0
LINE
5
b1d
100
AcDbEntity
8
1
100
AcDbLine
6
DOT2
62
6
10
2704.742912
20
-449.236175
11
2705.042912
21
-448.936175
0
LINE
5
b1e
100
AcDbEntity
8
1
100
AcDbLine
6
DOT2
62
6
10
2707.261830
20
-446.717257
11
2707.561830
21
-446.417257
0
LINE
5
b1f
100
AcDbEntity
8
1
100
AcDbLine
6
DOT2
62
6
10
2704.460069
20
-449.236175
11
2704.760069
21
-448.936175
0
LINE
5
b20
100
AcDbEntity
8
1
100
AcDbLine
6
DOT2
62
6
10
2707.261830
20
-446.434414
11
2707.561830
21
-446.134414
0
LINE
5
b21
100
AcDbEntity
8
1
100
AcDbLine
6
DOT2
62
6
10
2704.177227
20
-449.236175
11
2704.477227
21
-448.936175
0
LINE
5
b22
100
AcDbEntity
8
1
100
AcDbLine
6
DOT2
62
6
10
2707.261830
20
-446.151571
11
2707.561830
21
-445.851571
0
LINE
5
b23
100
AcDbEntity
8
1
100
AcDbLine
6
DOT2
62
6
10
2703.894384
20
-449.236175
11
2704.194384
21
-448.936175
0
LINE
5
b24
100
AcDbEntity
8
1
100
AcDbLine
6
DOT2
62
6
10
2707.261830
20
-445.868729
11
2707.561830
21
-445.568729
0
LINE
5
b25
100
AcDbEntity
8
1
100
AcDbLine
6
DOT2
62
6
10
2703.611541
20
-449.236175
11
2703.911541
21
-448.936175
0
LINE
5
b26
100
AcDbEntity
8
1
100
AcDbLine
6
DOT2
62
6
10
2707.261830
20
-445.585886
11
2707.561830
21
-445.285886
0
LINE
5
b27
100
AcDbEntity
8
1
100
AcDbLine
6
DOT2
62
6
10
2703.328699
20
-449.236175
11
2703.628699
21
-448.936175
0
LINE
5
b28
100
AcDbEntity
8
1
100
AcDbLine
6
DOT2
62
6
10
2707.261830
20
-445.303043
11
2707.561830
21
-445.003043
0
LINE
5
b29
100
AcDbEntity
8
1
100
AcDbLine
6
DOT2
62
6
10
2703.045856
20
-449.236175
11
2703.345856
21
-448.936175
0
LINE
5
b2a
100
AcDbEntity
8
1
100
AcDbLine
6
DOT2
62
6
10
2707.261830
20
-445.020201
11
2707.561830
21
-444.720201
0
LINE
5
b2b
100
AcDbEntity
8
1
100
AcDbLine
6
DOT2
62
6
10
2702.763013
20
-449.236175
11
2703.063013
21
-448.936175
0
LINE
5
b2c
100
AcDbEntity
8
1
100
AcDbLine
6
DOT2
62
6
10
2707.261830
20
-444.737358
11
2707.561830
21
-444.437358
0
LINE
5
b2d
100
AcDbEntity
8
1
100
AcDbLine
6
DOT2
62
6
10
2702.480170
20
-449.236175
11
2702.780170
21
-448.936175
0
LINE
5
b2e
100
AcDbEntity
8
1
100
AcDbLine
6
DOT2
62
6
10
2707.261830
20
-444.454515
11
2707.561830
21
-444.154515
0
LINE
5
b2f
100
AcDbEntity
8
1
100
AcDbLine
6
DOT2
62
6
10
2702.197328
20
-449.236175
11
2702.497328
21
-448.936175
0
LINE
5
b30
100
AcDbEntity
8
1
100
AcDbLine
6
DOT2
62
6
10
2707.261830
20
-444.171672
11
2707.561830
21
-443.871672
0
LINE
5
b31
100
AcDbEntity
8
1
100
AcDbLine
6
DOT2
62
6
10
2701.914485
20
-449.236175
11
2702.214485
21
-448.936175
0
LINE
5
b32
100
AcDbEntity
8
1
100
AcDbLine
6
DOT2
62
6
10
2707.261830
20
-443.888830
11
2707.561830
21
-443.588830
0
LINE
5
b33
100
AcDbEntity
8
1
100
AcDbLine
6
DOT2
62
6
10
2701.631642
20
-449.236175
11
2701.931642
21
-448.936175
0
LINE
5
b34
100
AcDbEntity
8
1
100
AcDbLine
6
DOT2
62
6
10
2707.261830
20
-443.605987
11
2707.561830
21
-443.305987
0
LINE
5
b35
100
AcDbEntity
8
1
100
AcDbLine
6
DOT2
62
6
10
2701.348800
20
-449.236175
11
2701.648800
21
-448.936175
0
LINE
5
b36
100
AcDbEntity
8
1
100
AcDbLine
6
DOT2
62
6
10
2707.261830
20
-443.323144
11
2707.561830
21
-443.023144
0
LINE
5
b37
100
AcDbEntity
8
1
100
AcDbLine
6
DOT2
62
6
10
2701.065957
20
-449.236175
11
2701.365957
21
-448.936175
0
LINE
5
b38
100
AcDbEntity
8
1
100
AcDbLine
6
DOT2
62
6
10
2707.261830
20
-443.040302
11
2707.561830
21
-442.740302
0
LINE
5
b39
100
AcDbEntity
8
1
100
AcDbLine
6
DOT2
62
6
10
2700.783114
20
-449.236175
11
2701.083114
21
-448.936175
0
LINE
5
b3a
100
AcDbEntity
8
1
100
AcDbLine
6
DOT2
62
6
10
2707.261830
20
-442.757459
11
2707.561830
21
-442.457459
0
LINE
5
b3b
100
AcDbEntity
8
1
100
AcDbLine
6
DOT2
62
6
10
2700.500271
20
-449.236175
11
2700.800271
21
-448.936175
0
LINE
5
b3c
100
AcDbEntity
8
1
100
AcDbLine
6
DOT2
62
6
10
2707.261830
20
-442.474616
11
2707.561830
21
-442.174616
0
LINE
5
b3d
100
AcDbEntity
8
1
100
AcDbLine
6
DOT2
62
6
10
2700.217429
20
-449.236175
11
2700.517429
21
-448.936175
0
LINE
5
b3e
100
AcDbEntity
8
1
100
AcDbLine
6
DOT2
62
6
10
2707.261830
20
-442.191773
11
2707.561830
21
-441.891773
0
LINE
5
b3f
100
AcDbEntity
8
1
100
AcDbLine
6
DOT2
62
6
10
2699.961830
20
-449.208931
11
2700.261830
21
-448.908931
0
LINE
5
b40
100
AcDbEntity
8
1
100
AcDbLine
6
DOT2
62
6
10
2707.261830
20
-441.908931
11
2707.561830
21
-441.608931
0
LINE
5
b41
100
AcDbEntity
8
1
100
AcDbLine
6
DOT2
62
6
10
2699.961830
20
-448.926088
11
2700.261830
21
-448.626088
0
LINE
5
b42
100
AcDbEntity
8
1
100
AcDbLine
6
DOT2
62
6
10
2707.261830
20
-441.626088
11
2707.561830
21
-441.326088
0
LINE
5
b43
100
AcDbEntity
8
1
100
AcDbLine
6
DOT2
62
6
10
2699.961830
20
-448.643245
11
2700.261830
21
-448.343245
0
LINE
5
b44
100
AcDbEntity
8
1
100
AcDbLine
6
DOT2
62
6
10
2707.261830
20
-441.343245
11
2707.561830
21
-441.043245
0
LINE
5
b45
100
AcDbEntity
8
1
100
AcDbLine
6
DOT2
62
6
10
2699.961830
20
-448.360403
11
2700.261830
21
-448.060403
0
LINE
5
b46
100
AcDbEntity
8
1
100
AcDbLine
6
DOT2
62
6
10
2707.261830
20
-441.060403
11
2707.561830
21
-440.760403
0
LINE
5
b47
100
AcDbEntity
8
1
100
AcDbLine
6
DOT2
62
6
10
2699.961830
20
-448.077560
11
2700.261830
21
-447.777560
0
LINE
5
b48
100
AcDbEntity
8
1
100
AcDbLine
6
DOT2
62
6
10
2707.261830
20
-440.777560
11
2707.561830
21
-440.477560
0
LINE
5
b49
100
AcDbEntity
8
1
100
AcDbLine
6
DOT2
62
6
10
2699.961830
20
-447.794717
11
2700.261830
21
-447.494717
0
LINE
5
b4a
100
AcDbEntity
8
1
100
AcDbLine
6
DOT2
62
6
10
2707.261830
20
-440.494717
11
2707.561830
21
-440.194717
0
LINE
5
b4b
100
AcDbEntity
8
1
100
AcDbLine
6
DOT2
62
6
10
2699.961830
20
-447.511874
11
2700.261830
21
-447.211874
0
LINE
5
b4c
100
AcDbEntity
8
1
100
AcDbLine
6
DOT2
62
6
10
2707.261830
20
-440.211874
11
2707.561830
21
-439.911874
0
LINE
5
b4d
100
AcDbEntity
8
1
100
AcDbLine
6
DOT2
62
6
10
2699.961830
20
-447.229032
11
2700.261830
21
-446.929032
0
LINE
5
b4e
100
AcDbEntity
8
1
100
AcDbLine
6
DOT2
62
6
10
2707.261830
20
-439.929032
11
2707.561830
21
-439.629032
0
LINE
5
b4f
100
AcDbEntity
8
1
100
AcDbLine
6
DOT2
62
6
10
2699.961830
20
-446.946189
11
2700.261830
21
-446.646189
0
LINE
5
b50
100
AcDbEntity
8
1
100
AcDbLine
6
DOT2
62
6
10
2707.261830
20
-439.646189
11
2707.561830
21
-439.346189
0
LINE
5
b51
100
AcDbEntity
8
1
100
AcDbLine
6
DOT2
62
6
10
2699.961830
20
-446.663346
11
2700.261830
21
-446.363346
0
LINE
5
b52
100
AcDbEntity
8
1
100
AcDbLine
6
DOT2
62
6
10
2707.261830
20
-439.363346
11
2707.561830
21
-439.063346
0
LINE
5
b53
100
AcDbEntity
8
1
100
AcDbLine
6
DOT2
62
6
10
2699.961830
20
-446.380504
11
2700.261830
21
-446.080504
0
LINE
5
b54
100
AcDbEntity
8
1
100
AcDbLine
6
DOT2
62
6
10
2707.261830
20
-439.080504
11
2707.561830
21
-438.780504
0
LINE
5
b55
100
AcDbEntity
8
1
100
AcDbLine
6
DOT2
62
6
10
2699.961830
20
-446.097661
11
2700.261830
21
-445.797661
0
LINE
5
b56
100
AcDbEntity
8
1
100
AcDbLine
6
DOT2
62
6
10
2707.261830
20
-438.797661
11
2707.561830
21
-438.497661
0
LINE
5
b57
100
AcDbEntity
8
1
100
AcDbLine
6
DOT2
62
6
10
2699.961830
20
-445.814818
11
2700.261830
21
-445.514818
0
LINE
5
b58
100
AcDbEntity
8
1
100
AcDbLine
6
DOT2
62
6
10
2707.261830
20
-438.514818
11
2707.561830
21
-438.214818
0
LINE
5
b59
100
AcDbEntity
8
1
100
AcDbLine
6
DOT2
62
6
10
2699.961830
20
-445.531975
11
2700.261830
21
-445.231975
0
LINE
5
b5a
100
AcDbEntity
8
1
100
AcDbLine
6
DOT2
62
6
10
2707.261830
20
-438.231975
11
2707.561830
21
-437.931975
0
LINE
5
b5b
100
AcDbEntity
8
1
100
AcDbLine
6
DOT2
62
6
10
2699.961830
20
-445.249133
11
2700.261830
21
-444.949133
0
LINE
5
b5c
100
AcDbEntity
8
1
100
AcDbLine
6
DOT2
62
6
10
2707.261830
20
-437.949133
11
2707.561830
21
-437.649133
0
LINE
5
b5d
100
AcDbEntity
8
1
100
AcDbLine
6
DOT2
62
6
10
2699.961830
20
-444.966290
11
2700.261830
21
-444.666290
0
LINE
5
b5e
100
AcDbEntity
8
1
100
AcDbLine
6
DOT2
62
6
10
2707.261830
20
-437.666290
11
2707.561830
21
-437.366290
0
LINE
5
b5f
100
AcDbEntity
8
1
100
AcDbLine
6
DOT2
62
6
10
2699.961830
20
-444.683447
11
2700.261830
21
-444.383447
0
LINE
5
b60
100
AcDbEntity
8
1
100
AcDbLine
6
DOT2
62
6
10
2707.261830
20
-437.383447
11
2707.561830
21
-437.083447
0
LINE
5
b61
100
AcDbEntity
8
1
100
AcDbLine
6
DOT2
62
6
10
2699.961830
20
-444.400605
11
2700.261830
21
-444.100605
0
LINE
5
b62
100
AcDbEntity
8
1
100
AcDbLine
6
DOT2
62
6
10
2707.261830
20
-437.100605
11
2707.561830
21
-436.800605
0
LINE
5
b63
100
AcDbEntity
8
1
100
AcDbLine
6
DOT2
62
6
10
2699.961830
20
-444.117762
11
2700.261830
21
-443.817762
0
LINE
5
b64
100
AcDbEntity
8
1
100
AcDbLine
6
DOT2
62
6
10
2707.261830
20
-436.817762
11
2707.561830
21
-436.517762
0
LINE
5
b65
100
AcDbEntity
8
1
100
AcDbLine
6
DOT2
62
6
10
2699.961830
20
-443.834919
11
2700.261830
21
-443.534919
0
LINE
5
b66
100
AcDbEntity
8
1
100
AcDbLine
6
DOT2
62
6
10
2707.261830
20
-436.534919
11
2707.561830
21
-436.234919
0
LINE
5
b67
100
AcDbEntity
8
1
100
AcDbLine
6
DOT2
62
6
10
2699.961830
20
-443.552076
11
2700.261830
21
-443.252076
0
LINE
5
b68
100
AcDbEntity
8
1
100
AcDbLine
6
DOT2
62
6
10
2707.261830
20
-436.252076
11
2707.561830
21
-435.952076
0
LINE
5
b69
100
AcDbEntity
8
1
100
AcDbLine
6
DOT2
62
6
10
2699.961830
20
-443.269234
11
2700.261830
21
-442.969234
0
LINE
5
b6a
100
AcDbEntity
8
1
100
AcDbLine
6
DOT2
62
6
10
2707.261830
20
-435.969234
11
2707.561830
21
-435.669234
0
LINE
5
b6b
100
AcDbEntity
8
1
100
AcDbLine
6
DOT2
62
6
10
2699.961830
20
-442.986391
11
2700.261830
21
-442.686391
0
LINE
5
b6c
100
AcDbEntity
8
1
100
AcDbLine
6
DOT2
62
6
10
2707.261830
20
-435.686391
11
2707.561830
21
-435.386391
0
LINE
5
b6d
100
AcDbEntity
8
1
100
AcDbLine
6
DOT2
62
6
10
2699.961830
20
-442.703548
11
2700.261830
21
-442.403548
0
LINE
5
b6e
100
AcDbEntity
8
1
100
AcDbLine
6
DOT2
62
6
10
2707.261830
20
-435.403548
11
2707.561830
21
-435.103548
0
LINE
5
b6f
100
AcDbEntity
8
1
100
AcDbLine
6
DOT2
62
6
10
2699.961830
20
-442.420706
11
2700.261830
21
-442.120706
0
LINE
5
b70
100
AcDbEntity
8
1
100
AcDbLine
6
DOT2
62
6
10
2707.261830
20
-435.120706
11
2707.561830
21
-434.820706
0
LINE
5
b71
100
AcDbEntity
8
1
100
AcDbLine
6
DOT2
62
6
10
2701.809197
20
-442.270395
11
2701.853918
21
-442.225674
0
LINE
5
b72
100
AcDbEntity
8
1
100
AcDbLine
6
DOT2
62
6
10
2705.530123
20
-443.640637
11
2705.571480
21
-443.599280
0
LINE
5
b73
100
AcDbEntity
8
1
100
AcDbLine
6
DOT2
62
6
10
2705.291164
20
-443.596754
11
2705.589836
21
-443.298082
0
LINE
5
b74
100
AcDbEntity
8
1
100
AcDbLine
6
DOT2
62
6
10
2705.071336
20
-443.533740
11
2705.342306
21
-443.262769
0
LINE
5
b75
100
AcDbEntity
8
1
100
AcDbLine
6
DOT2
62
6
10
2704.867816
20
-443.454417
11
2705.115642
21
-443.206591
0
LINE
5
b76
100
AcDbEntity
8
1
100
AcDbLine
6
DOT2
62
6
10
2704.678754
20
-443.360636
11
2704.906408
21
-443.132981
0
LINE
5
b77
100
AcDbEntity
8
1
100
AcDbLine
6
DOT2
62
6
10
2704.502917
20
-443.253630
11
2704.712399
21
-443.044148
0
LINE
5
b78
100
AcDbEntity
8
1
100
AcDbLine
6
DOT2
62
6
10
2705.008632
20
-442.747915
11
2705.181323
21
-442.575224
0
LINE
5
b79
100
AcDbEntity
8
1
100
AcDbLine
6
DOT2
62
6
10
2705.378487
20
-442.378060
11
2705.572036
21
-442.184511
0
LINE
5
b7a
100
AcDbEntity
8
1
100
AcDbLine
6
DOT2
62
6
10
2704.339502
20
-443.134202
11
2704.532156
21
-442.941549
0
LINE
5
b7b
100
AcDbEntity
8
1
100
AcDbLine
6
DOT2
62
6
10
2704.592449
20
-442.881255
11
2705.036290
21
-442.437414
0
LINE
5
b7c
100
AcDbEntity
8
1
100
AcDbLine
6
DOT2
62
6
10
2705.095387
20
-442.378318
11
2705.436913
21
-442.036791
0
LINE
5
b7d
100
AcDbEntity
8
1
100
AcDbLine
6
DOT2
62
6
10
2703.930760
20
-443.260102
11
2704.070069
21
-443.120792
0
LINE
5
b7e
100
AcDbEntity
8
1
100
AcDbLine
6
DOT2
62
6
10
2704.188029
20
-443.002833
11
2704.371120
21
-442.819742
0
LINE
5
b7f
100
AcDbEntity
8
1
100
AcDbLine
6
DOT2
62
6
10
2704.812286
20
-442.378575
11
2704.965188
21
-442.225674
0
LINE
5
b80
100
AcDbEntity
8
1
100
AcDbLine
6
DOT2
62
6
10
2703.568003
20
-443.340016
11
2703.752221
21
-443.155798
0
LINE
5
b81
100
AcDbEntity
8
1
100
AcDbLine
6
DOT2
62
6
10
2704.048287
20
-442.859732
11
2704.209497
21
-442.698522
0
LINE
5
b82
100
AcDbEntity
8
1
100
AcDbLine
6
DOT2
62
6
10
2704.529186
20
-442.378833
11
2704.682345
21
-442.225674
0
LINE
5
b83
100
AcDbEntity
8
1
100
AcDbLine
6
DOT2
62
6
10
2703.205246
20
-443.419931
11
2703.434373
21
-443.190803
0
LINE
5
b84
100
AcDbEntity
8
1
100
AcDbLine
6
DOT2
62
6
10
2703.920311
20
-442.704865
11
2704.066189
21
-442.558988
0
LINE
5
b85
100
AcDbEntity
8
1
100
AcDbLine
6
DOT2
62
6
10
2704.246086
20
-442.379091
11
2704.399502
21
-442.225674
0
LINE
5
b86
100
AcDbEntity
8
1
100
AcDbLine
6
DOT2
62
6
10
2702.842489
20
-443.499845
11
2703.151412
21
-443.190922
0
LINE
5
b87
100
AcDbEntity
8
1
100
AcDbLine
6
DOT2
62
6
10
2703.804385
20
-442.537948
11
2703.934755
21
-442.407578
0
LINE
5
b88
100
AcDbEntity
8
1
100
AcDbLine
6
DOT2
62
6
10
2703.962985
20
-442.379348
11
2704.116660
21
-442.225674
0
LINE
5
b89
100
AcDbEntity
8
1
100
AcDbLine
6
DOT2
62
6
10
2702.286725
20
-443.772766
11
2702.352994
21
-443.706496
0
LINE
5
b8a
100
AcDbEntity
8
1
100
AcDbLine
6
DOT2
62
6
10
2702.479732
20
-443.579759
11
2702.798677
21
-443.260813
0
LINE
5
b8b
100
AcDbEntity
8
1
100
AcDbLine
6
DOT2
62
6
10
2702.852830
20
-443.206661
11
2703.151412
21
-442.908079
0
LINE
5
b8c
100
AcDbEntity
8
1
100
AcDbLine
6
DOT2
62
6
10
2703.604909
20
-442.454582
11
2703.941553
21
-442.117938
0
LINE
5
b8d
100
AcDbEntity
8
1
100
AcDbLine
6
DOT2
62
6
10
2702.206694
20
-443.569954
11
2702.480829
21
-443.295819
0
LINE
5
b8e
100
AcDbEntity
8
1
100
AcDbLine
6
DOT2
62
6
10
2702.852830
20
-442.923818
11
2703.550974
21
-442.225674
0
LINE
5
b8f
100
AcDbEntity
8
1
100
AcDbLine
6
DOT2
62
6
10
2703.629040
20
-442.147608
11
2703.940166
21
-441.836483
0
LINE
5
b90
100
AcDbEntity
8
1
100
AcDbLine
6
DOT2
62
6
10
2702.146048
20
-443.347758
11
2702.162981
21
-443.330824
0
LINE
5
b91
100
AcDbEntity
8
1
100
AcDbLine
6
DOT2
62
6
10
2702.458964
20
-443.034841
11
2702.898169
21
-442.595636
0
LINE
5
b92
100
AcDbEntity
8
1
100
AcDbLine
6
DOT2
62
6
10
2703.115933
20
-442.377872
11
2703.268131
21
-442.225674
0
LINE
5
b93
100
AcDbEntity
8
1
100
AcDbLine
6
DOT2
62
6
10
2703.629040
20
-441.864766
11
2703.684139
21
-441.809666
0
LINE
5
b94
100
AcDbEntity
8
1
100
AcDbLine
6
DOT2
62
6
10
2702.052288
20
-443.158675
11
2702.307645
21
-442.903317
0
LINE
5
b95
100
AcDbEntity
8
1
100
AcDbLine
6
DOT2
62
6
10
2702.833091
20
-442.377872
11
2702.985289
21
-442.225674
0
LINE
5
b96
100
AcDbEntity
8
1
100
AcDbLine
6
DOT2
62
6
10
2701.797252
20
-443.130868
11
2701.856927
21
-443.071193
0
LINE
5
b97
100
AcDbEntity
8
1
100
AcDbLine
6
DOT2
62
6
10
2702.550248
20
-442.377872
11
2702.702446
21
-442.225674
0
LINE
5
b98
100
AcDbEntity
8
1
100
AcDbLine
6
DOT2
62
6
10
2702.267405
20
-442.377872
11
2702.419603
21
-442.225674
0
LINE
5
b99
100
AcDbEntity
8
1
100
AcDbLine
6
DOT2
62
6
10
2701.984563
20
-442.377872
11
2702.136761
21
-442.225674
0
LINE
5
b9a
100
AcDbEntity
8
1
100
AcDbLine
6
DOT2
62
6
10
2702.271825
20
-443.772766
11
2702.258379
21
-443.759319
0
LINE
5
b9b
100
AcDbEntity
8
1
100
AcDbLine
6
DOT2
62
6
10
2705.612026
20
-442.304641
11
2705.305281
21
-441.997895
0
LINE
5
b9c
100
AcDbEntity
8
1
100
AcDbLine
6
DOT2
62
6
10
2705.402581
20
-442.378038
11
2705.176357
21
-442.151814
0
LINE
5
b9d
100
AcDbEntity
8
1
100
AcDbLine
6
DOT2
62
6
10
2705.119995
20
-442.378295
11
2704.967374
21
-442.225674
0
LINE
5
b9e
100
AcDbEntity
8
1
100
AcDbLine
6
DOT2
62
6
10
2705.212427
20
-442.753570
11
2704.932001
21
-442.473144
0
LINE
5
b9f
100
AcDbEntity
8
1
100
AcDbLine
6
DOT2
62
6
10
2704.837410
20
-442.378552
11
2704.684531
21
-442.225674
0
LINE
5
ba0
100
AcDbEntity
8
1
100
AcDbLine
6
DOT2
62
6
10
2705.649519
20
-443.473505
11
2705.458682
21
-443.282668
0
LINE
5
ba1
100
AcDbEntity
8
1
100
AcDbLine
6
DOT2
62
6
10
2704.947843
20
-442.771828
11
2704.762447
21
-442.586432
0
LINE
5
ba2
100
AcDbEntity
8
1
100
AcDbLine
6
DOT2
62
6
10
2704.554824
20
-442.378810
11
2704.401688
21
-442.225674
0
LINE
5
ba3
100
AcDbEntity
8
1
100
AcDbLine
6
DOT2
62
6
10
2704.069399
20
-441.893385
11
2704.040525
21
-441.864511
0
LINE
5
ba4
100
AcDbEntity
8
1
100
AcDbLine
6
DOT2
62
6
10
2705.534366
20
-443.641194
11
2705.092765
21
-443.199593
0
LINE
5
ba5
100
AcDbEntity
8
1
100
AcDbLine
6
DOT2
62
6
10
2704.736209
20
-442.843037
11
2704.588171
21
-442.695000
0
LINE
5
ba6
100
AcDbEntity
8
1
100
AcDbLine
6
DOT2
62
6
10
2704.272238
20
-442.379067
11
2704.118846
21
-442.225674
0
LINE
5
ba7
100
AcDbEntity
8
1
100
AcDbLine
6
DOT2
62
6
10
2703.943072
20
-442.049900
11
2703.702838
21
-441.809666
0
LINE
5
ba8
100
AcDbEntity
8
1
100
AcDbLine
6
DOT2
62
6
10
2705.177237
20
-443.566908
11
2704.582854
21
-442.972525
0
LINE
5
ba9
100
AcDbEntity
8
1
100
AcDbLine
6
DOT2
62
6
10
2704.509964
20
-442.899636
11
2704.409068
21
-442.798739
0
LINE
5
baa
100
AcDbEntity
8
1
100
AcDbLine
6
DOT2
62
6
10
2703.989653
20
-442.379324
11
2703.629040
21
-442.018711
0
LINE
5
bab
100
AcDbEntity
8
1
100
AcDbLine
6
DOT2
62
6
10
2704.699359
20
-443.371873
11
2703.718143
21
-442.390657
0
LINE
5
bac
100
AcDbEntity
8
1
100
AcDbLine
6
DOT2
62
6
10
2703.707893
20
-442.380407
11
2703.553160
21
-442.225674
0
LINE
5
bad
100
AcDbEntity
8
1
100
AcDbLine
6
DOT2
62
6
10
2703.542174
20
-442.497530
11
2703.270318
21
-442.225674
0
LINE
5
bae
100
AcDbEntity
8
1
100
AcDbLine
6
DOT2
62
6
10
2704.005449
20
-443.243648
11
2703.901192
21
-443.139391
0
LINE
5
baf
100
AcDbEntity
8
1
100
AcDbLine
6
DOT2
62
6
10
2703.369403
20
-442.607602
11
2703.173743
21
-442.411943
0
LINE
5
bb0
100
AcDbEntity
8
1
100
AcDbLine
6
DOT2
62
6
10
2703.139673
20
-442.377872
11
2702.987475
21
-442.225674
0
LINE
5
bb1
100
AcDbEntity
8
1
100
AcDbLine
6
DOT2
62
6
10
2703.773667
20
-443.294709
11
2703.646409
21
-443.167451
0
LINE
5
bb2
100
AcDbEntity
8
1
100
AcDbLine
6
DOT2
62
6
10
2703.189352
20
-442.710394
11
2703.006052
21
-442.527094
0
LINE
5
bb3
100
AcDbEntity
8
1
100
AcDbLine
6
DOT2
62
6
10
2702.856830
20
-442.377872
11
2702.704632
21
-442.225674
0
LINE
5
bb4
100
AcDbEntity
8
1
100
AcDbLine
6
DOT2
62
6
10
2703.541885
20
-443.345770
11
2703.391626
21
-443.195511
0
LINE
5
bb5
100
AcDbEntity
8
1
100
AcDbLine
6
DOT2
62
6
10
2703.151412
20
-442.955296
11
2702.831852
21
-442.635737
0
LINE
5
bb6
100
AcDbEntity
8
1
100
AcDbLine
6
DOT2
62
6
10
2702.573987
20
-442.377872
11
2702.421789
21
-442.225674
0
LINE
5
bb7
100
AcDbEntity
8
1
100
AcDbLine
6
DOT2
62
6
10
2703.310103
20
-443.396831
11
2702.852830
21
-442.939558
0
LINE
5
bb8
100
AcDbEntity
8
1
100
AcDbLine
6
DOT2
62
6
10
2702.809682
20
-442.896410
11
2702.650941
21
-442.737668
0
LINE
5
bb9
100
AcDbEntity
8
1
100
AcDbLine
6
DOT2
62
6
10
2702.291145
20
-442.377872
11
2702.138947
21
-442.225674
0
LINE
5
bba
100
AcDbEntity
8
1
100
AcDbLine
6
DOT2
62
6
10
2703.078322
20
-443.447892
11
2702.852830
21
-443.222400
0
LINE
5
bbb
100
AcDbEntity
8
1
100
AcDbLine
6
DOT2
62
6
10
2702.609570
20
-442.979140
11
2702.463060
21
-442.832630
0
LINE
5
bbc
100
AcDbEntity
8
1
100
AcDbLine
6
DOT2
62
6
10
2702.008302
20
-442.377872
11
2701.856104
21
-442.225674
0
LINE
5
bbd
100
AcDbEntity
8
1
100
AcDbLine
6
DOT2
62
6
10
2702.846540
20
-443.498952
11
2702.627277
21
-443.279690
0
LINE
5
bbe
100
AcDbEntity
8
1
100
AcDbLine
6
DOT2
62
6
10
2702.402057
20
-443.054470
11
2702.267890
21
-442.920303
0
LINE
5
bbf
100
AcDbEntity
8
1
100
AcDbLine
6
DOT2
62
6
10
2702.614758
20
-443.550013
11
2702.372494
21
-443.307750
0
LINE
5
bc0
100
AcDbEntity
8
1
100
AcDbLine
6
DOT2
62
6
10
2702.186669
20
-443.121925
11
2702.065036
21
-443.000292
0
LINE
5
bc1
100
AcDbEntity
8
1
100
AcDbLine
6
DOT2
62
6
10
2702.404925
20
-443.623023
11
2702.152200
21
-443.370298
0
LINE
5
bc2
100
AcDbEntity
8
1
100
AcDbLine
6
DOT2
62
6
10
2701.962827
20
-443.180925
11
2701.854011
21
-443.072109
0
ENDSEC
0
SECTION
2
OBJECTS
0
DICTIONARY
5
bc3
100
AcDbDictionary
3
ACAD_GROUP
350
bc4
3
ACAD_MLINESTYLE
350
bc5
0
DICTIONARY
5
bc4
102
{ACAD_REACTORS
330
bc3
102
}
100
AcDbDictionary
0
DICTIONARY
5
bc5
102
{ACAD_REACTORS
330
bc3
102
}
100
AcDbDictionary
3
STANDARD
350
bc6
0
MLINESTYLE
5
bc6
102
{ACAD_REACTORS
330
bc5
102
}
100
AcDbMlineStyle
2
STANDARD
70
0
3

62
0
51
90.0
52
90.0
71
2
49
0.5
62
256
6
BYLAYER
49
-0.5
62
256
6
BYLAYER
0
ENDSEC
0
EOF
