0
SECTION
2
HEADER
9
$ACADVER
1
AC1012
9
$EXTMIN
10
-0.010000
20
-0.000000
30
0.0
9
$EXTMAX
10
13.390000
20
14.180000
30
0.0
9
$LIMMIN
10
-0.254000
20
-0.000000
9
$LIMMAX
10
340.106000
20
360.172000
9
$DIMSCALE
40
1.000000
9
$PDMODE
70
2
9
$PDSIZE
40
0.0
  9
$HANDSEED
  5
274
0
ENDSEC
0
SECTION
2
CLASSES
0
ENDSEC
0
SECTION
2
TABLES
0
TABLE
2
LTYPE
5
1e
100
AcDbSymbolTable
70
12
0
LTYPE
5
1f
100
AcDbSymbolTableRecord
100
AcDbLinetypeTableRecord
2
BYBLOCK
70
0
3

72
65
73
0
40
0.0
0
LTYPE
5
20
100
AcDbSymbolTableRecord
100
AcDbLinetypeTableRecord
2
BYLAYER
70
0
3

72
65
73
0
40
0.0
0
LTYPE
5
21
100
AcDbSymbolTableRecord
100
AcDbLinetypeTableRecord
2
CONTINUOUS
70
64
3
Solid line
72
65
73
0
40
0.0
0
LTYPE
5
22
100
AcDbSymbolTableRecord
100
AcDbLinetypeTableRecord
2
DASHED
70
64
3
__ __ __ __ __ __ __ __ __ __ __ __ __ __ __
72
65
73
2
40
0.75
49
0.5
74
0
49
-0.25
74
0
0
LTYPE
5
23
100
AcDbSymbolTableRecord
100
AcDbLinetypeTableRecord
2
DOT
70
64
3
...............................................
72
65
73
2
40
0.25
49
0.0
74
0
49
-0.25
74
0
0
LTYPE
5
24
100
AcDbSymbolTableRecord
100
AcDbLinetypeTableRecord
2
DASHDOT
70
64
3
__ . __ . __ . __ . __ . __ . __ . __ . __ . --
72
65
73
4
40
1.0
49
0.5
74
0
49
-0.25
74
0
49
0.0
74
0
49
-0.25
74
0
0
LTYPE
5
25
100
AcDbSymbolTableRecord
100
AcDbLinetypeTableRecord
2
CENTER
70
64
3
____ _ ____ _ ____ _ ____ _ ____ _ ____ _ ____
72
65
73
4
40
2.0
49
1.25
74
0
49
-0.25
74
0
49
0.25
74
0
49
-0.25
74
0
0
LTYPE
5
26
100
AcDbSymbolTableRecord
100
AcDbLinetypeTableRecord
2
PHANTOM
70
64
3
_____ _ _ _____ _ _ _____ _ _ _____ _ _ ____
72
65
73
6
40
2.5
49
1.25
74
0
49
-0.25
74
0
49
0.25
74
0
49
-0.25
74
0
49
0.25
74
0
49
-0.25
74
0
0
LTYPE
5
27
100
AcDbSymbolTableRecord
100
AcDbLinetypeTableRecord
2
HIDDEN
70
64
3
_ _ _ _ _ _ _ _ _ _ _ _ _ _ _ _ _ _ _ _ _ _ _
72
65
73
2
40
0.375
49
0.25
74
0
49
-0.125
74
0
0
LTYPE
5
28
100
AcDbSymbolTableRecord
100
AcDbLinetypeTableRecord
2
BORDER
70
64
3
__ __ . __ __ . __ __ . __ __ . __ __ . __ __
72
65
73
6
40
1.75
49
0.5
74
0
49
-0.25
74
0
49
0.5
74
0
49
-0.25
74
0
49
0.0
74
0
49
-0.25
74
0
0
LTYPE
5
29
100
AcDbSymbolTableRecord
100
AcDbLinetypeTableRecord
2
DIVIDE
70
64
3
__ . . __ . . __ . . __ . . __ . . __ . . __
72
65
73
6
40
1.25
49
0.5
74
0
49
-0.25
74
0
49
0.0
74
0
49
-0.25
74
0
49
0.0
74
0
49
-0.25
74
0
0
LTYPE
5
2a
100
AcDbSymbolTableRecord
100
AcDbLinetypeTableRecord
2
DOT2
70
64
3
...............................................
72
65
73
2
40
0.125
49
0.0
74
0
49
-0.125
74
0
0
ENDTAB
0
TABLE
2
STYLE
5
2b
100
AcDbSymbolTable
70
1
0
STYLE
5
2c
100
AcDbSymbolTableRecord
100
AcDbTextStyleTableRecord
2
STANDARD
70
64
40
0.0
41
1.0
50
0.0
71
0
42
5.0
3
txt
4
bigfont
0
ENDTAB
0
TABLE
2
LAYER
5
2d
100
AcDbSymbolTable
70
2
0
LAYER
5
2e
100
AcDbSymbolTableRecord
100
AcDbLayerTableRecord
2
0
70
0
62
7
6
CONTINUOUS
0
LAYER
5
2f
100
AcDbSymbolTableRecord
100
AcDbLayerTableRecord
2
1
70
0
62
7
6
CONTINUOUS
0
ENDTAB
0
TABLE
2
APPID
5
30
100
AcDbSymbolTable
70
1
0
APPID
5
31
100
AcDbSymbolTableRecord
100
AcDbRegAppTableRecord
2
ACAD
70
64
0
ENDTAB
0
TABLE
2
DIMSTYLE
5
32
100
AcDbSymbolTable
70
0
0
ENDTAB
0
TABLE
2
UCS
5
33
100
AcDbSymbolTable
70
0
0
ENDTAB
0
TABLE
2
VIEW
5
34
100
AcDbSymbolTable
70
0
0
ENDTAB
0
TABLE
2
VPORT
5
35
100
AcDbSymbolTable
70
0
0
ENDTAB
0
TABLE
2
BLOCK_RECORD
5
36
100
AcDbSymbolTable
70
0
0
BLOCK_RECORD
5
37
100
AcDbSymbolTableRecord
100
AcDbBlockTableRecord
2
*MODEL_SPACE
0
BLOCK_RECORD
5
38
100
AcDbSymbolTableRecord
100
AcDbBlockTableRecord
2
*PAPER_SPACE
0
BLOCK_RECORD
5
39
100
AcDbSymbolTableRecord
100
AcDbBlockTableRecord
2
OPEN
0
BLOCK_RECORD
5
3a
100
AcDbSymbolTableRecord
100
AcDbBlockTableRecord
2
HALF
0
BLOCK_RECORD
5
3b
100
AcDbSymbolTableRecord
100
AcDbBlockTableRecord
2
CLOSEDBLANK
0
BLOCK_RECORD
5
3c
100
AcDbSymbolTableRecord
100
AcDbBlockTableRecord
2
HALFCLOSE_R
0
BLOCK_RECORD
5
3d
100
AcDbSymbolTableRecord
100
AcDbBlockTableRecord
2
DOT
0
BLOCK_RECORD
5
3e
100
AcDbSymbolTableRecord
100
AcDbBlockTableRecord
2
HALFOPEN_R
0
BLOCK_RECORD
5
3f
100
AcDbSymbolTableRecord
100
AcDbBlockTableRecord
2
CLOSEDF
0
BLOCK_RECORD
5
40
100
AcDbSymbolTableRecord
100
AcDbBlockTableRecord
2
HALF_R
0
ENDTAB
0
ENDSEC
0
SECTION
2
BLOCKS
0
BLOCK
5
41
100
AcDbEntity
8
0
100
AcDbBlockBegin
2
*MODEL_SPACE
70
0
10
0.0
20
0.0
30
0.0
3
*MODEL_SPACE
1

0
ENDBLK
5
42
100
AcDbEntity
8
0
100
AcDbBlockEnd
0
BLOCK
5
43
100
AcDbEntity
67
1
8
0
100
AcDbBlockBegin
2
*PAPER_SPACE
70
0
10
0.0
20
0.0
30
0.0
3
*PAPER_SPACE
1

0
ENDBLK
5
44
100
AcDbEntity
67
1
8
0
100
AcDbBlockEnd
0
BLOCK
5
45
100
AcDbEntity
8
0
100
AcDbBlockBegin
2
OPEN
70
0
10
0.0
20
0.0
30
0.0
3
OPEN
1

0
LINE
5
46
100
AcDbEntity
8
0
6
BYBLOCK
62
0
100
AcDbLine
10
0.000000
20
0.000000
11
-1.000000
21
0.000000
0
LINE
5
47
100
AcDbEntity
8
0
6
BYBLOCK
62
0
100
AcDbLine
10
-1.000000
20
-0.166667
11
0.000000
21
0.000000
0
LINE
5
48
100
AcDbEntity
8
0
6
BYBLOCK
62
0
100
AcDbLine
10
-1.000000
20
0.166667
11
0.000000
21
0.000000
0
ENDBLK
5
49
100
AcDbEntity
8
0
100
AcDbBlockEnd
0
BLOCK
5
4a
100
AcDbEntity
8
0
100
AcDbBlockBegin
2
HALF
70
0
10
0.0
20
0.0
30
0.0
3
HALF
1

0
SOLID
5
4b
100
AcDbEntity
8
0
6
BYBLOCK
62
0
100
AcDbTrace
10
-1.000000
20
0.166667
11
-1.000000
21
-0.166667
12
0.000000
22
0.000000
13
0.000000
23
0.000000
0
ENDBLK
5
4c
100
AcDbEntity
8
0
100
AcDbBlockEnd
0
BLOCK
5
4d
100
AcDbEntity
8
0
100
AcDbBlockBegin
2
CLOSEDBLANK
70
0
10
0.0
20
0.0
30
0.0
3
CLOSEDBLANK
1

0
LINE
5
4e
100
AcDbEntity
8
0
6
BYBLOCK
62
0
100
AcDbLine
10
-1.000000
20
0.166667
11
-1.000000
21
-0.166667
0
LINE
5
4f
100
AcDbEntity
8
0
6
BYBLOCK
62
0
100
AcDbLine
10
0.000000
20
0.000000
11
-1.000000
21
-0.166667
0
LINE
5
50
100
AcDbEntity
8
0
6
BYBLOCK
62
0
100
AcDbLine
10
-1.000000
20
0.166667
11
0.000000
21
0.000000
0
ENDBLK
5
51
100
AcDbEntity
8
0
100
AcDbBlockEnd
0
BLOCK
5
52
100
AcDbEntity
8
0
100
AcDbBlockBegin
2
HALFCLOSE_R
70
0
10
0.0
20
0.0
30
0.0
3
HALFCLOSE_R
1

0
LINE
5
53
100
AcDbEntity
8
0
6
BYBLOCK
62
0
100
AcDbLine
10
-1.000000
20
-0.166667
11
-1.000000
21
0.000000
0
LINE
5
54
100
AcDbEntity
8
0
6
BYBLOCK
62
0
100
AcDbLine
10
-1.000000
20
-0.166667
11
0.000000
21
0.000000
0
LINE
5
55
100
AcDbEntity
8
0
6
BYBLOCK
62
0
100
AcDbLine
10
0.000000
20
0.000000
11
-1.000000
21
0.000000
0
ENDBLK
5
56
100
AcDbEntity
8
0
100
AcDbBlockEnd
0
BLOCK
5
57
100
AcDbEntity
8
0
100
AcDbBlockBegin
2
DOT
70
0
10
0.0
20
0.0
30
0.0
3
DOT
1

0
LINE
5
58
100
AcDbEntity
8
0
6
BYBLOCK
62
0
100
AcDbLine
10
0.000000
20
0.000000
11
-1.000000
21
0.000000
0
POLYLINE
5
59
100
AcDbEntity
8
0
6
BYBLOCK
62
0
100
AcDb2dPolyline
66
1
10
0.0
20
0.0
30
0.0
70
1
40
0.166667
41
0.166667
0
VERTEX
5
5a
100
AcDbEntity
8
0
100
AcDbVertex
100
AcDb2dVertex
62
10
10
-0.083333
20
0.000000
42
1.000000
0
VERTEX
5
5b
100
AcDbEntity
8
0
100
AcDbVertex
100
AcDb2dVertex
62
10
10
0.083333
20
0.000000
42
1.000000
0
SEQEND
5
5c
100
AcDbEntity
8
0
0
ENDBLK
5
5d
100
AcDbEntity
8
0
100
AcDbBlockEnd
0
BLOCK
5
5e
100
AcDbEntity
8
0
100
AcDbBlockBegin
2
HALFOPEN_R
70
0
10
0.0
20
0.0
30
0.0
3
HALFOPEN_R
1

0
LINE
5
5f
100
AcDbEntity
8
0
6
BYBLOCK
62
0
100
AcDbLine
10
-1.000000
20
-0.166667
11
0.000000
21
0.000000
0
LINE
5
60
100
AcDbEntity
8
0
6
BYBLOCK
62
0
100
AcDbLine
10
0.000000
20
0.000000
11
-1.000000
21
0.000000
0
ENDBLK
5
61
100
AcDbEntity
8
0
100
AcDbBlockEnd
0
BLOCK
5
62
100
AcDbEntity
8
0
100
AcDbBlockBegin
2
CLOSEDF
70
0
10
0.0
20
0.0
30
0.0
3
CLOSEDF
1

0
SOLID
5
63
100
AcDbEntity
8
0
6
BYBLOCK
62
0
100
AcDbTrace
10
-1.000000
20
0.166667
11
-1.000000
21
-0.166667
12
0.000000
22
0.000000
13
0.000000
23
0.000000
0
ENDBLK
5
64
100
AcDbEntity
8
0
100
AcDbBlockEnd
0
BLOCK
5
65
100
AcDbEntity
8
0
100
AcDbBlockBegin
2
HALF_R
70
0
10
0.0
20
0.0
30
0.0
3
HALF_R
1

0
SOLID
5
66
100
AcDbEntity
8
0
6
BYBLOCK
62
0
100
AcDbTrace
10
-1.000000
20
-0.166667
11
-1.000000
21
0.000000
12
0.000000
22
0.000000
13
0.000000
23
0.000000
0
ENDBLK
5
67
100
AcDbEntity
8
0
100
AcDbBlockEnd
0
ENDSEC
0
SECTION
2
ENTITIES
0
LINE
5
68
100
AcDbEntity
8
1
100
AcDbLine
6
CONTINUOUS
62
5
10
216.750000
20
336.187500
11
217.750000
21
334.937500
0
POLYLINE
5
69
100
AcDbEntity
8
1
6
CONTINUOUS
62
5
100
AcDb2dPolyline
66
1
10
0.0
20
0.0
30
0.0
70
0
0
VERTEX
5
6a
100
AcDbEntity
8
1
100
AcDbVertex
100
AcDb2dVertex
62
5
10
216.500000
20
331.187500
0
VERTEX
5
6b
100
AcDbEntity
8
1
100
AcDbVertex
100
AcDb2dVertex
62
5
10
218.250000
20
332.125000
0
VERTEX
5
6c
100
AcDbEntity
8
1
100
AcDbVertex
100
AcDb2dVertex
62
5
10
219.750000
20
333.375000
0
VERTEX
5
6d
100
AcDbEntity
8
1
100
AcDbVertex
100
AcDb2dVertex
62
5
10
221.250000
20
334.937500
0
SEQEND
5
6e
100
AcDbEntity
8
1
0
POLYLINE
5
6f
100
AcDbEntity
8
1
6
CONTINUOUS
62
5
100
AcDb2dPolyline
66
1
10
0.0
20
0.0
30
0.0
70
0
0
VERTEX
5
70
100
AcDbEntity
8
1
100
AcDbVertex
100
AcDb2dVertex
62
5
10
224.000000
20
334.312500
0
VERTEX
5
71
100
AcDbEntity
8
1
100
AcDbVertex
100
AcDb2dVertex
62
5
10
229.250000
20
334.937500
0
VERTEX
5
72
100
AcDbEntity
8
1
100
AcDbVertex
100
AcDb2dVertex
62
5
10
229.250000
20
334.625000
0
VERTEX
5
73
100
AcDbEntity
8
1
100
AcDbVertex
100
AcDb2dVertex
62
5
10
228.000000
20
333.062500
0
SEQEND
5
74
100
AcDbEntity
8
1
0
POLYLINE
5
75
100
AcDbEntity
8
1
6
CONTINUOUS
62
5
100
AcDb2dPolyline
66
1
10
0.0
20
0.0
30
0.0
70
0
0
VERTEX
5
76
100
AcDbEntity
8
1
100
AcDbVertex
100
AcDb2dVertex
62
5
10
226.000000
20
337.125000
0
VERTEX
5
77
100
AcDbEntity
8
1
100
AcDbVertex
100
AcDb2dVertex
62
5
10
226.000000
20
331.187500
0
VERTEX
5
78
100
AcDbEntity
8
1
100
AcDbVertex
100
AcDb2dVertex
62
5
10
226.500000
20
330.562500
0
VERTEX
5
79
100
AcDbEntity
8
1
100
AcDbVertex
100
AcDb2dVertex
62
5
10
229.250000
20
330.562500
0
SEQEND
5
7a
100
AcDbEntity
8
1
0
LINE
5
7b
100
AcDbEntity
8
1
100
AcDbLine
6
CONTINUOUS
62
5
10
232.750000
20
336.187500
11
233.750000
21
334.937500
0
POLYLINE
5
7c
100
AcDbEntity
8
1
6
CONTINUOUS
62
5
100
AcDb2dPolyline
66
1
10
0.0
20
0.0
30
0.0
70
0
0
VERTEX
5
7d
100
AcDbEntity
8
1
100
AcDbVertex
100
AcDb2dVertex
62
5
10
232.500000
20
331.187500
0
VERTEX
5
7e
100
AcDbEntity
8
1
100
AcDbVertex
100
AcDb2dVertex
62
5
10
234.250000
20
332.125000
0
VERTEX
5
7f
100
AcDbEntity
8
1
100
AcDbVertex
100
AcDb2dVertex
62
5
10
235.750000
20
333.375000
0
VERTEX
5
80
100
AcDbEntity
8
1
100
AcDbVertex
100
AcDb2dVertex
62
5
10
237.250000
20
334.937500
0
SEQEND
5
81
100
AcDbEntity
8
1
0
POLYLINE
5
82
100
AcDbEntity
8
1
6
CONTINUOUS
62
5
100
AcDb2dPolyline
66
1
10
0.0
20
0.0
30
0.0
70
0
0
VERTEX
5
83
100
AcDbEntity
8
1
100
AcDbVertex
100
AcDb2dVertex
62
5
10
242.250000
20
334.937500
0
VERTEX
5
84
100
AcDbEntity
8
1
100
AcDbVertex
100
AcDb2dVertex
62
5
10
242.500000
20
334.937500
0
VERTEX
5
85
100
AcDbEntity
8
1
100
AcDbVertex
100
AcDb2dVertex
62
5
10
244.250000
20
333.687500
0
SEQEND
5
86
100
AcDbEntity
8
1
0
LINE
5
87
100
AcDbEntity
8
1
100
AcDbLine
6
CONTINUOUS
62
5
10
242.250000
20
337.750000
11
242.250000
21
330.250000
0
POLYLINE
5
88
100
AcDbEntity
8
1
6
CONTINUOUS
62
5
100
AcDb2dPolyline
66
1
10
0.0
20
0.0
30
0.0
70
0
0
VERTEX
5
89
100
AcDbEntity
8
1
100
AcDbVertex
100
AcDb2dVertex
62
5
10
248.500000
20
337.750000
0
VERTEX
5
8a
100
AcDbEntity
8
1
100
AcDbVertex
100
AcDb2dVertex
62
5
10
248.500000
20
332.125000
0
VERTEX
5
8b
100
AcDbEntity
8
1
100
AcDbVertex
100
AcDb2dVertex
62
5
10
248.000000
20
330.875000
0
VERTEX
5
8c
100
AcDbEntity
8
1
100
AcDbVertex
100
AcDb2dVertex
62
5
10
247.500000
20
329.937500
0
SEQEND
5
8d
100
AcDbEntity
8
1
0
POLYLINE
5
8e
100
AcDbEntity
8
1
6
CONTINUOUS
62
5
100
AcDb2dPolyline
66
1
10
0.0
20
0.0
30
0.0
70
0
0
VERTEX
5
8f
100
AcDbEntity
8
1
100
AcDbVertex
100
AcDb2dVertex
62
5
10
252.500000
20
330.250000
0
VERTEX
5
90
100
AcDbEntity
8
1
100
AcDbVertex
100
AcDb2dVertex
62
5
10
253.500000
20
329.625000
0
VERTEX
5
91
100
AcDbEntity
8
1
100
AcDbVertex
100
AcDb2dVertex
62
5
10
253.500000
20
337.750000
0
VERTEX
5
92
100
AcDbEntity
8
1
100
AcDbVertex
100
AcDb2dVertex
62
5
10
248.500000
20
337.750000
0
SEQEND
5
93
100
AcDbEntity
8
1
0
LINE
5
94
100
AcDbEntity
8
1
100
AcDbLine
6
CONTINUOUS
62
5
10
248.500000
20
335.250000
11
253.500000
21
335.250000
0
LINE
5
95
100
AcDbEntity
8
1
100
AcDbLine
6
CONTINUOUS
62
5
10
251.000000
20
337.750000
11
251.000000
21
329.625000
0
LINE
5
96
100
AcDbEntity
8
1
100
AcDbLine
6
CONTINUOUS
62
5
10
248.500000
20
332.750000
11
253.500000
21
332.750000
0
POLYLINE
5
97
100
AcDbEntity
8
1
6
CONTINUOUS
62
5
100
AcDb2dPolyline
66
1
10
0.0
20
0.0
30
0.0
70
0
0
VERTEX
5
98
100
AcDbEntity
8
1
100
AcDbVertex
100
AcDb2dVertex
62
5
10
176.500000
20
337.750000
0
VERTEX
5
99
100
AcDbEntity
8
1
100
AcDbVertex
100
AcDb2dVertex
62
5
10
176.500000
20
332.125000
0
VERTEX
5
9a
100
AcDbEntity
8
1
100
AcDbVertex
100
AcDb2dVertex
62
5
10
176.000000
20
330.875000
0
VERTEX
5
9b
100
AcDbEntity
8
1
100
AcDbVertex
100
AcDb2dVertex
62
5
10
175.500000
20
329.937500
0
SEQEND
5
9c
100
AcDbEntity
8
1
0
POLYLINE
5
9d
100
AcDbEntity
8
1
6
CONTINUOUS
62
5
100
AcDb2dPolyline
66
1
10
0.0
20
0.0
30
0.0
70
0
0
VERTEX
5
9e
100
AcDbEntity
8
1
100
AcDbVertex
100
AcDb2dVertex
62
5
10
180.500000
20
330.250000
0
VERTEX
5
9f
100
AcDbEntity
8
1
100
AcDbVertex
100
AcDb2dVertex
62
5
10
181.500000
20
329.625000
0
VERTEX
5
a0
100
AcDbEntity
8
1
100
AcDbVertex
100
AcDb2dVertex
62
5
10
181.500000
20
337.750000
0
VERTEX
5
a1
100
AcDbEntity
8
1
100
AcDbVertex
100
AcDb2dVertex
62
5
10
176.500000
20
337.750000
0
SEQEND
5
a2
100
AcDbEntity
8
1
0
LINE
5
a3
100
AcDbEntity
8
1
100
AcDbLine
6
CONTINUOUS
62
5
10
176.500000
20
335.250000
11
181.500000
21
335.250000
0
LINE
5
a4
100
AcDbEntity
8
1
100
AcDbLine
6
CONTINUOUS
62
5
10
179.000000
20
337.750000
11
179.000000
21
329.625000
0
LINE
5
a5
100
AcDbEntity
8
1
100
AcDbLine
6
CONTINUOUS
62
5
10
176.500000
20
332.750000
11
181.500000
21
332.750000
0
LINE
5
a6
100
AcDbEntity
8
1
100
AcDbLine
6
CONTINUOUS
62
5
10
192.750000
20
338.062500
11
192.750000
21
336.500000
0
POLYLINE
5
a7
100
AcDbEntity
8
1
6
CONTINUOUS
62
5
100
AcDb2dPolyline
66
1
10
0.0
20
0.0
30
0.0
70
0
0
VERTEX
5
a8
100
AcDbEntity
8
1
100
AcDbVertex
100
AcDb2dVertex
62
5
10
191.500000
20
336.500000
0
VERTEX
5
a9
100
AcDbEntity
8
1
100
AcDbVertex
100
AcDb2dVertex
62
5
10
193.750000
20
336.500000
0
VERTEX
5
aa
100
AcDbEntity
8
1
100
AcDbVertex
100
AcDb2dVertex
62
5
10
193.000000
20
334.937500
0
VERTEX
5
ab
100
AcDbEntity
8
1
100
AcDbVertex
100
AcDb2dVertex
62
5
10
192.250000
20
334.000000
0
VERTEX
5
ac
100
AcDbEntity
8
1
100
AcDbVertex
100
AcDb2dVertex
62
5
10
191.500000
20
333.375000
0
SEQEND
5
ad
100
AcDbEntity
8
1
0
LINE
5
ae
100
AcDbEntity
8
1
100
AcDbLine
6
CONTINUOUS
62
5
10
192.750000
20
334.625000
11
192.750000
21
329.937500
0
LINE
5
af
100
AcDbEntity
8
1
100
AcDbLine
6
CONTINUOUS
62
5
10
193.750000
20
334.312500
11
193.000000
21
333.375000
0
LINE
5
b0
100
AcDbEntity
8
1
100
AcDbLine
6
CONTINUOUS
62
5
10
192.750000
20
333.687500
11
193.750000
21
332.437500
0
POLYLINE
5
b1
100
AcDbEntity
8
1
6
CONTINUOUS
62
5
100
AcDb2dPolyline
66
1
10
0.0
20
0.0
30
0.0
70
0
0
VERTEX
5
b2
100
AcDbEntity
8
1
100
AcDbVertex
100
AcDb2dVertex
62
5
10
195.500000
20
338.375000
0
VERTEX
5
b3
100
AcDbEntity
8
1
100
AcDbVertex
100
AcDb2dVertex
62
5
10
195.000000
20
337.125000
0
VERTEX
5
b4
100
AcDbEntity
8
1
100
AcDbVertex
100
AcDb2dVertex
62
5
10
194.250000
20
335.875000
0
SEQEND
5
b5
100
AcDbEntity
8
1
0
LINE
5
b6
100
AcDbEntity
8
1
100
AcDbLine
6
CONTINUOUS
62
5
10
195.000000
20
337.125000
11
198.000000
21
337.125000
0
POLYLINE
5
b7
100
AcDbEntity
8
1
6
CONTINUOUS
62
5
100
AcDb2dPolyline
66
1
10
0.0
20
0.0
30
0.0
70
1
0
VERTEX
5
b8
100
AcDbEntity
8
1
100
AcDbVertex
100
AcDb2dVertex
62
5
10
195.000000
20
335.875000
0
VERTEX
5
b9
100
AcDbEntity
8
1
100
AcDbVertex
100
AcDb2dVertex
62
5
10
195.000000
20
333.375000
0
VERTEX
5
ba
100
AcDbEntity
8
1
100
AcDbVertex
100
AcDb2dVertex
62
5
10
197.750000
20
333.375000
0
VERTEX
5
bb
100
AcDbEntity
8
1
100
AcDbVertex
100
AcDb2dVertex
62
5
10
197.750000
20
335.875000
0
VERTEX
5
bc
100
AcDbEntity
8
1
100
AcDbVertex
100
AcDb2dVertex
62
5
10
195.000000
20
335.875000
0
SEQEND
5
bd
100
AcDbEntity
8
1
0
LINE
5
be
100
AcDbEntity
8
1
100
AcDbLine
6
CONTINUOUS
62
5
10
195.000000
20
334.625000
11
197.750000
21
334.625000
0
POLYLINE
5
bf
100
AcDbEntity
8
1
6
CONTINUOUS
62
5
100
AcDb2dPolyline
66
1
10
0.0
20
0.0
30
0.0
70
0
0
VERTEX
5
c0
100
AcDbEntity
8
1
100
AcDbVertex
100
AcDb2dVertex
62
5
10
195.500000
20
333.375000
0
VERTEX
5
c1
100
AcDbEntity
8
1
100
AcDbVertex
100
AcDb2dVertex
62
5
10
195.000000
20
332.437500
0
VERTEX
5
c2
100
AcDbEntity
8
1
100
AcDbVertex
100
AcDb2dVertex
62
5
10
194.000000
20
331.187500
0
SEQEND
5
c3
100
AcDbEntity
8
1
0
POLYLINE
5
c4
100
AcDbEntity
8
1
6
CONTINUOUS
62
5
100
AcDb2dPolyline
66
1
10
0.0
20
0.0
30
0.0
70
0
0
VERTEX
5
c5
100
AcDbEntity
8
1
100
AcDbVertex
100
AcDb2dVertex
62
5
10
195.000000
20
332.437500
0
VERTEX
5
c6
100
AcDbEntity
8
1
100
AcDbVertex
100
AcDb2dVertex
62
5
10
197.250000
20
332.437500
0
VERTEX
5
c7
100
AcDbEntity
8
1
100
AcDbVertex
100
AcDb2dVertex
62
5
10
196.750000
20
331.500000
0
VERTEX
5
c8
100
AcDbEntity
8
1
100
AcDbVertex
100
AcDb2dVertex
62
5
10
195.750000
20
330.562500
0
VERTEX
5
c9
100
AcDbEntity
8
1
100
AcDbVertex
100
AcDb2dVertex
62
5
10
194.250000
20
329.937500
0
SEQEND
5
ca
100
AcDbEntity
8
1
0
POLYLINE
5
cb
100
AcDbEntity
8
1
6
CONTINUOUS
62
5
100
AcDb2dPolyline
66
1
10
0.0
20
0.0
30
0.0
70
0
0
VERTEX
5
cc
100
AcDbEntity
8
1
100
AcDbVertex
100
AcDb2dVertex
62
5
10
195.000000
20
332.437500
0
VERTEX
5
cd
100
AcDbEntity
8
1
100
AcDbVertex
100
AcDb2dVertex
62
5
10
195.750000
20
331.187500
0
VERTEX
5
ce
100
AcDbEntity
8
1
100
AcDbVertex
100
AcDb2dVertex
62
5
10
196.500000
20
330.562500
0
VERTEX
5
cf
100
AcDbEntity
8
1
100
AcDbVertex
100
AcDb2dVertex
62
5
10
198.500000
20
329.937500
0
SEQEND
5
d0
100
AcDbEntity
8
1
0
LINE
5
d1
100
AcDbEntity
8
1
100
AcDbLine
6
CONTINUOUS
62
5
10
199.500000
20
336.187500
11
206.000000
21
336.187500
0
POLYLINE
5
d2
100
AcDbEntity
8
1
6
CONTINUOUS
62
5
100
AcDb2dPolyline
66
1
10
0.0
20
0.0
30
0.0
70
0
0
VERTEX
5
d3
100
AcDbEntity
8
1
100
AcDbVertex
100
AcDb2dVertex
62
5
10
203.250000
20
338.062500
0
VERTEX
5
d4
100
AcDbEntity
8
1
100
AcDbVertex
100
AcDb2dVertex
62
5
10
203.250000
20
335.250000
0
VERTEX
5
d5
100
AcDbEntity
8
1
100
AcDbVertex
100
AcDb2dVertex
62
5
10
203.500000
20
333.062500
0
VERTEX
5
d6
100
AcDbEntity
8
1
100
AcDbVertex
100
AcDb2dVertex
62
5
10
204.000000
20
331.500000
0
VERTEX
5
d7
100
AcDbEntity
8
1
100
AcDbVertex
100
AcDb2dVertex
62
5
10
204.750000
20
330.250000
0
VERTEX
5
d8
100
AcDbEntity
8
1
100
AcDbVertex
100
AcDb2dVertex
62
5
10
205.250000
20
329.625000
0
VERTEX
5
d9
100
AcDbEntity
8
1
100
AcDbVertex
100
AcDb2dVertex
62
5
10
206.000000
20
330.875000
0
SEQEND
5
da
100
AcDbEntity
8
1
0
LINE
5
db
100
AcDbEntity
8
1
100
AcDbLine
6
CONTINUOUS
62
5
10
199.750000
20
334.000000
11
202.750000
21
334.000000
0
LINE
5
dc
100
AcDbEntity
8
1
100
AcDbLine
6
CONTINUOUS
62
5
10
201.250000
20
334.000000
11
201.250000
21
330.562500
0
POLYLINE
5
dd
100
AcDbEntity
8
1
6
CONTINUOUS
62
5
100
AcDb2dPolyline
66
1
10
0.0
20
0.0
30
0.0
70
0
0
VERTEX
5
de
100
AcDbEntity
8
1
100
AcDbVertex
100
AcDb2dVertex
62
5
10
199.750000
20
329.937500
0
VERTEX
5
df
100
AcDbEntity
8
1
100
AcDbVertex
100
AcDb2dVertex
62
5
10
201.250000
20
330.562500
0
VERTEX
5
e0
100
AcDbEntity
8
1
100
AcDbVertex
100
AcDb2dVertex
62
5
10
202.750000
20
331.187500
0
SEQEND
5
e1
100
AcDbEntity
8
1
0
LINE
5
e2
100
AcDbEntity
8
1
100
AcDbLine
6
CONTINUOUS
62
5
10
204.250000
20
337.437500
11
205.000000
21
336.812500
0
POLYLINE
5
e3
100
AcDbEntity
8
1
6
CONTINUOUS
62
5
100
AcDb2dPolyline
66
1
10
0.0
20
0.0
30
0.0
70
0
0
VERTEX
5
e4
100
AcDbEntity
8
1
100
AcDbVertex
100
AcDb2dVertex
62
5
10
208.750000
20
335.875000
0
VERTEX
5
e5
100
AcDbEntity
8
1
100
AcDbVertex
100
AcDb2dVertex
62
5
10
212.750000
20
335.875000
0
VERTEX
5
e6
100
AcDbEntity
8
1
100
AcDbVertex
100
AcDb2dVertex
62
5
10
212.750000
20
331.500000
0
VERTEX
5
e7
100
AcDbEntity
8
1
100
AcDbVertex
100
AcDb2dVertex
62
5
10
208.750000
20
331.500000
0
SEQEND
5
e8
100
AcDbEntity
8
1
0
LINE
5
e9
100
AcDbEntity
8
1
100
AcDbLine
6
DOT2
62
5
10
246.250000
20
251.250000
11
249.062500
21
251.250000
0
POLYLINE
5
ea
100
AcDbEntity
8
1
6
DOT2
62
5
100
AcDb2dPolyline
66
1
10
0.0
20
0.0
30
0.0
70
0
0
VERTEX
5
eb
100
AcDbEntity
8
1
100
AcDbVertex
100
AcDb2dVertex
62
5
10
246.250000
20
251.250000
0
VERTEX
5
ec
100
AcDbEntity
8
1
100
AcDbVertex
100
AcDb2dVertex
62
5
10
246.250000
20
247.500000
0
VERTEX
5
ed
100
AcDbEntity
8
1
100
AcDbVertex
100
AcDb2dVertex
62
5
10
246.875000
20
248.125000
0
VERTEX
5
ee
100
AcDbEntity
8
1
100
AcDbVertex
100
AcDb2dVertex
62
5
10
247.500000
20
248.437500
0
VERTEX
5
ef
100
AcDbEntity
8
1
100
AcDbVertex
100
AcDb2dVertex
62
5
10
248.437500
20
248.437500
0
VERTEX
5
f0
100
AcDbEntity
8
1
100
AcDbVertex
100
AcDb2dVertex
62
5
10
249.062500
20
248.125000
0
VERTEX
5
f1
100
AcDbEntity
8
1
100
AcDbVertex
100
AcDb2dVertex
62
5
10
249.375000
20
247.187500
0
VERTEX
5
f2
100
AcDbEntity
8
1
100
AcDbVertex
100
AcDb2dVertex
62
5
10
249.375000
20
245.312500
0
VERTEX
5
f3
100
AcDbEntity
8
1
100
AcDbVertex
100
AcDb2dVertex
62
5
10
248.750000
20
244.375000
0
VERTEX
5
f4
100
AcDbEntity
8
1
100
AcDbVertex
100
AcDb2dVertex
62
5
10
247.812500
20
243.750000
0
VERTEX
5
f5
100
AcDbEntity
8
1
100
AcDbVertex
100
AcDb2dVertex
62
5
10
246.250000
20
243.750000
0
SEQEND
5
f6
100
AcDbEntity
8
1
0
POLYLINE
5
f7
100
AcDbEntity
8
1
6
CONTINUOUS
62
5
100
AcDb2dPolyline
66
1
10
0.0
20
0.0
30
0.0
70
0
0
VERTEX
5
f8
100
AcDbEntity
8
1
100
AcDbVertex
100
AcDb2dVertex
62
5
10
133.250000
20
337.125000
0
VERTEX
5
f9
100
AcDbEntity
8
1
100
AcDbVertex
100
AcDb2dVertex
62
5
10
133.250000
20
330.875000
0
VERTEX
5
fa
100
AcDbEntity
8
1
100
AcDbVertex
100
AcDb2dVertex
62
5
10
133.750000
20
330.562500
0
VERTEX
5
fb
100
AcDbEntity
8
1
100
AcDbVertex
100
AcDb2dVertex
62
5
10
135.000000
20
331.187500
0
VERTEX
5
fc
100
AcDbEntity
8
1
100
AcDbVertex
100
AcDb2dVertex
62
5
10
136.250000
20
332.125000
0
VERTEX
5
fd
100
AcDbEntity
8
1
100
AcDbVertex
100
AcDb2dVertex
62
5
10
137.500000
20
333.375000
0
SEQEND
5
fe
100
AcDbEntity
8
1
0
POLYLINE
5
ff
100
AcDbEntity
8
1
6
CONTINUOUS
62
5
100
AcDb2dPolyline
66
1
10
0.0
20
0.0
30
0.0
70
0
0
VERTEX
5
100
100
AcDbEntity
8
1
100
AcDbVertex
100
AcDb2dVertex
62
5
10
139.750000
20
334.312500
0
VERTEX
5
101
100
AcDbEntity
8
1
100
AcDbVertex
100
AcDb2dVertex
62
5
10
140.000000
20
334.000000
0
VERTEX
5
102
100
AcDbEntity
8
1
100
AcDbVertex
100
AcDb2dVertex
62
5
10
146.750000
20
334.000000
0
SEQEND
5
103
100
AcDbEntity
8
1
0
POLYLINE
5
104
100
AcDbEntity
8
1
6
CONTINUOUS
62
5
100
AcDb2dPolyline
66
1
10
0.0
20
0.0
30
0.0
70
0
0
VERTEX
5
105
100
AcDbEntity
8
1
100
AcDbVertex
100
AcDb2dVertex
62
5
10
150.250000
20
334.937500
0
VERTEX
5
106
100
AcDbEntity
8
1
100
AcDbVertex
100
AcDb2dVertex
62
5
10
150.500000
20
334.937500
0
VERTEX
5
107
100
AcDbEntity
8
1
100
AcDbVertex
100
AcDb2dVertex
62
5
10
152.250000
20
333.687500
0
SEQEND
5
108
100
AcDbEntity
8
1
0
LINE
5
109
100
AcDbEntity
8
1
100
AcDbLine
6
CONTINUOUS
62
5
10
150.250000
20
337.750000
11
150.250000
21
330.250000
0
POLYLINE
5
10a
100
AcDbEntity
8
1
6
CONTINUOUS
62
5
100
AcDb2dPolyline
66
1
10
0.0
20
0.0
30
0.0
70
0
0
VERTEX
5
10b
100
AcDbEntity
8
1
100
AcDbVertex
100
AcDb2dVertex
62
5
10
164.500000
20
337.125000
0
VERTEX
5
10c
100
AcDbEntity
8
1
100
AcDbVertex
100
AcDb2dVertex
62
5
10
165.250000
20
337.750000
0
VERTEX
5
10d
100
AcDbEntity
8
1
100
AcDbVertex
100
AcDb2dVertex
62
5
10
165.250000
20
330.250000
0
SEQEND
5
10e
100
AcDbEntity
8
1
0
LINE
5
10f
100
AcDbEntity
8
1
100
AcDbLine
6
CONTINUOUS
62
5
10
164.750000
20
330.250000
11
165.750000
21
330.250000
0
POLYLINE
5
110
100
AcDbEntity
8
1
6
CONTINUOUS
62
5
100
AcDb2dPolyline
66
1
10
0.0
20
0.0
30
0.0
70
0
0
VERTEX
5
111
100
AcDbEntity
8
1
100
AcDbVertex
100
AcDb2dVertex
62
5
10
108.750000
20
333.687500
0
VERTEX
5
112
100
AcDbEntity
8
1
100
AcDbVertex
100
AcDb2dVertex
62
5
10
109.750000
20
334.937500
0
VERTEX
5
113
100
AcDbEntity
8
1
100
AcDbVertex
100
AcDb2dVertex
62
5
10
110.500000
20
336.187500
0
VERTEX
5
114
100
AcDbEntity
8
1
100
AcDbVertex
100
AcDb2dVertex
62
5
10
113.000000
20
336.187500
0
VERTEX
5
115
100
AcDbEntity
8
1
100
AcDbVertex
100
AcDb2dVertex
62
5
10
113.000000
20
335.875000
0
VERTEX
5
116
100
AcDbEntity
8
1
100
AcDbVertex
100
AcDb2dVertex
62
5
10
112.000000
20
333.375000
0
VERTEX
5
117
100
AcDbEntity
8
1
100
AcDbVertex
100
AcDb2dVertex
62
5
10
110.750000
20
331.500000
0
VERTEX
5
118
100
AcDbEntity
8
1
100
AcDbVertex
100
AcDb2dVertex
62
5
10
109.250000
20
330.250000
0
SEQEND
5
119
100
AcDbEntity
8
1
0
LINE
5
11a
100
AcDbEntity
8
1
100
AcDbLine
6
CONTINUOUS
62
5
10
110.500000
20
334.312500
11
111.750000
21
333.062500
0
POLYLINE
5
11b
100
AcDbEntity
8
1
6
CONTINUOUS
62
5
100
AcDb2dPolyline
66
1
10
0.0
20
0.0
30
0.0
70
0
0
VERTEX
5
11c
100
AcDbEntity
8
1
100
AcDbVertex
100
AcDb2dVertex
62
5
10
117.500000
20
336.812500
0
VERTEX
5
11d
100
AcDbEntity
8
1
100
AcDbVertex
100
AcDb2dVertex
62
5
10
117.500000
20
334.937500
0
VERTEX
5
11e
100
AcDbEntity
8
1
100
AcDbVertex
100
AcDb2dVertex
62
5
10
117.250000
20
333.375000
0
VERTEX
5
11f
100
AcDbEntity
8
1
100
AcDbVertex
100
AcDb2dVertex
62
5
10
116.750000
20
332.125000
0
VERTEX
5
120
100
AcDbEntity
8
1
100
AcDbVertex
100
AcDb2dVertex
62
5
10
116.000000
20
330.875000
0
VERTEX
5
121
100
AcDbEntity
8
1
100
AcDbVertex
100
AcDb2dVertex
62
5
10
115.750000
20
330.562500
0
SEQEND
5
122
100
AcDbEntity
8
1
0
POLYLINE
5
123
100
AcDbEntity
8
1
6
CONTINUOUS
62
5
100
AcDb2dPolyline
66
1
10
0.0
20
0.0
30
0.0
70
0
0
VERTEX
5
124
100
AcDbEntity
8
1
100
AcDbVertex
100
AcDb2dVertex
62
5
10
119.000000
20
337.125000
0
VERTEX
5
125
100
AcDbEntity
8
1
100
AcDbVertex
100
AcDb2dVertex
62
5
10
119.000000
20
330.875000
0
VERTEX
5
126
100
AcDbEntity
8
1
100
AcDbVertex
100
AcDb2dVertex
62
5
10
119.750000
20
331.187500
0
VERTEX
5
127
100
AcDbEntity
8
1
100
AcDbVertex
100
AcDb2dVertex
62
5
10
120.750000
20
332.125000
0
VERTEX
5
128
100
AcDbEntity
8
1
100
AcDbVertex
100
AcDb2dVertex
62
5
10
121.500000
20
333.062500
0
VERTEX
5
129
100
AcDbEntity
8
1
100
AcDbVertex
100
AcDb2dVertex
62
5
10
122.000000
20
334.000000
0
SEQEND
5
12a
100
AcDbEntity
8
1
0
POLYLINE
5
12b
100
AcDbEntity
8
1
6
CONTINUOUS
62
5
100
AcDb2dPolyline
66
1
10
0.0
20
0.0
30
0.0
70
0
0
VERTEX
5
12c
100
AcDbEntity
8
1
100
AcDbVertex
100
AcDb2dVertex
62
5
10
91.750000
20
334.312500
0
VERTEX
5
12d
100
AcDbEntity
8
1
100
AcDbVertex
100
AcDb2dVertex
62
5
10
92.000000
20
334.000000
0
VERTEX
5
12e
100
AcDbEntity
8
1
100
AcDbVertex
100
AcDb2dVertex
62
5
10
98.750000
20
334.000000
0
SEQEND
5
12f
100
AcDbEntity
8
1
0
POLYLINE
5
130
100
AcDbEntity
8
1
6
CONTINUOUS
62
5
100
AcDb2dPolyline
66
1
10
0.0
20
0.0
30
0.0
70
0
0
VERTEX
5
131
100
AcDbEntity
8
1
100
AcDbVertex
100
AcDb2dVertex
62
5
10
104.500000
20
336.812500
0
VERTEX
5
132
100
AcDbEntity
8
1
100
AcDbVertex
100
AcDb2dVertex
62
5
10
103.750000
20
334.625000
0
VERTEX
5
133
100
AcDbEntity
8
1
100
AcDbVertex
100
AcDb2dVertex
62
5
10
103.000000
20
333.375000
0
VERTEX
5
134
100
AcDbEntity
8
1
100
AcDbVertex
100
AcDb2dVertex
62
5
10
101.750000
20
331.812500
0
VERTEX
5
135
100
AcDbEntity
8
1
100
AcDbVertex
100
AcDb2dVertex
62
5
10
100.500000
20
330.875000
0
SEQEND
5
136
100
AcDbEntity
8
1
0
POLYLINE
5
137
100
AcDbEntity
8
1
6
CONTINUOUS
62
5
100
AcDb2dPolyline
66
1
10
0.0
20
0.0
30
0.0
70
0
0
VERTEX
5
138
100
AcDbEntity
8
1
100
AcDbVertex
100
AcDb2dVertex
62
5
10
102.000000
20
334.937500
0
VERTEX
5
139
100
AcDbEntity
8
1
100
AcDbVertex
100
AcDb2dVertex
62
5
10
103.500000
20
333.687500
0
VERTEX
5
13a
100
AcDbEntity
8
1
100
AcDbVertex
100
AcDb2dVertex
62
5
10
104.500000
20
332.750000
0
SEQEND
5
13b
100
AcDbEntity
8
1
0
POLYLINE
5
13c
100
AcDbEntity
8
1
6
CONTINUOUS
62
5
100
AcDb2dPolyline
66
1
10
0.0
20
0.0
30
0.0
70
0
0
VERTEX
5
13d
100
AcDbEntity
8
1
100
AcDbVertex
100
AcDb2dVertex
62
5
10
124.000000
20
335.875000
0
VERTEX
5
13e
100
AcDbEntity
8
1
100
AcDbVertex
100
AcDb2dVertex
62
5
10
128.250000
20
335.875000
0
VERTEX
5
13f
100
AcDbEntity
8
1
100
AcDbVertex
100
AcDb2dVertex
62
5
10
128.250000
20
335.250000
0
VERTEX
5
140
100
AcDbEntity
8
1
100
AcDbVertex
100
AcDb2dVertex
62
5
10
128.000000
20
334.312500
0
VERTEX
5
141
100
AcDbEntity
8
1
100
AcDbVertex
100
AcDb2dVertex
62
5
10
127.500000
20
333.375000
0
VERTEX
5
142
100
AcDbEntity
8
1
100
AcDbVertex
100
AcDb2dVertex
62
5
10
126.750000
20
332.125000
0
VERTEX
5
143
100
AcDbEntity
8
1
100
AcDbVertex
100
AcDb2dVertex
62
5
10
126.000000
20
331.500000
0
VERTEX
5
144
100
AcDbEntity
8
1
100
AcDbVertex
100
AcDb2dVertex
62
5
10
124.750000
20
330.562500
0
SEQEND
5
145
100
AcDbEntity
8
1
0
POLYLINE
5
146
100
AcDbEntity
8
1
6
CONTINUOUS
62
5
100
AcDb2dPolyline
66
1
10
0.0
20
0.0
30
0.0
70
1
0
VERTEX
5
147
100
AcDbEntity
8
1
100
AcDbVertex
100
AcDb2dVertex
62
5
10
129.000000
20
337.437500
0
VERTEX
5
148
100
AcDbEntity
8
1
100
AcDbVertex
100
AcDb2dVertex
62
5
10
129.500000
20
337.437500
0
VERTEX
5
149
100
AcDbEntity
8
1
100
AcDbVertex
100
AcDb2dVertex
62
5
10
129.750000
20
337.125000
0
VERTEX
5
14a
100
AcDbEntity
8
1
100
AcDbVertex
100
AcDb2dVertex
62
5
10
129.750000
20
336.500000
0
VERTEX
5
14b
100
AcDbEntity
8
1
100
AcDbVertex
100
AcDb2dVertex
62
5
10
129.500000
20
336.187500
0
VERTEX
5
14c
100
AcDbEntity
8
1
100
AcDbVertex
100
AcDb2dVertex
62
5
10
129.000000
20
336.187500
0
VERTEX
5
14d
100
AcDbEntity
8
1
100
AcDbVertex
100
AcDb2dVertex
62
5
10
128.750000
20
336.500000
0
VERTEX
5
14e
100
AcDbEntity
8
1
100
AcDbVertex
100
AcDb2dVertex
62
5
10
128.750000
20
337.125000
0
VERTEX
5
14f
100
AcDbEntity
8
1
100
AcDbVertex
100
AcDb2dVertex
62
5
10
129.000000
20
337.437500
0
SEQEND
5
150
100
AcDbEntity
8
1
0
LINE
5
151
100
AcDbEntity
8
1
100
AcDbLine
6
CONTINUOUS
62
5
10
77.000000
20
335.875000
11
80.500000
21
335.875000
0
LINE
5
152
100
AcDbEntity
8
1
100
AcDbLine
6
CONTINUOUS
62
5
10
76.000000
20
331.812500
11
81.500000
21
331.812500
0
LINE
5
153
100
AcDbEntity
8
1
100
AcDbLine
6
CONTINUOUS
62
5
10
50.000000
20
350.000000
11
50.000000
21
318.000000
0
LINE
5
154
100
AcDbEntity
8
1
100
AcDbLine
6
CONTINUOUS
62
5
10
50.000000
20
350.000000
11
50.000000
21
318.000000
0
POLYLINE
5
155
100
AcDbEntity
8
1
6
CONTINUOUS
62
5
100
AcDb2dPolyline
66
1
10
0.0
20
0.0
30
0.0
70
1
0
VERTEX
5
156
100
AcDbEntity
8
1
100
AcDbVertex
100
AcDb2dVertex
62
5
10
63.750000
20
300.500000
0
VERTEX
5
157
100
AcDbEntity
8
1
100
AcDbVertex
100
AcDb2dVertex
62
5
10
64.375000
20
300.500000
0
VERTEX
5
158
100
AcDbEntity
8
1
100
AcDbVertex
100
AcDb2dVertex
62
5
10
65.000000
20
300.187500
0
VERTEX
5
159
100
AcDbEntity
8
1
100
AcDbVertex
100
AcDb2dVertex
62
5
10
65.312500
20
299.562500
0
VERTEX
5
15a
100
AcDbEntity
8
1
100
AcDbVertex
100
AcDb2dVertex
62
5
10
65.312500
20
298.312500
0
VERTEX
5
15b
100
AcDbEntity
8
1
100
AcDbVertex
100
AcDb2dVertex
62
5
10
65.000000
20
297.687500
0
VERTEX
5
15c
100
AcDbEntity
8
1
100
AcDbVertex
100
AcDb2dVertex
62
5
10
63.125000
20
296.437500
0
VERTEX
5
15d
100
AcDbEntity
8
1
100
AcDbVertex
100
AcDb2dVertex
62
5
10
62.500000
20
295.500000
0
VERTEX
5
15e
100
AcDbEntity
8
1
100
AcDbVertex
100
AcDb2dVertex
62
5
10
62.500000
20
294.250000
0
VERTEX
5
15f
100
AcDbEntity
8
1
100
AcDbVertex
100
AcDb2dVertex
62
5
10
62.812500
20
293.625000
0
VERTEX
5
160
100
AcDbEntity
8
1
100
AcDbVertex
100
AcDb2dVertex
62
5
10
63.125000
20
293.312500
0
VERTEX
5
161
100
AcDbEntity
8
1
100
AcDbVertex
100
AcDb2dVertex
62
5
10
63.750000
20
293.000000
0
VERTEX
5
162
100
AcDbEntity
8
1
100
AcDbVertex
100
AcDb2dVertex
62
5
10
64.375000
20
293.000000
0
VERTEX
5
163
100
AcDbEntity
8
1
100
AcDbVertex
100
AcDb2dVertex
62
5
10
65.000000
20
293.312500
0
VERTEX
5
164
100
AcDbEntity
8
1
100
AcDbVertex
100
AcDb2dVertex
62
5
10
65.312500
20
293.625000
0
VERTEX
5
165
100
AcDbEntity
8
1
100
AcDbVertex
100
AcDb2dVertex
62
5
10
65.625000
20
294.250000
0
VERTEX
5
166
100
AcDbEntity
8
1
100
AcDbVertex
100
AcDb2dVertex
62
5
10
65.625000
20
295.500000
0
VERTEX
5
167
100
AcDbEntity
8
1
100
AcDbVertex
100
AcDb2dVertex
62
5
10
65.000000
20
296.437500
0
VERTEX
5
168
100
AcDbEntity
8
1
100
AcDbVertex
100
AcDb2dVertex
62
5
10
63.125000
20
297.687500
0
VERTEX
5
169
100
AcDbEntity
8
1
100
AcDbVertex
100
AcDb2dVertex
62
5
10
62.812500
20
298.312500
0
VERTEX
5
16a
100
AcDbEntity
8
1
100
AcDbVertex
100
AcDb2dVertex
62
5
10
62.812500
20
299.562500
0
VERTEX
5
16b
100
AcDbEntity
8
1
100
AcDbVertex
100
AcDb2dVertex
62
5
10
63.125000
20
300.187500
0
VERTEX
5
16c
100
AcDbEntity
8
1
100
AcDbVertex
100
AcDb2dVertex
62
5
10
63.750000
20
300.500000
0
SEQEND
5
16d
100
AcDbEntity
8
1
0
POLYLINE
5
16e
100
AcDbEntity
8
1
6
CONTINUOUS
62
5
100
AcDb2dPolyline
66
1
10
0.0
20
0.0
30
0.0
70
1
0
VERTEX
5
16f
100
AcDbEntity
8
1
100
AcDbVertex
100
AcDb2dVertex
62
5
10
68.750000
20
300.500000
0
VERTEX
5
170
100
AcDbEntity
8
1
100
AcDbVertex
100
AcDb2dVertex
62
5
10
69.375000
20
300.500000
0
VERTEX
5
171
100
AcDbEntity
8
1
100
AcDbVertex
100
AcDb2dVertex
62
5
10
69.687500
20
300.187500
0
VERTEX
5
172
100
AcDbEntity
8
1
100
AcDbVertex
100
AcDb2dVertex
62
5
10
70.312500
20
298.937500
0
VERTEX
5
173
100
AcDbEntity
8
1
100
AcDbVertex
100
AcDb2dVertex
62
5
10
70.625000
20
297.687500
0
VERTEX
5
174
100
AcDbEntity
8
1
100
AcDbVertex
100
AcDb2dVertex
62
5
10
70.625000
20
295.812500
0
VERTEX
5
175
100
AcDbEntity
8
1
100
AcDbVertex
100
AcDb2dVertex
62
5
10
70.312500
20
294.562500
0
VERTEX
5
176
100
AcDbEntity
8
1
100
AcDbVertex
100
AcDb2dVertex
62
5
10
69.687500
20
293.312500
0
VERTEX
5
177
100
AcDbEntity
8
1
100
AcDbVertex
100
AcDb2dVertex
62
5
10
69.375000
20
293.000000
0
VERTEX
5
178
100
AcDbEntity
8
1
100
AcDbVertex
100
AcDb2dVertex
62
5
10
68.750000
20
293.000000
0
VERTEX
5
179
100
AcDbEntity
8
1
100
AcDbVertex
100
AcDb2dVertex
62
5
10
68.437500
20
293.312500
0
VERTEX
5
17a
100
AcDbEntity
8
1
100
AcDbVertex
100
AcDb2dVertex
62
5
10
67.812500
20
294.562500
0
VERTEX
5
17b
100
AcDbEntity
8
1
100
AcDbVertex
100
AcDb2dVertex
62
5
10
67.500000
20
295.812500
0
VERTEX
5
17c
100
AcDbEntity
8
1
100
AcDbVertex
100
AcDb2dVertex
62
5
10
67.500000
20
297.687500
0
VERTEX
5
17d
100
AcDbEntity
8
1
100
AcDbVertex
100
AcDb2dVertex
62
5
10
67.812500
20
298.937500
0
VERTEX
5
17e
100
AcDbEntity
8
1
100
AcDbVertex
100
AcDb2dVertex
62
5
10
68.437500
20
300.187500
0
VERTEX
5
17f
100
AcDbEntity
8
1
100
AcDbVertex
100
AcDb2dVertex
62
5
10
68.750000
20
300.500000
0
SEQEND
5
180
100
AcDbEntity
8
1
0
POLYLINE
5
181
100
AcDbEntity
8
1
6
CONTINUOUS
62
5
100
AcDb2dPolyline
66
1
10
0.0
20
0.0
30
0.0
70
0
0
VERTEX
5
182
100
AcDbEntity
8
1
100
AcDbVertex
100
AcDb2dVertex
62
5
10
72.500000
20
299.562500
0
VERTEX
5
183
100
AcDbEntity
8
1
100
AcDbVertex
100
AcDb2dVertex
62
5
10
72.500000
20
300.500000
0
VERTEX
5
184
100
AcDbEntity
8
1
100
AcDbVertex
100
AcDb2dVertex
62
5
10
75.625000
20
300.500000
0
VERTEX
5
185
100
AcDbEntity
8
1
100
AcDbVertex
100
AcDb2dVertex
62
5
10
75.625000
20
299.875000
0
VERTEX
5
186
100
AcDbEntity
8
1
100
AcDbVertex
100
AcDb2dVertex
62
5
10
75.000000
20
298.312500
0
VERTEX
5
187
100
AcDbEntity
8
1
100
AcDbVertex
100
AcDb2dVertex
62
5
10
74.375000
20
296.125000
0
VERTEX
5
188
100
AcDbEntity
8
1
100
AcDbVertex
100
AcDb2dVertex
62
5
10
73.750000
20
293.000000
0
SEQEND
5
189
100
AcDbEntity
8
1
0
POLYLINE
5
18a
100
AcDbEntity
8
1
6
CONTINUOUS
62
5
100
AcDb2dPolyline
66
1
10
0.0
20
0.0
30
0.0
70
0
0
VERTEX
5
18b
100
AcDbEntity
8
1
100
AcDbVertex
100
AcDb2dVertex
62
5
10
77.500000
20
293.000000
0
VERTEX
5
18c
100
AcDbEntity
8
1
100
AcDbVertex
100
AcDb2dVertex
62
5
10
79.062500
20
300.500000
0
VERTEX
5
18d
100
AcDbEntity
8
1
100
AcDbVertex
100
AcDb2dVertex
62
5
10
80.625000
20
293.000000
0
SEQEND
5
18e
100
AcDbEntity
8
1
0
LINE
5
18f
100
AcDbEntity
8
1
100
AcDbLine
6
CONTINUOUS
62
5
10
78.125000
20
295.500000
11
80.000000
21
295.500000
0
POLYLINE
5
190
100
AcDbEntity
8
1
6
CONTINUOUS
62
5
100
AcDb2dPolyline
66
1
10
0.0
20
0.0
30
0.0
70
0
0
VERTEX
5
191
100
AcDbEntity
8
1
100
AcDbVertex
100
AcDb2dVertex
62
5
10
85.500000
20
334.312500
0
VERTEX
5
192
100
AcDbEntity
8
1
100
AcDbVertex
100
AcDb2dVertex
62
5
10
87.500000
20
334.312500
0
VERTEX
5
193
100
AcDbEntity
8
1
100
AcDbVertex
100
AcDb2dVertex
62
5
10
87.250000
20
331.187500
0
SEQEND
5
194
100
AcDbEntity
8
1
0
LINE
5
195
100
AcDbEntity
8
1
100
AcDbLine
6
CONTINUOUS
62
5
10
84.750000
20
331.187500
11
89.000000
21
331.187500
0
POLYLINE
5
196
100
AcDbEntity
8
1
6
DOT2
62
5
100
AcDb2dPolyline
66
1
10
0.0
20
0.0
30
0.0
70
0
0
VERTEX
5
197
100
AcDbEntity
8
1
100
AcDbVertex
100
AcDb2dVertex
62
5
10
136.250000
20
250.312500
0
VERTEX
5
198
100
AcDbEntity
8
1
100
AcDbVertex
100
AcDb2dVertex
62
5
10
136.250000
20
251.250000
0
VERTEX
5
199
100
AcDbEntity
8
1
100
AcDbVertex
100
AcDb2dVertex
62
5
10
139.375000
20
251.250000
0
VERTEX
5
19a
100
AcDbEntity
8
1
100
AcDbVertex
100
AcDb2dVertex
62
5
10
139.375000
20
250.625000
0
VERTEX
5
19b
100
AcDbEntity
8
1
100
AcDbVertex
100
AcDb2dVertex
62
5
10
138.750000
20
249.062500
0
VERTEX
5
19c
100
AcDbEntity
8
1
100
AcDbVertex
100
AcDb2dVertex
62
5
10
138.125000
20
246.875000
0
VERTEX
5
19d
100
AcDbEntity
8
1
100
AcDbVertex
100
AcDb2dVertex
62
5
10
137.500000
20
243.750000
0
SEQEND
5
19e
100
AcDbEntity
8
1
0
POLYLINE
5
19f
100
AcDbEntity
8
1
6
DOT2
62
5
100
AcDb2dPolyline
66
1
10
0.0
20
0.0
30
0.0
70
1
0
VERTEX
5
1a0
100
AcDbEntity
8
1
100
AcDbVertex
100
AcDb2dVertex
62
5
10
142.500000
20
251.250000
0
VERTEX
5
1a1
100
AcDbEntity
8
1
100
AcDbVertex
100
AcDb2dVertex
62
5
10
143.125000
20
251.250000
0
VERTEX
5
1a2
100
AcDbEntity
8
1
100
AcDbVertex
100
AcDb2dVertex
62
5
10
143.437500
20
250.937500
0
VERTEX
5
1a3
100
AcDbEntity
8
1
100
AcDbVertex
100
AcDb2dVertex
62
5
10
144.062500
20
249.687500
0
VERTEX
5
1a4
100
AcDbEntity
8
1
100
AcDbVertex
100
AcDb2dVertex
62
5
10
144.375000
20
248.437500
0
VERTEX
5
1a5
100
AcDbEntity
8
1
100
AcDbVertex
100
AcDb2dVertex
62
5
10
144.375000
20
246.562500
0
VERTEX
5
1a6
100
AcDbEntity
8
1
100
AcDbVertex
100
AcDb2dVertex
62
5
10
144.062500
20
245.312500
0
VERTEX
5
1a7
100
AcDbEntity
8
1
100
AcDbVertex
100
AcDb2dVertex
62
5
10
143.437500
20
244.062500
0
VERTEX
5
1a8
100
AcDbEntity
8
1
100
AcDbVertex
100
AcDb2dVertex
62
5
10
143.125000
20
243.750000
0
VERTEX
5
1a9
100
AcDbEntity
8
1
100
AcDbVertex
100
AcDb2dVertex
62
5
10
142.500000
20
243.750000
0
VERTEX
5
1aa
100
AcDbEntity
8
1
100
AcDbVertex
100
AcDb2dVertex
62
5
10
142.187500
20
244.062500
0
VERTEX
5
1ab
100
AcDbEntity
8
1
100
AcDbVertex
100
AcDb2dVertex
62
5
10
141.562500
20
245.312500
0
VERTEX
5
1ac
100
AcDbEntity
8
1
100
AcDbVertex
100
AcDb2dVertex
62
5
10
141.250000
20
246.562500
0
VERTEX
5
1ad
100
AcDbEntity
8
1
100
AcDbVertex
100
AcDb2dVertex
62
5
10
141.250000
20
248.437500
0
VERTEX
5
1ae
100
AcDbEntity
8
1
100
AcDbVertex
100
AcDb2dVertex
62
5
10
141.562500
20
249.687500
0
VERTEX
5
1af
100
AcDbEntity
8
1
100
AcDbVertex
100
AcDb2dVertex
62
5
10
142.187500
20
250.937500
0
VERTEX
5
1b0
100
AcDbEntity
8
1
100
AcDbVertex
100
AcDb2dVertex
62
5
10
142.500000
20
251.250000
0
SEQEND
5
1b1
100
AcDbEntity
8
1
0
LINE
5
1b2
100
AcDbEntity
8
1
100
AcDbLine
6
CONTINUOUS
62
5
10
105.000000
20
215.000000
11
105.000000
21
244.500000
0
LINE
5
1b3
100
AcDbEntity
8
1
100
AcDbLine
6
CONTINUOUS
62
5
10
175.000000
20
215.000000
11
175.000000
21
244.500000
0
POLYLINE
5
1b4
100
AcDbEntity
8
1
6
CONTINUOUS
62
5
100
AcDb2dPolyline
66
1
10
0.0
20
0.0
30
0.0
70
0
0
VERTEX
5
1b5
100
AcDbEntity
8
1
100
AcDbVertex
100
AcDb2dVertex
62
5
10
140.000000
20
242.500000
0
VERTEX
5
1b6
100
AcDbEntity
8
1
100
AcDbVertex
100
AcDb2dVertex
62
5
10
105.000000
20
242.500000
0
VERTEX
5
1b7
100
AcDbEntity
8
1
100
AcDbVertex
100
AcDb2dVertex
62
5
10
111.000000
20
243.500000
0
VERTEX
5
1b8
100
AcDbEntity
8
1
100
AcDbVertex
100
AcDb2dVertex
62
5
10
111.000000
20
241.500000
0
VERTEX
5
1b9
100
AcDbEntity
8
1
100
AcDbVertex
100
AcDb2dVertex
62
5
10
105.000000
20
242.500000
0
VERTEX
5
1ba
100
AcDbEntity
8
1
100
AcDbVertex
100
AcDb2dVertex
62
5
10
111.000000
20
243.000000
0
VERTEX
5
1bb
100
AcDbEntity
8
1
100
AcDbVertex
100
AcDb2dVertex
62
5
10
111.000000
20
242.000000
0
VERTEX
5
1bc
100
AcDbEntity
8
1
100
AcDbVertex
100
AcDb2dVertex
62
5
10
105.000000
20
242.500000
0
SEQEND
5
1bd
100
AcDbEntity
8
1
0
POLYLINE
5
1be
100
AcDbEntity
8
1
6
CONTINUOUS
62
5
100
AcDb2dPolyline
66
1
10
0.0
20
0.0
30
0.0
70
0
0
VERTEX
5
1bf
100
AcDbEntity
8
1
100
AcDbVertex
100
AcDb2dVertex
62
5
10
140.000000
20
242.500000
0
VERTEX
5
1c0
100
AcDbEntity
8
1
100
AcDbVertex
100
AcDb2dVertex
62
5
10
175.000000
20
242.500000
0
VERTEX
5
1c1
100
AcDbEntity
8
1
100
AcDbVertex
100
AcDb2dVertex
62
5
10
169.000000
20
241.500000
0
VERTEX
5
1c2
100
AcDbEntity
8
1
100
AcDbVertex
100
AcDb2dVertex
62
5
10
169.000000
20
243.500000
0
VERTEX
5
1c3
100
AcDbEntity
8
1
100
AcDbVertex
100
AcDb2dVertex
62
5
10
175.000000
20
242.500000
0
VERTEX
5
1c4
100
AcDbEntity
8
1
100
AcDbVertex
100
AcDb2dVertex
62
5
10
169.000000
20
242.000000
0
VERTEX
5
1c5
100
AcDbEntity
8
1
100
AcDbVertex
100
AcDb2dVertex
62
5
10
169.000000
20
243.000000
0
VERTEX
5
1c6
100
AcDbEntity
8
1
100
AcDbVertex
100
AcDb2dVertex
62
5
10
175.000000
20
242.500000
0
SEQEND
5
1c7
100
AcDbEntity
8
1
0
LINE
5
1c8
100
AcDbEntity
8
1
100
AcDbLine
6
CONTINUOUS
62
5
10
167.750000
20
337.750000
11
168.750000
21
336.812500
0
POLYLINE
5
1c9
100
AcDbEntity
8
1
6
CONTINUOUS
62
5
100
AcDb2dPolyline
66
1
10
0.0
20
0.0
30
0.0
70
0
0
VERTEX
5
1ca
100
AcDbEntity
8
1
100
AcDbVertex
100
AcDb2dVertex
62
5
10
167.250000
20
334.000000
0
VERTEX
5
1cb
100
AcDbEntity
8
1
100
AcDbVertex
100
AcDb2dVertex
62
5
10
168.500000
20
334.000000
0
VERTEX
5
1cc
100
AcDbEntity
8
1
100
AcDbVertex
100
AcDb2dVertex
62
5
10
168.500000
20
330.875000
0
VERTEX
5
1cd
100
AcDbEntity
8
1
100
AcDbVertex
100
AcDb2dVertex
62
5
10
167.250000
20
329.937500
0
SEQEND
5
1ce
100
AcDbEntity
8
1
0
POLYLINE
5
1cf
100
AcDbEntity
8
1
6
CONTINUOUS
62
5
100
AcDb2dPolyline
66
1
10
0.0
20
0.0
30
0.0
70
0
0
VERTEX
5
1d0
100
AcDbEntity
8
1
100
AcDbVertex
100
AcDb2dVertex
62
5
10
168.500000
20
330.875000
0
VERTEX
5
1d1
100
AcDbEntity
8
1
100
AcDbVertex
100
AcDb2dVertex
62
5
10
169.500000
20
330.250000
0
VERTEX
5
1d2
100
AcDbEntity
8
1
100
AcDbVertex
100
AcDb2dVertex
62
5
10
174.250000
20
329.625000
0
SEQEND
5
1d3
100
AcDbEntity
8
1
0
LINE
5
1d4
100
AcDbEntity
8
1
100
AcDbLine
6
CONTINUOUS
62
5
10
169.500000
20
337.125000
11
174.250000
21
337.125000
0
LINE
5
1d5
100
AcDbEntity
8
1
100
AcDbLine
6
CONTINUOUS
62
5
10
172.000000
20
338.375000
11
172.000000
21
330.875000
0
POLYLINE
5
1d6
100
AcDbEntity
8
1
6
CONTINUOUS
62
5
100
AcDb2dPolyline
66
1
10
0.0
20
0.0
30
0.0
70
1
0
VERTEX
5
1d7
100
AcDbEntity
8
1
100
AcDbVertex
100
AcDb2dVertex
62
5
10
170.000000
20
335.875000
0
VERTEX
5
1d8
100
AcDbEntity
8
1
100
AcDbVertex
100
AcDb2dVertex
62
5
10
170.000000
20
333.375000
0
VERTEX
5
1d9
100
AcDbEntity
8
1
100
AcDbVertex
100
AcDb2dVertex
62
5
10
173.750000
20
333.375000
0
VERTEX
5
1da
100
AcDbEntity
8
1
100
AcDbVertex
100
AcDb2dVertex
62
5
10
173.750000
20
335.875000
0
VERTEX
5
1db
100
AcDbEntity
8
1
100
AcDbVertex
100
AcDb2dVertex
62
5
10
170.000000
20
335.875000
0
SEQEND
5
1dc
100
AcDbEntity
8
1
0
LINE
5
1dd
100
AcDbEntity
8
1
100
AcDbLine
6
CONTINUOUS
62
5
10
170.000000
20
334.625000
11
173.750000
21
334.625000
0
LINE
5
1de
100
AcDbEntity
8
1
100
AcDbLine
6
CONTINUOUS
62
5
10
169.000000
20
332.125000
11
174.500000
21
332.125000
0
LINE
5
1df
100
AcDbEntity
8
1
100
AcDbLine
6
CONTINUOUS
62
5
10
10.000000
20
318.000000
11
330.000000
21
318.000000
0
LINE
5
1e0
100
AcDbEntity
8
1
100
AcDbLine
6
CONTINUOUS
62
5
10
10.000000
20
318.000000
11
330.000000
21
318.000000
0
CIRCLE
5
1e1
100
AcDbEntity
8
1
100
AcDbCircle
6
CONTINUOUS
62
5
10
140.000000
20
160.000000
40
2.250000
0
CIRCLE
5
1e2
100
AcDbEntity
8
1
100
AcDbCircle
6
CONTINUOUS
62
5
10
140.000000
20
160.000000
40
3.750000
0
ARC
5
1e3
100
AcDbEntity
8
1
100
AcDbCircle
6
CONTINUOUS
62
5
10
140.000000
20
140.500000
40
17.250000
100
AcDbArc
50
-55.698847
51
55.698847
0
LINE
5
1e4
100
AcDbEntity
8
1
100
AcDbLine
6
CONTINUOUS
62
5
10
149.721111
20
154.750000
11
130.278889
21
154.750000
0
ARC
5
1e5
100
AcDbEntity
8
1
100
AcDbCircle
6
CONTINUOUS
62
5
10
140.000000
20
140.500000
40
17.250000
100
AcDbArc
50
124.301152
51
-124.301152
0
LINE
5
1e6
100
AcDbEntity
8
1
100
AcDbLine
6
CONTINUOUS
62
5
10
130.278889
20
126.250000
11
149.721111
21
126.250000
0
POLYLINE
5
1e7
100
AcDbEntity
8
1
6
DOT2
62
5
100
AcDb2dPolyline
66
1
10
0.0
20
0.0
30
0.0
70
0
0
VERTEX
5
1e8
100
AcDbEntity
8
1
100
AcDbVertex
100
AcDb2dVertex
62
5
10
71.875000
20
159.375000
0
VERTEX
5
1e9
100
AcDbEntity
8
1
100
AcDbVertex
100
AcDb2dVertex
62
5
10
71.250000
20
160.312500
0
VERTEX
5
1ea
100
AcDbEntity
8
1
100
AcDbVertex
100
AcDb2dVertex
62
5
10
78.750000
20
160.312500
0
SEQEND
5
1eb
100
AcDbEntity
8
1
0
LINE
5
1ec
100
AcDbEntity
8
1
100
AcDbLine
6
DOT2
62
5
10
78.750000
20
159.687500
11
78.750000
21
160.937500
0
LINE
5
1ed
100
AcDbEntity
8
1
100
AcDbLine
6
DOT2
62
5
10
71.250000
20
163.750000
11
71.250000
21
166.562500
0
POLYLINE
5
1ee
100
AcDbEntity
8
1
6
DOT2
62
5
100
AcDb2dPolyline
66
1
10
0.0
20
0.0
30
0.0
70
0
0
VERTEX
5
1ef
100
AcDbEntity
8
1
100
AcDbVertex
100
AcDb2dVertex
62
5
10
71.250000
20
163.750000
0
VERTEX
5
1f0
100
AcDbEntity
8
1
100
AcDbVertex
100
AcDb2dVertex
62
5
10
75.000000
20
163.750000
0
VERTEX
5
1f1
100
AcDbEntity
8
1
100
AcDbVertex
100
AcDb2dVertex
62
5
10
74.375000
20
164.375000
0
VERTEX
5
1f2
100
AcDbEntity
8
1
100
AcDbVertex
100
AcDb2dVertex
62
5
10
74.062500
20
165.000000
0
VERTEX
5
1f3
100
AcDbEntity
8
1
100
AcDbVertex
100
AcDb2dVertex
62
5
10
74.062500
20
165.937500
0
VERTEX
5
1f4
100
AcDbEntity
8
1
100
AcDbVertex
100
AcDb2dVertex
62
5
10
74.375000
20
166.562500
0
VERTEX
5
1f5
100
AcDbEntity
8
1
100
AcDbVertex
100
AcDb2dVertex
62
5
10
75.312500
20
166.875000
0
VERTEX
5
1f6
100
AcDbEntity
8
1
100
AcDbVertex
100
AcDb2dVertex
62
5
10
77.187500
20
166.875000
0
VERTEX
5
1f7
100
AcDbEntity
8
1
100
AcDbVertex
100
AcDb2dVertex
62
5
10
78.125000
20
166.250000
0
VERTEX
5
1f8
100
AcDbEntity
8
1
100
AcDbVertex
100
AcDb2dVertex
62
5
10
78.750000
20
165.312500
0
VERTEX
5
1f9
100
AcDbEntity
8
1
100
AcDbVertex
100
AcDb2dVertex
62
5
10
78.750000
20
163.750000
0
SEQEND
5
1fa
100
AcDbEntity
8
1
0
POLYLINE
5
1fb
100
AcDbEntity
8
1
6
DOT2
62
5
100
AcDb2dPolyline
66
1
10
0.0
20
0.0
30
0.0
70
0
0
VERTEX
5
1fc
100
AcDbEntity
8
1
100
AcDbVertex
100
AcDb2dVertex
62
5
10
71.875000
20
154.375000
0
VERTEX
5
1fd
100
AcDbEntity
8
1
100
AcDbVertex
100
AcDb2dVertex
62
5
10
71.250000
20
155.312500
0
VERTEX
5
1fe
100
AcDbEntity
8
1
100
AcDbVertex
100
AcDb2dVertex
62
5
10
78.750000
20
155.312500
0
SEQEND
5
1ff
100
AcDbEntity
8
1
0
LINE
5
200
100
AcDbEntity
8
1
100
AcDbLine
6
DOT2
62
5
10
78.750000
20
154.687500
11
78.750000
21
155.937500
0
LINE
5
201
100
AcDbEntity
8
1
100
AcDbLine
6
CONTINUOUS
62
5
10
107.500000
20
217.500000
11
78.000000
21
217.500000
0
LINE
5
202
100
AcDbEntity
8
1
100
AcDbLine
6
CONTINUOUS
62
5
10
107.500000
20
102.500000
11
78.000000
21
102.500000
0
POLYLINE
5
203
100
AcDbEntity
8
1
6
CONTINUOUS
62
5
100
AcDb2dPolyline
66
1
10
0.0
20
0.0
30
0.0
70
0
0
VERTEX
5
204
100
AcDbEntity
8
1
100
AcDbVertex
100
AcDb2dVertex
62
5
10
80.000000
20
160.000000
0
VERTEX
5
205
100
AcDbEntity
8
1
100
AcDbVertex
100
AcDb2dVertex
62
5
10
80.000000
20
102.500000
0
VERTEX
5
206
100
AcDbEntity
8
1
100
AcDbVertex
100
AcDb2dVertex
62
5
10
79.000000
20
108.500000
0
VERTEX
5
207
100
AcDbEntity
8
1
100
AcDbVertex
100
AcDb2dVertex
62
5
10
81.000000
20
108.500000
0
VERTEX
5
208
100
AcDbEntity
8
1
100
AcDbVertex
100
AcDb2dVertex
62
5
10
80.000000
20
102.500000
0
VERTEX
5
209
100
AcDbEntity
8
1
100
AcDbVertex
100
AcDb2dVertex
62
5
10
79.500000
20
108.500000
0
VERTEX
5
20a
100
AcDbEntity
8
1
100
AcDbVertex
100
AcDb2dVertex
62
5
10
80.500000
20
108.500000
0
VERTEX
5
20b
100
AcDbEntity
8
1
100
AcDbVertex
100
AcDb2dVertex
62
5
10
80.000000
20
102.500000
0
SEQEND
5
20c
100
AcDbEntity
8
1
0
POLYLINE
5
20d
100
AcDbEntity
8
1
6
CONTINUOUS
62
5
100
AcDb2dPolyline
66
1
10
0.0
20
0.0
30
0.0
70
0
0
VERTEX
5
20e
100
AcDbEntity
8
1
100
AcDbVertex
100
AcDb2dVertex
62
5
10
80.000000
20
160.000000
0
VERTEX
5
20f
100
AcDbEntity
8
1
100
AcDbVertex
100
AcDb2dVertex
62
5
10
80.000000
20
217.500000
0
VERTEX
5
210
100
AcDbEntity
8
1
100
AcDbVertex
100
AcDb2dVertex
62
5
10
81.000000
20
211.500000
0
VERTEX
5
211
100
AcDbEntity
8
1
100
AcDbVertex
100
AcDb2dVertex
62
5
10
79.000000
20
211.500000
0
VERTEX
5
212
100
AcDbEntity
8
1
100
AcDbVertex
100
AcDb2dVertex
62
5
10
80.000000
20
217.500000
0
VERTEX
5
213
100
AcDbEntity
8
1
100
AcDbVertex
100
AcDb2dVertex
62
5
10
80.500000
20
211.500000
0
VERTEX
5
214
100
AcDbEntity
8
1
100
AcDbVertex
100
AcDb2dVertex
62
5
10
79.500000
20
211.500000
0
VERTEX
5
215
100
AcDbEntity
8
1
100
AcDbVertex
100
AcDb2dVertex
62
5
10
80.000000
20
217.500000
0
SEQEND
5
216
100
AcDbEntity
8
1
0
LINE
5
217
100
AcDbEntity
8
1
100
AcDbLine
6
CONTINUOUS
62
5
10
230.000000
20
161.500000
11
230.000000
21
244.500000
0
LINE
5
218
100
AcDbEntity
8
1
100
AcDbLine
6
CONTINUOUS
62
5
10
235.000000
20
219.000000
11
235.000000
21
244.500000
0
POLYLINE
5
219
100
AcDbEntity
8
1
6
CONTINUOUS
62
5
100
AcDb2dPolyline
66
1
10
0.0
20
0.0
30
0.0
70
0
0
VERTEX
5
21a
100
AcDbEntity
8
1
100
AcDbVertex
100
AcDb2dVertex
62
5
10
251.250000
20
242.500000
0
VERTEX
5
21b
100
AcDbEntity
8
1
100
AcDbVertex
100
AcDb2dVertex
62
5
10
235.000000
20
242.500000
0
VERTEX
5
21c
100
AcDbEntity
8
1
100
AcDbVertex
100
AcDb2dVertex
62
5
10
241.000000
20
243.500000
0
VERTEX
5
21d
100
AcDbEntity
8
1
100
AcDbVertex
100
AcDb2dVertex
62
5
10
241.000000
20
241.500000
0
VERTEX
5
21e
100
AcDbEntity
8
1
100
AcDbVertex
100
AcDb2dVertex
62
5
10
235.000000
20
242.500000
0
VERTEX
5
21f
100
AcDbEntity
8
1
100
AcDbVertex
100
AcDb2dVertex
62
5
10
241.000000
20
243.000000
0
VERTEX
5
220
100
AcDbEntity
8
1
100
AcDbVertex
100
AcDb2dVertex
62
5
10
241.000000
20
242.000000
0
VERTEX
5
221
100
AcDbEntity
8
1
100
AcDbVertex
100
AcDb2dVertex
62
5
10
235.000000
20
242.500000
0
SEQEND
5
222
100
AcDbEntity
8
1
0
LINE
5
223
100
AcDbEntity
8
1
100
AcDbLine
6
CONTINUOUS
62
5
10
235.000000
20
242.500000
11
230.000000
21
242.500000
0
POLYLINE
5
224
100
AcDbEntity
8
1
6
CONTINUOUS
62
5
100
AcDb2dPolyline
66
1
10
0.0
20
0.0
30
0.0
70
0
0
VERTEX
5
225
100
AcDbEntity
8
1
100
AcDbVertex
100
AcDb2dVertex
62
5
10
221.000000
20
242.500000
0
VERTEX
5
226
100
AcDbEntity
8
1
100
AcDbVertex
100
AcDb2dVertex
62
5
10
230.000000
20
242.500000
0
VERTEX
5
227
100
AcDbEntity
8
1
100
AcDbVertex
100
AcDb2dVertex
62
5
10
224.000000
20
241.500000
0
VERTEX
5
228
100
AcDbEntity
8
1
100
AcDbVertex
100
AcDb2dVertex
62
5
10
224.000000
20
243.500000
0
VERTEX
5
229
100
AcDbEntity
8
1
100
AcDbVertex
100
AcDb2dVertex
62
5
10
230.000000
20
242.500000
0
VERTEX
5
22a
100
AcDbEntity
8
1
100
AcDbVertex
100
AcDb2dVertex
62
5
10
224.000000
20
242.000000
0
VERTEX
5
22b
100
AcDbEntity
8
1
100
AcDbVertex
100
AcDb2dVertex
62
5
10
224.000000
20
243.000000
0
VERTEX
5
22c
100
AcDbEntity
8
1
100
AcDbVertex
100
AcDb2dVertex
62
5
10
230.000000
20
242.500000
0
SEQEND
5
22d
100
AcDbEntity
8
1
0
ARC
5
22e
100
AcDbEntity
8
1
100
AcDbCircle
6
CONTINUOUS
62
5
10
234.413509
20
106.000000
40
3.500000
100
AcDbArc
50
-178.061657
51
-89.999999
0
ARC
5
22f
100
AcDbEntity
8
1
100
AcDbCircle
6
CONTINUOUS
62
5
10
1830.000000
20
160.000000
40
1600.000000
100
AcDbArc
50
178.061657
51
-178.061657
0
ARC
5
230
100
AcDbEntity
8
1
100
AcDbCircle
6
CONTINUOUS
62
5
10
234.413509
20
214.000000
40
3.500000
100
AcDbArc
50
89.999999
51
178.061657
0
POLYLINE
5
231
100
AcDbEntity
8
1
6
CONTINUOUS
62
5
100
AcDb2dPolyline
66
1
10
0.0
20
0.0
30
0.0
70
0
0
VERTEX
5
232
100
AcDbEntity
8
1
100
AcDbVertex
100
AcDb2dVertex
62
5
10
234.413509
20
217.500000
0
VERTEX
5
233
100
AcDbEntity
8
1
100
AcDbVertex
100
AcDb2dVertex
62
5
10
235.000000
20
217.500000
0
VERTEX
5
234
100
AcDbEntity
8
1
100
AcDbVertex
100
AcDb2dVertex
62
5
10
235.000000
20
102.500000
0
VERTEX
5
235
100
AcDbEntity
8
1
100
AcDbVertex
100
AcDb2dVertex
62
5
10
234.413509
20
102.500000
0
SEQEND
5
236
100
AcDbEntity
8
1
0
ARC
5
237
100
AcDbEntity
8
1
100
AcDbCircle
6
CONTINUOUS
62
5
10
234.413509
20
106.000000
40
3.500000
100
AcDbArc
50
-178.061657
51
-89.999999
0
ARC
5
238
100
AcDbEntity
8
1
100
AcDbCircle
6
CONTINUOUS
62
5
10
1830.000000
20
160.000000
40
1600.000000
100
AcDbArc
50
178.061657
51
-178.061657
0
ARC
5
239
100
AcDbEntity
8
1
100
AcDbCircle
6
CONTINUOUS
62
5
10
234.413509
20
214.000000
40
3.500000
100
AcDbArc
50
89.999999
51
178.061657
0
POLYLINE
5
23a
100
AcDbEntity
8
1
6
CONTINUOUS
62
5
100
AcDb2dPolyline
66
1
10
0.0
20
0.0
30
0.0
70
0
0
VERTEX
5
23b
100
AcDbEntity
8
1
100
AcDbVertex
100
AcDb2dVertex
62
5
10
234.413509
20
217.500000
0
VERTEX
5
23c
100
AcDbEntity
8
1
100
AcDbVertex
100
AcDb2dVertex
62
5
10
235.000000
20
217.500000
0
VERTEX
5
23d
100
AcDbEntity
8
1
100
AcDbVertex
100
AcDb2dVertex
62
5
10
235.000000
20
102.500000
0
VERTEX
5
23e
100
AcDbEntity
8
1
100
AcDbVertex
100
AcDb2dVertex
62
5
10
234.413509
20
102.500000
0
SEQEND
5
23f
100
AcDbEntity
8
1
0
ARC
5
240
100
AcDbEntity
8
1
100
AcDbCircle
6
CONTINUOUS
62
5
10
140.000000
20
179.500000
40
17.250000
100
AcDbArc
50
-55.698847
51
55.698847
0
LINE
5
241
100
AcDbEntity
8
1
100
AcDbLine
6
CONTINUOUS
62
5
10
149.721111
20
165.250000
11
130.278889
21
165.250000
0
ARC
5
242
100
AcDbEntity
8
1
100
AcDbCircle
6
CONTINUOUS
62
5
10
140.000000
20
179.500000
40
17.250000
100
AcDbArc
50
124.301152
51
-124.301152
0
LINE
5
243
100
AcDbEntity
8
1
100
AcDbLine
6
CONTINUOUS
62
5
10
130.278889
20
193.750000
11
149.721111
21
193.750000
0
ARC
5
244
100
AcDbEntity
8
1
100
AcDbCircle
6
CONTINUOUS
62
5
10
1657.059911
20
160.000000
40
1485.625000
100
AcDbArc
50
177.897637
51
-177.897637
0
ARC
5
245
100
AcDbEntity
8
1
100
AcDbCircle
6
CONTINUOUS
62
5
10
-1377.059911
20
160.000000
40
1485.625000
100
AcDbArc
50
-2.102361
51
2.102361
0
ARC
5
246
100
AcDbEntity
8
1
100
AcDbCircle
6
CONTINUOUS
62
5
10
171.000000
20
106.500000
40
4.000000
100
AcDbArc
50
-89.999999
51
0.000000
0
LINE
5
247
100
AcDbEntity
8
1
100
AcDbLine
6
CONTINUOUS
62
5
10
175.000000
20
106.500000
11
175.000000
21
213.500000
0
ARC
5
248
100
AcDbEntity
8
1
100
AcDbCircle
6
CONTINUOUS
62
5
10
171.000000
20
213.500000
40
4.000000
100
AcDbArc
50
0.000000
51
89.999999
0
LINE
5
249
100
AcDbEntity
8
1
100
AcDbLine
6
CONTINUOUS
62
5
10
171.000000
20
217.500000
11
109.000000
21
217.500000
0
ARC
5
24a
100
AcDbEntity
8
1
100
AcDbCircle
6
CONTINUOUS
62
5
10
109.000000
20
213.500000
40
4.000000
100
AcDbArc
50
89.999999
51
179.999998
0
LINE
5
24b
100
AcDbEntity
8
1
100
AcDbLine
6
CONTINUOUS
62
5
10
105.000000
20
213.500000
11
105.000000
21
106.500000
0
ARC
5
24c
100
AcDbEntity
8
1
100
AcDbCircle
6
CONTINUOUS
62
5
10
109.000000
20
106.500000
40
4.000000
100
AcDbArc
50
179.999998
51
-89.999999
0
LINE
5
24d
100
AcDbEntity
8
1
100
AcDbLine
6
CONTINUOUS
62
5
10
109.000000
20
102.500000
11
171.000000
21
102.500000
0
POLYLINE
5
24e
100
AcDbEntity
8
1
6
DOT2
62
5
100
AcDb2dPolyline
66
1
10
0.0
20
0.0
30
0.0
70
0
0
VERTEX
5
24f
100
AcDbEntity
8
1
100
AcDbVertex
100
AcDb2dVertex
62
5
10
340.000000
20
10.000000
0
VERTEX
5
250
100
AcDbEntity
8
1
100
AcDbVertex
100
AcDb2dVertex
62
5
10
340.000000
20
0.000000
0
VERTEX
5
251
100
AcDbEntity
8
1
100
AcDbVertex
100
AcDb2dVertex
62
5
10
330.000000
20
0.000000
0
SEQEND
5
252
100
AcDbEntity
8
1
0
POLYLINE
5
253
100
AcDbEntity
8
1
6
DOT2
62
5
100
AcDb2dPolyline
66
1
10
0.0
20
0.0
30
0.0
70
0
0
VERTEX
5
254
100
AcDbEntity
8
1
100
AcDbVertex
100
AcDb2dVertex
62
5
10
10.000000
20
0.000000
0
VERTEX
5
255
100
AcDbEntity
8
1
100
AcDbVertex
100
AcDb2dVertex
62
5
10
0.000000
20
0.000000
0
VERTEX
5
256
100
AcDbEntity
8
1
100
AcDbVertex
100
AcDb2dVertex
62
5
10
0.000000
20
10.000000
0
SEQEND
5
257
100
AcDbEntity
8
1
0
POLYLINE
5
258
100
AcDbEntity
8
1
6
DOT2
62
5
100
AcDb2dPolyline
66
1
10
0.0
20
0.0
30
0.0
70
0
0
VERTEX
5
259
100
AcDbEntity
8
1
100
AcDbVertex
100
AcDb2dVertex
62
5
10
0.000000
20
350.000000
0
VERTEX
5
25a
100
AcDbEntity
8
1
100
AcDbVertex
100
AcDb2dVertex
62
5
10
0.000000
20
360.000000
0
VERTEX
5
25b
100
AcDbEntity
8
1
100
AcDbVertex
100
AcDb2dVertex
62
5
10
10.000000
20
360.000000
0
SEQEND
5
25c
100
AcDbEntity
8
1
0
POLYLINE
5
25d
100
AcDbEntity
8
1
6
DOT2
62
5
100
AcDb2dPolyline
66
1
10
0.0
20
0.0
30
0.0
70
0
0
VERTEX
5
25e
100
AcDbEntity
8
1
100
AcDbVertex
100
AcDb2dVertex
62
5
10
330.000000
20
360.000000
0
VERTEX
5
25f
100
AcDbEntity
8
1
100
AcDbVertex
100
AcDb2dVertex
62
5
10
340.000000
20
360.000000
0
VERTEX
5
260
100
AcDbEntity
8
1
100
AcDbVertex
100
AcDb2dVertex
62
5
10
340.000000
20
350.000000
0
SEQEND
5
261
100
AcDbEntity
8
1
0
POLYLINE
5
262
100
AcDbEntity
8
1
6
CONTINUOUS
62
5
100
AcDb2dPolyline
66
1
10
0.0
20
0.0
30
0.0
70
1
0
VERTEX
5
263
100
AcDbEntity
8
1
100
AcDbVertex
100
AcDb2dVertex
62
5
10
10.000000
20
10.000000
0
VERTEX
5
264
100
AcDbEntity
8
1
100
AcDbVertex
100
AcDb2dVertex
62
5
10
10.000000
20
350.000000
0
VERTEX
5
265
100
AcDbEntity
8
1
100
AcDbVertex
100
AcDb2dVertex
62
5
10
330.000000
20
350.000000
0
VERTEX
5
266
100
AcDbEntity
8
1
100
AcDbVertex
100
AcDb2dVertex
62
5
10
330.000000
20
10.000000
0
VERTEX
5
267
100
AcDbEntity
8
1
100
AcDbVertex
100
AcDb2dVertex
62
5
10
10.000000
20
10.000000
0
SEQEND
5
268
100
AcDbEntity
8
1
0
POLYLINE
5
269
100
AcDbEntity
8
1
6
CONTINUOUS
62
5
100
AcDb2dPolyline
66
1
10
0.0
20
0.0
30
0.0
70
1
0
VERTEX
5
26a
100
AcDbEntity
8
1
100
AcDbVertex
100
AcDb2dVertex
62
5
10
10.000000
20
10.000000
0
VERTEX
5
26b
100
AcDbEntity
8
1
100
AcDbVertex
100
AcDb2dVertex
62
5
10
10.000000
20
350.000000
0
VERTEX
5
26c
100
AcDbEntity
8
1
100
AcDbVertex
100
AcDb2dVertex
62
5
10
330.000000
20
350.000000
0
VERTEX
5
26d
100
AcDbEntity
8
1
100
AcDbVertex
100
AcDb2dVertex
62
5
10
330.000000
20
10.000000
0
VERTEX
5
26e
100
AcDbEntity
8
1
100
AcDbVertex
100
AcDb2dVertex
62
5
10
10.000000
20
10.000000
0
SEQEND
5
26f
100
AcDbEntity
8
1
0
ENDSEC
0
SECTION
2
OBJECTS
0
DICTIONARY
5
270
100
AcDbDictionary
3
ACAD_GROUP
350
271
3
ACAD_MLINESTYLE
350
272
0
DICTIONARY
5
271
102
{ACAD_REACTORS
330
270
102
}
100
AcDbDictionary
0
DICTIONARY
5
272
102
{ACAD_REACTORS
330
270
102
}
100
AcDbDictionary
3
STANDARD
350
273
0
MLINESTYLE
5
273
102
{ACAD_REACTORS
330
272
102
}
100
AcDbMlineStyle
2
STANDARD
70
0
3

62
0
51
90.0
52
90.0
71
2
49
0.5
62
256
6
BYLAYER
49
-0.5
62
256
6
BYLAYER
0
ENDSEC
0
EOF
