0
SECTION
2
HEADER
9
$ACADVER
1
AC1012
9
$EXTMIN
10
-0.010000
20
-0.010000
30
0.0
9
$EXTMAX
10
13.390000
20
14.180000
30
0.0
9
$LIMMIN
10
-0.254000
20
-0.254000
9
$LIMMAX
10
340.106000
20
360.172000
9
$DIMSCALE
40
1.000000
9
$PDMODE
70
2
9
$PDSIZE
40
0.0
  9
$HANDSEED
  5
90e
0
ENDSEC
0
SECTION
2
CLASSES
0
ENDSEC
0
SECTION
2
TABLES
0
TABLE
2
LTYPE
5
1e
100
AcDbSymbolTable
70
12
0
LTYPE
5
1f
100
AcDbSymbolTableRecord
100
AcDbLinetypeTableRecord
2
BYBLOCK
70
0
3

72
65
73
0
40
0.0
0
LTYPE
5
20
100
AcDbSymbolTableRecord
100
AcDbLinetypeTableRecord
2
BYLAYER
70
0
3

72
65
73
0
40
0.0
0
LTYPE
5
21
100
AcDbSymbolTableRecord
100
AcDbLinetypeTableRecord
2
CONTINUOUS
70
64
3
Solid line
72
65
73
0
40
0.0
0
LTYPE
5
22
100
AcDbSymbolTableRecord
100
AcDbLinetypeTableRecord
2
DASHED
70
64
3
__ __ __ __ __ __ __ __ __ __ __ __ __ __ __
72
65
73
2
40
0.75
49
0.5
74
0
49
-0.25
74
0
0
LTYPE
5
23
100
AcDbSymbolTableRecord
100
AcDbLinetypeTableRecord
2
DOT
70
64
3
...............................................
72
65
73
2
40
0.25
49
0.0
74
0
49
-0.25
74
0
0
LTYPE
5
24
100
AcDbSymbolTableRecord
100
AcDbLinetypeTableRecord
2
DASHDOT
70
64
3
__ . __ . __ . __ . __ . __ . __ . __ . __ . --
72
65
73
4
40
1.0
49
0.5
74
0
49
-0.25
74
0
49
0.0
74
0
49
-0.25
74
0
0
LTYPE
5
25
100
AcDbSymbolTableRecord
100
AcDbLinetypeTableRecord
2
CENTER
70
64
3
____ _ ____ _ ____ _ ____ _ ____ _ ____ _ ____
72
65
73
4
40
2.0
49
1.25
74
0
49
-0.25
74
0
49
0.25
74
0
49
-0.25
74
0
0
LTYPE
5
26
100
AcDbSymbolTableRecord
100
AcDbLinetypeTableRecord
2
PHANTOM
70
64
3
_____ _ _ _____ _ _ _____ _ _ _____ _ _ ____
72
65
73
6
40
2.5
49
1.25
74
0
49
-0.25
74
0
49
0.25
74
0
49
-0.25
74
0
49
0.25
74
0
49
-0.25
74
0
0
LTYPE
5
27
100
AcDbSymbolTableRecord
100
AcDbLinetypeTableRecord
2
HIDDEN
70
64
3
_ _ _ _ _ _ _ _ _ _ _ _ _ _ _ _ _ _ _ _ _ _ _
72
65
73
2
40
0.375
49
0.25
74
0
49
-0.125
74
0
0
LTYPE
5
28
100
AcDbSymbolTableRecord
100
AcDbLinetypeTableRecord
2
BORDER
70
64
3
__ __ . __ __ . __ __ . __ __ . __ __ . __ __
72
65
73
6
40
1.75
49
0.5
74
0
49
-0.25
74
0
49
0.5
74
0
49
-0.25
74
0
49
0.0
74
0
49
-0.25
74
0
0
LTYPE
5
29
100
AcDbSymbolTableRecord
100
AcDbLinetypeTableRecord
2
DIVIDE
70
64
3
__ . . __ . . __ . . __ . . __ . . __ . . __
72
65
73
6
40
1.25
49
0.5
74
0
49
-0.25
74
0
49
0.0
74
0
49
-0.25
74
0
49
0.0
74
0
49
-0.25
74
0
0
LTYPE
5
2a
100
AcDbSymbolTableRecord
100
AcDbLinetypeTableRecord
2
DOT2
70
64
3
...............................................
72
65
73
2
40
0.125
49
0.0
74
0
49
-0.125
74
0
0
ENDTAB
0
TABLE
2
STYLE
5
2b
100
AcDbSymbolTable
70
1
0
STYLE
5
2c
100
AcDbSymbolTableRecord
100
AcDbTextStyleTableRecord
2
STANDARD
70
64
40
0.0
41
1.0
50
0.0
71
0
42
5.0
3
txt
4
bigfont
0
ENDTAB
0
TABLE
2
LAYER
5
2d
100
AcDbSymbolTable
70
2
0
LAYER
5
2e
100
AcDbSymbolTableRecord
100
AcDbLayerTableRecord
2
0
70
0
62
7
6
CONTINUOUS
0
LAYER
5
2f
100
AcDbSymbolTableRecord
100
AcDbLayerTableRecord
2
1
70
0
62
7
6
CONTINUOUS
0
ENDTAB
0
TABLE
2
APPID
5
30
100
AcDbSymbolTable
70
1
0
APPID
5
31
100
AcDbSymbolTableRecord
100
AcDbRegAppTableRecord
2
ACAD
70
64
0
ENDTAB
0
TABLE
2
DIMSTYLE
5
32
100
AcDbSymbolTable
70
0
0
ENDTAB
0
TABLE
2
UCS
5
33
100
AcDbSymbolTable
70
0
0
ENDTAB
0
TABLE
2
VIEW
5
34
100
AcDbSymbolTable
70
0
0
ENDTAB
0
TABLE
2
VPORT
5
35
100
AcDbSymbolTable
70
0
0
ENDTAB
0
TABLE
2
BLOCK_RECORD
5
36
100
AcDbSymbolTable
70
0
0
BLOCK_RECORD
5
37
100
AcDbSymbolTableRecord
100
AcDbBlockTableRecord
2
*MODEL_SPACE
0
BLOCK_RECORD
5
38
100
AcDbSymbolTableRecord
100
AcDbBlockTableRecord
2
*PAPER_SPACE
0
BLOCK_RECORD
5
39
100
AcDbSymbolTableRecord
100
AcDbBlockTableRecord
2
OPEN
0
BLOCK_RECORD
5
3a
100
AcDbSymbolTableRecord
100
AcDbBlockTableRecord
2
HALF
0
BLOCK_RECORD
5
3b
100
AcDbSymbolTableRecord
100
AcDbBlockTableRecord
2
CLOSEDBLANK
0
BLOCK_RECORD
5
3c
100
AcDbSymbolTableRecord
100
AcDbBlockTableRecord
2
HALFCLOSE_R
0
BLOCK_RECORD
5
3d
100
AcDbSymbolTableRecord
100
AcDbBlockTableRecord
2
DOT
0
BLOCK_RECORD
5
3e
100
AcDbSymbolTableRecord
100
AcDbBlockTableRecord
2
HALFOPEN_R
0
BLOCK_RECORD
5
3f
100
AcDbSymbolTableRecord
100
AcDbBlockTableRecord
2
CLOSEDF
0
BLOCK_RECORD
5
40
100
AcDbSymbolTableRecord
100
AcDbBlockTableRecord
2
HALF_R
0
ENDTAB
0
ENDSEC
0
SECTION
2
BLOCKS
0
BLOCK
5
41
100
AcDbEntity
8
0
100
AcDbBlockBegin
2
*MODEL_SPACE
70
0
10
0.0
20
0.0
30
0.0
3
*MODEL_SPACE
1

0
ENDBLK
5
42
100
AcDbEntity
8
0
100
AcDbBlockEnd
0
BLOCK
5
43
100
AcDbEntity
67
1
8
0
100
AcDbBlockBegin
2
*PAPER_SPACE
70
0
10
0.0
20
0.0
30
0.0
3
*PAPER_SPACE
1

0
ENDBLK
5
44
100
AcDbEntity
67
1
8
0
100
AcDbBlockEnd
0
BLOCK
5
45
100
AcDbEntity
8
0
100
AcDbBlockBegin
2
OPEN
70
0
10
0.0
20
0.0
30
0.0
3
OPEN
1

0
LINE
5
46
100
AcDbEntity
8
0
6
BYBLOCK
62
0
100
AcDbLine
10
0.000000
20
0.000000
11
-1.000000
21
0.000000
0
LINE
5
47
100
AcDbEntity
8
0
6
BYBLOCK
62
0
100
AcDbLine
10
-1.000000
20
-0.166667
11
0.000000
21
0.000000
0
LINE
5
48
100
AcDbEntity
8
0
6
BYBLOCK
62
0
100
AcDbLine
10
-1.000000
20
0.166667
11
0.000000
21
0.000000
0
ENDBLK
5
49
100
AcDbEntity
8
0
100
AcDbBlockEnd
0
BLOCK
5
4a
100
AcDbEntity
8
0
100
AcDbBlockBegin
2
HALF
70
0
10
0.0
20
0.0
30
0.0
3
HALF
1

0
SOLID
5
4b
100
AcDbEntity
8
0
6
BYBLOCK
62
0
100
AcDbTrace
10
-1.000000
20
0.166667
11
-1.000000
21
-0.166667
12
0.000000
22
0.000000
13
0.000000
23
0.000000
0
ENDBLK
5
4c
100
AcDbEntity
8
0
100
AcDbBlockEnd
0
BLOCK
5
4d
100
AcDbEntity
8
0
100
AcDbBlockBegin
2
CLOSEDBLANK
70
0
10
0.0
20
0.0
30
0.0
3
CLOSEDBLANK
1

0
LINE
5
4e
100
AcDbEntity
8
0
6
BYBLOCK
62
0
100
AcDbLine
10
-1.000000
20
0.166667
11
-1.000000
21
-0.166667
0
LINE
5
4f
100
AcDbEntity
8
0
6
BYBLOCK
62
0
100
AcDbLine
10
0.000000
20
0.000000
11
-1.000000
21
-0.166667
0
LINE
5
50
100
AcDbEntity
8
0
6
BYBLOCK
62
0
100
AcDbLine
10
-1.000000
20
0.166667
11
0.000000
21
0.000000
0
ENDBLK
5
51
100
AcDbEntity
8
0
100
AcDbBlockEnd
0
BLOCK
5
52
100
AcDbEntity
8
0
100
AcDbBlockBegin
2
HALFCLOSE_R
70
0
10
0.0
20
0.0
30
0.0
3
HALFCLOSE_R
1

0
LINE
5
53
100
AcDbEntity
8
0
6
BYBLOCK
62
0
100
AcDbLine
10
-1.000000
20
-0.166667
11
-1.000000
21
0.000000
0
LINE
5
54
100
AcDbEntity
8
0
6
BYBLOCK
62
0
100
AcDbLine
10
-1.000000
20
-0.166667
11
0.000000
21
0.000000
0
LINE
5
55
100
AcDbEntity
8
0
6
BYBLOCK
62
0
100
AcDbLine
10
0.000000
20
0.000000
11
-1.000000
21
0.000000
0
ENDBLK
5
56
100
AcDbEntity
8
0
100
AcDbBlockEnd
0
BLOCK
5
57
100
AcDbEntity
8
0
100
AcDbBlockBegin
2
DOT
70
0
10
0.0
20
0.0
30
0.0
3
DOT
1

0
LINE
5
58
100
AcDbEntity
8
0
6
BYBLOCK
62
0
100
AcDbLine
10
0.000000
20
0.000000
11
-1.000000
21
0.000000
0
POLYLINE
5
59
100
AcDbEntity
8
0
6
BYBLOCK
62
0
100
AcDb2dPolyline
66
1
10
0.0
20
0.0
30
0.0
70
1
40
0.166667
41
0.166667
0
VERTEX
5
5a
100
AcDbEntity
8
0
100
AcDbVertex
100
AcDb2dVertex
62
10
10
-0.083333
20
0.000000
42
1.000000
0
VERTEX
5
5b
100
AcDbEntity
8
0
100
AcDbVertex
100
AcDb2dVertex
62
10
10
0.083333
20
0.000000
42
1.000000
0
SEQEND
5
5c
100
AcDbEntity
8
0
0
ENDBLK
5
5d
100
AcDbEntity
8
0
100
AcDbBlockEnd
0
BLOCK
5
5e
100
AcDbEntity
8
0
100
AcDbBlockBegin
2
HALFOPEN_R
70
0
10
0.0
20
0.0
30
0.0
3
HALFOPEN_R
1

0
LINE
5
5f
100
AcDbEntity
8
0
6
BYBLOCK
62
0
100
AcDbLine
10
-1.000000
20
-0.166667
11
0.000000
21
0.000000
0
LINE
5
60
100
AcDbEntity
8
0
6
BYBLOCK
62
0
100
AcDbLine
10
0.000000
20
0.000000
11
-1.000000
21
0.000000
0
ENDBLK
5
61
100
AcDbEntity
8
0
100
AcDbBlockEnd
0
BLOCK
5
62
100
AcDbEntity
8
0
100
AcDbBlockBegin
2
CLOSEDF
70
0
10
0.0
20
0.0
30
0.0
3
CLOSEDF
1

0
SOLID
5
63
100
AcDbEntity
8
0
6
BYBLOCK
62
0
100
AcDbTrace
10
-1.000000
20
0.166667
11
-1.000000
21
-0.166667
12
0.000000
22
0.000000
13
0.000000
23
0.000000
0
ENDBLK
5
64
100
AcDbEntity
8
0
100
AcDbBlockEnd
0
BLOCK
5
65
100
AcDbEntity
8
0
100
AcDbBlockBegin
2
HALF_R
70
0
10
0.0
20
0.0
30
0.0
3
HALF_R
1

0
SOLID
5
66
100
AcDbEntity
8
0
6
BYBLOCK
62
0
100
AcDbTrace
10
-1.000000
20
-0.166667
11
-1.000000
21
0.000000
12
0.000000
22
0.000000
13
0.000000
23
0.000000
0
ENDBLK
5
67
100
AcDbEntity
8
0
100
AcDbBlockEnd
0
ENDSEC
0
SECTION
2
ENTITIES
0
POLYLINE
5
68
100
AcDbEntity
8
1
6
CONTINUOUS
62
5
100
AcDb2dPolyline
66
1
10
0.0
20
0.0
30
0.0
70
1
0
VERTEX
5
69
100
AcDbEntity
8
1
100
AcDbVertex
100
AcDb2dVertex
62
5
10
216.000000
20
337.750000
0
VERTEX
5
6a
100
AcDbEntity
8
1
100
AcDbVertex
100
AcDb2dVertex
62
5
10
218.250000
20
337.750000
0
VERTEX
5
6b
100
AcDbEntity
8
1
100
AcDbVertex
100
AcDb2dVertex
62
5
10
218.250000
20
335.875000
0
VERTEX
5
6c
100
AcDbEntity
8
1
100
AcDbVertex
100
AcDb2dVertex
62
5
10
216.000000
20
335.875000
0
VERTEX
5
6d
100
AcDbEntity
8
1
100
AcDbVertex
100
AcDb2dVertex
62
5
10
216.000000
20
337.750000
0
SEQEND
5
6e
100
AcDbEntity
8
1
0
POLYLINE
5
6f
100
AcDbEntity
8
1
6
CONTINUOUS
62
5
100
AcDb2dPolyline
66
1
10
0.0
20
0.0
30
0.0
70
1
0
VERTEX
5
70
100
AcDbEntity
8
1
100
AcDbVertex
100
AcDb2dVertex
62
5
10
219.500000
20
337.750000
0
VERTEX
5
71
100
AcDbEntity
8
1
100
AcDbVertex
100
AcDb2dVertex
62
5
10
221.750000
20
337.750000
0
VERTEX
5
72
100
AcDbEntity
8
1
100
AcDbVertex
100
AcDb2dVertex
62
5
10
221.750000
20
335.875000
0
VERTEX
5
73
100
AcDbEntity
8
1
100
AcDbVertex
100
AcDb2dVertex
62
5
10
219.500000
20
335.875000
0
VERTEX
5
74
100
AcDbEntity
8
1
100
AcDbVertex
100
AcDb2dVertex
62
5
10
219.500000
20
337.750000
0
SEQEND
5
75
100
AcDbEntity
8
1
0
LINE
5
76
100
AcDbEntity
8
1
100
AcDbLine
6
CONTINUOUS
62
5
10
215.500000
20
334.312500
11
222.250000
21
334.312500
0
POLYLINE
5
77
100
AcDbEntity
8
1
6
CONTINUOUS
62
5
100
AcDb2dPolyline
66
1
10
0.0
20
0.0
30
0.0
70
0
0
VERTEX
5
78
100
AcDbEntity
8
1
100
AcDbVertex
100
AcDb2dVertex
62
5
10
219.000000
20
335.562500
0
VERTEX
5
79
100
AcDbEntity
8
1
100
AcDbVertex
100
AcDb2dVertex
62
5
10
218.250000
20
334.000000
0
VERTEX
5
7a
100
AcDbEntity
8
1
100
AcDbVertex
100
AcDb2dVertex
62
5
10
217.250000
20
332.750000
0
VERTEX
5
7b
100
AcDbEntity
8
1
100
AcDbVertex
100
AcDb2dVertex
62
5
10
215.250000
20
331.500000
0
SEQEND
5
7c
100
AcDbEntity
8
1
0
POLYLINE
5
7d
100
AcDbEntity
8
1
6
CONTINUOUS
62
5
100
AcDb2dPolyline
66
1
10
0.0
20
0.0
30
0.0
70
0
0
VERTEX
5
7e
100
AcDbEntity
8
1
100
AcDbVertex
100
AcDb2dVertex
62
5
10
219.250000
20
334.312500
0
VERTEX
5
7f
100
AcDbEntity
8
1
100
AcDbVertex
100
AcDb2dVertex
62
5
10
220.000000
20
333.375000
0
VERTEX
5
80
100
AcDbEntity
8
1
100
AcDbVertex
100
AcDb2dVertex
62
5
10
221.250000
20
332.125000
0
VERTEX
5
81
100
AcDbEntity
8
1
100
AcDbVertex
100
AcDb2dVertex
62
5
10
222.500000
20
331.500000
0
SEQEND
5
82
100
AcDbEntity
8
1
0
POLYLINE
5
83
100
AcDbEntity
8
1
6
CONTINUOUS
62
5
100
AcDb2dPolyline
66
1
10
0.0
20
0.0
30
0.0
70
1
0
VERTEX
5
84
100
AcDbEntity
8
1
100
AcDbVertex
100
AcDb2dVertex
62
5
10
216.250000
20
331.812500
0
VERTEX
5
85
100
AcDbEntity
8
1
100
AcDbVertex
100
AcDb2dVertex
62
5
10
218.250000
20
331.812500
0
VERTEX
5
86
100
AcDbEntity
8
1
100
AcDbVertex
100
AcDb2dVertex
62
5
10
218.250000
20
329.625000
0
VERTEX
5
87
100
AcDbEntity
8
1
100
AcDbVertex
100
AcDb2dVertex
62
5
10
216.250000
20
329.625000
0
VERTEX
5
88
100
AcDbEntity
8
1
100
AcDbVertex
100
AcDb2dVertex
62
5
10
216.250000
20
331.812500
0
SEQEND
5
89
100
AcDbEntity
8
1
0
POLYLINE
5
8a
100
AcDbEntity
8
1
6
CONTINUOUS
62
5
100
AcDb2dPolyline
66
1
10
0.0
20
0.0
30
0.0
70
1
0
VERTEX
5
8b
100
AcDbEntity
8
1
100
AcDbVertex
100
AcDb2dVertex
62
5
10
219.500000
20
331.812500
0
VERTEX
5
8c
100
AcDbEntity
8
1
100
AcDbVertex
100
AcDb2dVertex
62
5
10
221.500000
20
331.812500
0
VERTEX
5
8d
100
AcDbEntity
8
1
100
AcDbVertex
100
AcDb2dVertex
62
5
10
221.500000
20
329.625000
0
VERTEX
5
8e
100
AcDbEntity
8
1
100
AcDbVertex
100
AcDb2dVertex
62
5
10
219.500000
20
329.625000
0
VERTEX
5
8f
100
AcDbEntity
8
1
100
AcDbVertex
100
AcDb2dVertex
62
5
10
219.500000
20
331.812500
0
SEQEND
5
90
100
AcDbEntity
8
1
0
POLYLINE
5
91
100
AcDbEntity
8
1
6
CONTINUOUS
62
5
100
AcDb2dPolyline
66
1
10
0.0
20
0.0
30
0.0
70
0
0
VERTEX
5
92
100
AcDbEntity
8
1
100
AcDbVertex
100
AcDb2dVertex
62
5
10
224.500000
20
337.750000
0
VERTEX
5
93
100
AcDbEntity
8
1
100
AcDbVertex
100
AcDb2dVertex
62
5
10
224.500000
20
332.125000
0
VERTEX
5
94
100
AcDbEntity
8
1
100
AcDbVertex
100
AcDb2dVertex
62
5
10
224.000000
20
330.875000
0
VERTEX
5
95
100
AcDbEntity
8
1
100
AcDbVertex
100
AcDb2dVertex
62
5
10
223.500000
20
329.937500
0
SEQEND
5
96
100
AcDbEntity
8
1
0
POLYLINE
5
97
100
AcDbEntity
8
1
6
CONTINUOUS
62
5
100
AcDb2dPolyline
66
1
10
0.0
20
0.0
30
0.0
70
0
0
VERTEX
5
98
100
AcDbEntity
8
1
100
AcDbVertex
100
AcDb2dVertex
62
5
10
228.500000
20
330.250000
0
VERTEX
5
99
100
AcDbEntity
8
1
100
AcDbVertex
100
AcDb2dVertex
62
5
10
229.500000
20
329.625000
0
VERTEX
5
9a
100
AcDbEntity
8
1
100
AcDbVertex
100
AcDb2dVertex
62
5
10
229.500000
20
337.750000
0
VERTEX
5
9b
100
AcDbEntity
8
1
100
AcDbVertex
100
AcDb2dVertex
62
5
10
224.500000
20
337.750000
0
SEQEND
5
9c
100
AcDbEntity
8
1
0
LINE
5
9d
100
AcDbEntity
8
1
100
AcDbLine
6
CONTINUOUS
62
5
10
224.500000
20
335.250000
11
229.500000
21
335.250000
0
LINE
5
9e
100
AcDbEntity
8
1
100
AcDbLine
6
CONTINUOUS
62
5
10
227.000000
20
337.750000
11
227.000000
21
329.625000
0
LINE
5
9f
100
AcDbEntity
8
1
100
AcDbLine
6
CONTINUOUS
62
5
10
224.500000
20
332.750000
11
229.500000
21
332.750000
0
LINE
5
a0
100
AcDbEntity
8
1
100
AcDbLine
6
CONTINUOUS
62
5
10
231.500000
20
337.750000
11
235.250000
21
337.750000
0
LINE
5
a1
100
AcDbEntity
8
1
100
AcDbLine
6
CONTINUOUS
62
5
10
232.250000
20
337.750000
11
232.250000
21
331.187500
0
LINE
5
a2
100
AcDbEntity
8
1
100
AcDbLine
6
CONTINUOUS
62
5
10
234.250000
20
337.750000
11
234.250000
21
329.625000
0
LINE
5
a3
100
AcDbEntity
8
1
100
AcDbLine
6
CONTINUOUS
62
5
10
232.250000
20
335.562500
11
234.250000
21
335.562500
0
LINE
5
a4
100
AcDbEntity
8
1
100
AcDbLine
6
CONTINUOUS
62
5
10
232.250000
20
333.687500
11
234.250000
21
333.687500
0
LINE
5
a5
100
AcDbEntity
8
1
100
AcDbLine
6
CONTINUOUS
62
5
10
231.250000
20
330.875000
11
234.250000
21
331.812500
0
POLYLINE
5
a6
100
AcDbEntity
8
1
6
CONTINUOUS
62
5
100
AcDb2dPolyline
66
1
10
0.0
20
0.0
30
0.0
70
0
0
VERTEX
5
a7
100
AcDbEntity
8
1
100
AcDbVertex
100
AcDb2dVertex
62
5
10
235.000000
20
336.187500
0
VERTEX
5
a8
100
AcDbEntity
8
1
100
AcDbVertex
100
AcDb2dVertex
62
5
10
238.250000
20
336.187500
0
VERTEX
5
a9
100
AcDbEntity
8
1
100
AcDbVertex
100
AcDb2dVertex
62
5
10
237.750000
20
334.000000
0
VERTEX
5
aa
100
AcDbEntity
8
1
100
AcDbVertex
100
AcDb2dVertex
62
5
10
237.250000
20
332.750000
0
VERTEX
5
ab
100
AcDbEntity
8
1
100
AcDbVertex
100
AcDb2dVertex
62
5
10
236.250000
20
330.875000
0
VERTEX
5
ac
100
AcDbEntity
8
1
100
AcDbVertex
100
AcDb2dVertex
62
5
10
235.000000
20
329.625000
0
SEQEND
5
ad
100
AcDbEntity
8
1
0
POLYLINE
5
ae
100
AcDbEntity
8
1
6
CONTINUOUS
62
5
100
AcDb2dPolyline
66
1
10
0.0
20
0.0
30
0.0
70
0
0
VERTEX
5
af
100
AcDbEntity
8
1
100
AcDbVertex
100
AcDb2dVertex
62
5
10
235.250000
20
334.937500
0
VERTEX
5
b0
100
AcDbEntity
8
1
100
AcDbVertex
100
AcDb2dVertex
62
5
10
236.000000
20
333.062500
0
VERTEX
5
b1
100
AcDbEntity
8
1
100
AcDbVertex
100
AcDb2dVertex
62
5
10
237.000000
20
331.187500
0
VERTEX
5
b2
100
AcDbEntity
8
1
100
AcDbVertex
100
AcDb2dVertex
62
5
10
238.500000
20
329.625000
0
SEQEND
5
b3
100
AcDbEntity
8
1
0
POLYLINE
5
b4
100
AcDbEntity
8
1
6
CONTINUOUS
62
5
100
AcDb2dPolyline
66
1
10
0.0
20
0.0
30
0.0
70
0
0
VERTEX
5
b5
100
AcDbEntity
8
1
100
AcDbVertex
100
AcDb2dVertex
62
5
10
241.500000
20
338.062500
0
VERTEX
5
b6
100
AcDbEntity
8
1
100
AcDbVertex
100
AcDb2dVertex
62
5
10
240.500000
20
335.250000
0
VERTEX
5
b7
100
AcDbEntity
8
1
100
AcDbVertex
100
AcDb2dVertex
62
5
10
239.250000
20
333.062500
0
SEQEND
5
b8
100
AcDbEntity
8
1
0
LINE
5
b9
100
AcDbEntity
8
1
100
AcDbLine
6
CONTINUOUS
62
5
10
240.500000
20
335.250000
11
240.500000
21
329.312500
0
LINE
5
ba
100
AcDbEntity
8
1
100
AcDbLine
6
CONTINUOUS
62
5
10
241.250000
20
335.250000
11
246.500000
21
335.250000
0
POLYLINE
5
bb
100
AcDbEntity
8
1
6
CONTINUOUS
62
5
100
AcDb2dPolyline
66
1
10
0.0
20
0.0
30
0.0
70
0
0
VERTEX
5
bc
100
AcDbEntity
8
1
100
AcDbVertex
100
AcDb2dVertex
62
5
10
244.750000
20
338.062500
0
VERTEX
5
bd
100
AcDbEntity
8
1
100
AcDbVertex
100
AcDb2dVertex
62
5
10
244.750000
20
329.625000
0
VERTEX
5
be
100
AcDbEntity
8
1
100
AcDbVertex
100
AcDb2dVertex
62
5
10
243.250000
20
329.937500
0
SEQEND
5
bf
100
AcDbEntity
8
1
0
LINE
5
c0
100
AcDbEntity
8
1
100
AcDbLine
6
CONTINUOUS
62
5
10
242.250000
20
334.000000
11
243.250000
21
332.125000
0
LINE
5
c1
100
AcDbEntity
8
1
100
AcDbLine
6
CONTINUOUS
62
5
10
253.250000
20
334.312500
11
254.000000
21
334.312500
0
LINE
5
c2
100
AcDbEntity
8
1
100
AcDbLine
6
CONTINUOUS
62
5
10
247.250000
20
335.562500
11
249.750000
21
335.562500
0
LINE
5
c3
100
AcDbEntity
8
1
100
AcDbLine
6
CONTINUOUS
62
5
10
248.750000
20
338.062500
11
248.750000
21
329.312500
0
POLYLINE
5
c4
100
AcDbEntity
8
1
6
CONTINUOUS
62
5
100
AcDb2dPolyline
66
1
10
0.0
20
0.0
30
0.0
70
0
0
VERTEX
5
c5
100
AcDbEntity
8
1
100
AcDbVertex
100
AcDb2dVertex
62
5
10
248.750000
20
335.562500
0
VERTEX
5
c6
100
AcDbEntity
8
1
100
AcDbVertex
100
AcDb2dVertex
62
5
10
248.000000
20
333.062500
0
VERTEX
5
c7
100
AcDbEntity
8
1
100
AcDbVertex
100
AcDb2dVertex
62
5
10
247.250000
20
331.500000
0
SEQEND
5
c8
100
AcDbEntity
8
1
0
LINE
5
c9
100
AcDbEntity
8
1
100
AcDbLine
6
CONTINUOUS
62
5
10
248.750000
20
334.937500
11
249.500000
21
333.062500
0
POLYLINE
5
ca
100
AcDbEntity
8
1
6
CONTINUOUS
62
5
100
AcDb2dPolyline
66
1
10
0.0
20
0.0
30
0.0
70
0
0
VERTEX
5
cb
100
AcDbEntity
8
1
100
AcDbVertex
100
AcDb2dVertex
62
5
10
250.000000
20
336.500000
0
VERTEX
5
cc
100
AcDbEntity
8
1
100
AcDbVertex
100
AcDb2dVertex
62
5
10
252.750000
20
336.500000
0
VERTEX
5
cd
100
AcDbEntity
8
1
100
AcDbVertex
100
AcDb2dVertex
62
5
10
252.750000
20
335.250000
0
VERTEX
5
ce
100
AcDbEntity
8
1
100
AcDbVertex
100
AcDb2dVertex
62
5
10
253.250000
20
334.312500
0
SEQEND
5
cf
100
AcDbEntity
8
1
0
POLYLINE
5
d0
100
AcDbEntity
8
1
6
CONTINUOUS
62
5
100
AcDb2dPolyline
66
1
10
0.0
20
0.0
30
0.0
70
0
0
VERTEX
5
d1
100
AcDbEntity
8
1
100
AcDbVertex
100
AcDb2dVertex
62
5
10
251.500000
20
338.375000
0
VERTEX
5
d2
100
AcDbEntity
8
1
100
AcDbVertex
100
AcDb2dVertex
62
5
10
251.250000
20
335.875000
0
VERTEX
5
d3
100
AcDbEntity
8
1
100
AcDbVertex
100
AcDb2dVertex
62
5
10
250.750000
20
334.625000
0
VERTEX
5
d4
100
AcDbEntity
8
1
100
AcDbVertex
100
AcDb2dVertex
62
5
10
250.000000
20
334.000000
0
SEQEND
5
d5
100
AcDbEntity
8
1
0
POLYLINE
5
d6
100
AcDbEntity
8
1
6
CONTINUOUS
62
5
100
AcDb2dPolyline
66
1
10
0.0
20
0.0
30
0.0
70
0
0
VERTEX
5
d7
100
AcDbEntity
8
1
100
AcDbVertex
100
AcDb2dVertex
62
5
10
254.000000
20
334.312500
0
VERTEX
5
d8
100
AcDbEntity
8
1
100
AcDbVertex
100
AcDb2dVertex
62
5
10
254.250000
20
334.625000
0
VERTEX
5
d9
100
AcDbEntity
8
1
100
AcDbVertex
100
AcDb2dVertex
62
5
10
254.250000
20
335.875000
0
SEQEND
5
da
100
AcDbEntity
8
1
0
LINE
5
db
100
AcDbEntity
8
1
100
AcDbLine
6
CONTINUOUS
62
5
10
249.750000
20
332.437500
11
254.500000
21
332.437500
0
LINE
5
dc
100
AcDbEntity
8
1
100
AcDbLine
6
CONTINUOUS
62
5
10
252.000000
20
334.000000
11
252.000000
21
329.312500
0
LINE
5
dd
100
AcDbEntity
8
1
100
AcDbLine
6
CONTINUOUS
62
5
10
175.250000
20
335.250000
11
177.500000
21
335.250000
0
LINE
5
de
100
AcDbEntity
8
1
100
AcDbLine
6
CONTINUOUS
62
5
10
175.500000
20
330.250000
11
177.500000
21
331.812500
0
LINE
5
df
100
AcDbEntity
8
1
100
AcDbLine
6
CONTINUOUS
62
5
10
176.500000
20
337.750000
11
176.500000
21
330.875000
0
POLYLINE
5
e0
100
AcDbEntity
8
1
6
CONTINUOUS
62
5
100
AcDb2dPolyline
66
1
10
0.0
20
0.0
30
0.0
70
0
0
VERTEX
5
e1
100
AcDbEntity
8
1
100
AcDbVertex
100
AcDb2dVertex
62
5
10
177.250000
20
333.687500
0
VERTEX
5
e2
100
AcDbEntity
8
1
100
AcDbVertex
100
AcDb2dVertex
62
5
10
181.750000
20
336.500000
0
VERTEX
5
e3
100
AcDbEntity
8
1
100
AcDbVertex
100
AcDb2dVertex
62
5
10
181.750000
20
333.375000
0
VERTEX
5
e4
100
AcDbEntity
8
1
100
AcDbVertex
100
AcDb2dVertex
62
5
10
181.250000
20
332.750000
0
VERTEX
5
e5
100
AcDbEntity
8
1
100
AcDbVertex
100
AcDb2dVertex
62
5
10
180.750000
20
332.750000
0
SEQEND
5
e6
100
AcDbEntity
8
1
0
LINE
5
e7
100
AcDbEntity
8
1
100
AcDbLine
6
CONTINUOUS
62
5
10
179.750000
20
338.062500
11
179.750000
21
331.500000
0
POLYLINE
5
e8
100
AcDbEntity
8
1
6
CONTINUOUS
62
5
100
AcDb2dPolyline
66
1
10
0.0
20
0.0
30
0.0
70
0
0
VERTEX
5
e9
100
AcDbEntity
8
1
100
AcDbVertex
100
AcDb2dVertex
62
5
10
178.250000
20
336.812500
0
VERTEX
5
ea
100
AcDbEntity
8
1
100
AcDbVertex
100
AcDb2dVertex
62
5
10
178.250000
20
330.250000
0
VERTEX
5
eb
100
AcDbEntity
8
1
100
AcDbVertex
100
AcDb2dVertex
62
5
10
178.750000
20
329.625000
0
VERTEX
5
ec
100
AcDbEntity
8
1
100
AcDbVertex
100
AcDb2dVertex
62
5
10
181.750000
20
329.625000
0
VERTEX
5
ed
100
AcDbEntity
8
1
100
AcDbVertex
100
AcDb2dVertex
62
5
10
182.250000
20
330.250000
0
VERTEX
5
ee
100
AcDbEntity
8
1
100
AcDbVertex
100
AcDb2dVertex
62
5
10
182.250000
20
331.187500
0
SEQEND
5
ef
100
AcDbEntity
8
1
0
LINE
5
f0
100
AcDbEntity
8
1
100
AcDbLine
6
CONTINUOUS
62
5
10
183.250000
20
335.875000
11
185.500000
21
335.875000
0
LINE
5
f1
100
AcDbEntity
8
1
100
AcDbLine
6
CONTINUOUS
62
5
10
184.500000
20
338.062500
11
184.500000
21
329.312500
0
POLYLINE
5
f2
100
AcDbEntity
8
1
6
CONTINUOUS
62
5
100
AcDb2dPolyline
66
1
10
0.0
20
0.0
30
0.0
70
0
0
VERTEX
5
f3
100
AcDbEntity
8
1
100
AcDbVertex
100
AcDb2dVertex
62
5
10
184.500000
20
335.875000
0
VERTEX
5
f4
100
AcDbEntity
8
1
100
AcDbVertex
100
AcDb2dVertex
62
5
10
184.000000
20
334.000000
0
VERTEX
5
f5
100
AcDbEntity
8
1
100
AcDbVertex
100
AcDb2dVertex
62
5
10
183.250000
20
332.125000
0
SEQEND
5
f6
100
AcDbEntity
8
1
0
LINE
5
f7
100
AcDbEntity
8
1
100
AcDbLine
6
CONTINUOUS
62
5
10
184.500000
20
334.937500
11
185.500000
21
333.375000
0
LINE
5
f8
100
AcDbEntity
8
1
100
AcDbLine
6
CONTINUOUS
62
5
10
185.500000
20
337.750000
11
190.250000
21
337.750000
0
POLYLINE
5
f9
100
AcDbEntity
8
1
6
CONTINUOUS
62
5
100
AcDb2dPolyline
66
1
10
0.0
20
0.0
30
0.0
70
0
0
VERTEX
5
fa
100
AcDbEntity
8
1
100
AcDbVertex
100
AcDb2dVertex
62
5
10
187.750000
20
337.750000
0
VERTEX
5
fb
100
AcDbEntity
8
1
100
AcDbVertex
100
AcDb2dVertex
62
5
10
186.750000
20
335.562500
0
VERTEX
5
fc
100
AcDbEntity
8
1
100
AcDbVertex
100
AcDb2dVertex
62
5
10
188.250000
20
335.875000
0
VERTEX
5
fd
100
AcDbEntity
8
1
100
AcDbVertex
100
AcDb2dVertex
62
5
10
188.250000
20
332.750000
0
VERTEX
5
fe
100
AcDbEntity
8
1
100
AcDbVertex
100
AcDb2dVertex
62
5
10
187.750000
20
330.562500
0
VERTEX
5
ff
100
AcDbEntity
8
1
100
AcDbVertex
100
AcDb2dVertex
62
5
10
187.250000
20
330.875000
0
SEQEND
5
100
100
AcDbEntity
8
1
0
POLYLINE
5
101
100
AcDbEntity
8
1
6
CONTINUOUS
62
5
100
AcDb2dPolyline
66
1
10
0.0
20
0.0
30
0.0
70
1
0
VERTEX
5
102
100
AcDbEntity
8
1
100
AcDbVertex
100
AcDb2dVertex
62
5
10
186.000000
20
334.000000
0
VERTEX
5
103
100
AcDbEntity
8
1
100
AcDbVertex
100
AcDb2dVertex
62
5
10
187.250000
20
334.000000
0
VERTEX
5
104
100
AcDbEntity
8
1
100
AcDbVertex
100
AcDb2dVertex
62
5
10
187.250000
20
331.812500
0
VERTEX
5
105
100
AcDbEntity
8
1
100
AcDbVertex
100
AcDb2dVertex
62
5
10
186.000000
20
331.812500
0
VERTEX
5
106
100
AcDbEntity
8
1
100
AcDbVertex
100
AcDb2dVertex
62
5
10
186.000000
20
334.000000
0
SEQEND
5
107
100
AcDbEntity
8
1
0
POLYLINE
5
108
100
AcDbEntity
8
1
6
CONTINUOUS
62
5
100
AcDb2dPolyline
66
1
10
0.0
20
0.0
30
0.0
70
0
0
VERTEX
5
109
100
AcDbEntity
8
1
100
AcDbVertex
100
AcDb2dVertex
62
5
10
188.750000
20
335.562500
0
VERTEX
5
10a
100
AcDbEntity
8
1
100
AcDbVertex
100
AcDb2dVertex
62
5
10
190.250000
20
335.562500
0
VERTEX
5
10b
100
AcDbEntity
8
1
100
AcDbVertex
100
AcDb2dVertex
62
5
10
190.000000
20
334.312500
0
VERTEX
5
10c
100
AcDbEntity
8
1
100
AcDbVertex
100
AcDb2dVertex
62
5
10
189.500000
20
332.750000
0
VERTEX
5
10d
100
AcDbEntity
8
1
100
AcDbVertex
100
AcDb2dVertex
62
5
10
188.750000
20
331.187500
0
SEQEND
5
10e
100
AcDbEntity
8
1
0
POLYLINE
5
10f
100
AcDbEntity
8
1
6
CONTINUOUS
62
5
100
AcDb2dPolyline
66
1
10
0.0
20
0.0
30
0.0
70
0
0
VERTEX
5
110
100
AcDbEntity
8
1
100
AcDbVertex
100
AcDb2dVertex
62
5
10
188.750000
20
334.625000
0
VERTEX
5
111
100
AcDbEntity
8
1
100
AcDbVertex
100
AcDb2dVertex
62
5
10
189.000000
20
333.375000
0
VERTEX
5
112
100
AcDbEntity
8
1
100
AcDbVertex
100
AcDb2dVertex
62
5
10
190.500000
20
331.187500
0
SEQEND
5
113
100
AcDbEntity
8
1
0
LINE
5
114
100
AcDbEntity
8
1
100
AcDbLine
6
CONTINUOUS
62
5
10
185.250000
20
329.625000
11
190.500000
21
329.625000
0
POLYLINE
5
115
100
AcDbEntity
8
1
6
CONTINUOUS
62
5
100
AcDb2dPolyline
66
1
10
0.0
20
0.0
30
0.0
70
0
0
VERTEX
5
116
100
AcDbEntity
8
1
100
AcDbVertex
100
AcDb2dVertex
62
5
10
193.500000
20
338.062500
0
VERTEX
5
117
100
AcDbEntity
8
1
100
AcDbVertex
100
AcDb2dVertex
62
5
10
192.500000
20
335.250000
0
VERTEX
5
118
100
AcDbEntity
8
1
100
AcDbVertex
100
AcDb2dVertex
62
5
10
191.250000
20
333.062500
0
SEQEND
5
119
100
AcDbEntity
8
1
0
LINE
5
11a
100
AcDbEntity
8
1
100
AcDbLine
6
CONTINUOUS
62
5
10
192.500000
20
335.250000
11
192.500000
21
329.312500
0
LINE
5
11b
100
AcDbEntity
8
1
100
AcDbLine
6
CONTINUOUS
62
5
10
193.250000
20
335.250000
11
198.500000
21
335.250000
0
POLYLINE
5
11c
100
AcDbEntity
8
1
6
CONTINUOUS
62
5
100
AcDb2dPolyline
66
1
10
0.0
20
0.0
30
0.0
70
0
0
VERTEX
5
11d
100
AcDbEntity
8
1
100
AcDbVertex
100
AcDb2dVertex
62
5
10
196.750000
20
338.062500
0
VERTEX
5
11e
100
AcDbEntity
8
1
100
AcDbVertex
100
AcDb2dVertex
62
5
10
196.750000
20
329.625000
0
VERTEX
5
11f
100
AcDbEntity
8
1
100
AcDbVertex
100
AcDb2dVertex
62
5
10
195.250000
20
329.937500
0
SEQEND
5
120
100
AcDbEntity
8
1
0
LINE
5
121
100
AcDbEntity
8
1
100
AcDbLine
6
CONTINUOUS
62
5
10
194.250000
20
334.000000
11
195.250000
21
332.125000
0
LINE
5
122
100
AcDbEntity
8
1
100
AcDbLine
6
CONTINUOUS
62
5
10
207.500000
20
335.875000
11
209.750000
21
335.875000
0
LINE
5
123
100
AcDbEntity
8
1
100
AcDbLine
6
CONTINUOUS
62
5
10
208.750000
20
338.375000
11
208.750000
21
329.625000
0
POLYLINE
5
124
100
AcDbEntity
8
1
6
CONTINUOUS
62
5
100
AcDb2dPolyline
66
1
10
0.0
20
0.0
30
0.0
70
0
0
VERTEX
5
125
100
AcDbEntity
8
1
100
AcDbVertex
100
AcDb2dVertex
62
5
10
208.750000
20
335.875000
0
VERTEX
5
126
100
AcDbEntity
8
1
100
AcDbVertex
100
AcDb2dVertex
62
5
10
208.250000
20
334.000000
0
VERTEX
5
127
100
AcDbEntity
8
1
100
AcDbVertex
100
AcDb2dVertex
62
5
10
207.500000
20
332.437500
0
SEQEND
5
128
100
AcDbEntity
8
1
0
LINE
5
129
100
AcDbEntity
8
1
100
AcDbLine
6
CONTINUOUS
62
5
10
208.750000
20
334.937500
11
209.500000
21
333.687500
0
LINE
5
12a
100
AcDbEntity
8
1
100
AcDbLine
6
CONTINUOUS
62
5
10
210.750000
20
337.750000
11
210.000000
21
336.812500
0
LINE
5
12b
100
AcDbEntity
8
1
100
AcDbLine
6
CONTINUOUS
62
5
10
209.750000
20
337.125000
11
210.500000
21
335.562500
0
LINE
5
12c
100
AcDbEntity
8
1
100
AcDbLine
6
CONTINUOUS
62
5
10
211.250000
20
336.500000
11
209.750000
21
334.312500
0
LINE
5
12d
100
AcDbEntity
8
1
100
AcDbLine
6
CONTINUOUS
62
5
10
209.500000
20
334.312500
11
211.250000
21
334.312500
0
LINE
5
12e
100
AcDbEntity
8
1
100
AcDbLine
6
CONTINUOUS
62
5
10
211.000000
20
334.937500
11
211.500000
21
333.687500
0
LINE
5
12f
100
AcDbEntity
8
1
100
AcDbLine
6
CONTINUOUS
62
5
10
213.500000
20
337.750000
11
212.750000
21
336.812500
0
LINE
5
130
100
AcDbEntity
8
1
100
AcDbLine
6
CONTINUOUS
62
5
10
212.500000
20
337.125000
11
213.250000
21
335.562500
0
LINE
5
131
100
AcDbEntity
8
1
100
AcDbLine
6
CONTINUOUS
62
5
10
214.000000
20
336.500000
11
212.500000
21
334.312500
0
LINE
5
132
100
AcDbEntity
8
1
100
AcDbLine
6
CONTINUOUS
62
5
10
212.250000
20
334.312500
11
214.250000
21
334.312500
0
LINE
5
133
100
AcDbEntity
8
1
100
AcDbLine
6
CONTINUOUS
62
5
10
214.000000
20
334.937500
11
214.500000
21
333.687500
0
LINE
5
134
100
AcDbEntity
8
1
100
AcDbLine
6
CONTINUOUS
62
5
10
209.500000
20
333.062500
11
214.500000
21
333.062500
0
POLYLINE
5
135
100
AcDbEntity
8
1
6
CONTINUOUS
62
5
100
AcDb2dPolyline
66
1
10
0.0
20
0.0
30
0.0
70
0
0
VERTEX
5
136
100
AcDbEntity
8
1
100
AcDbVertex
100
AcDb2dVertex
62
5
10
210.500000
20
333.062500
0
VERTEX
5
137
100
AcDbEntity
8
1
100
AcDbVertex
100
AcDb2dVertex
62
5
10
210.500000
20
332.125000
0
VERTEX
5
138
100
AcDbEntity
8
1
100
AcDbVertex
100
AcDb2dVertex
62
5
10
210.250000
20
331.187500
0
VERTEX
5
139
100
AcDbEntity
8
1
100
AcDbVertex
100
AcDb2dVertex
62
5
10
209.500000
20
329.937500
0
SEQEND
5
13a
100
AcDbEntity
8
1
0
LINE
5
13b
100
AcDbEntity
8
1
100
AcDbLine
6
CONTINUOUS
62
5
10
210.500000
20
332.125000
11
211.250000
21
331.187500
0
POLYLINE
5
13c
100
AcDbEntity
8
1
6
CONTINUOUS
62
5
100
AcDb2dPolyline
66
1
10
0.0
20
0.0
30
0.0
70
0
0
VERTEX
5
13d
100
AcDbEntity
8
1
100
AcDbVertex
100
AcDb2dVertex
62
5
10
211.500000
20
338.375000
0
VERTEX
5
13e
100
AcDbEntity
8
1
100
AcDbVertex
100
AcDb2dVertex
62
5
10
211.750000
20
334.937500
0
VERTEX
5
13f
100
AcDbEntity
8
1
100
AcDbVertex
100
AcDb2dVertex
62
5
10
212.250000
20
332.437500
0
VERTEX
5
140
100
AcDbEntity
8
1
100
AcDbVertex
100
AcDb2dVertex
62
5
10
213.250000
20
330.250000
0
VERTEX
5
141
100
AcDbEntity
8
1
100
AcDbVertex
100
AcDb2dVertex
62
5
10
214.000000
20
329.625000
0
VERTEX
5
142
100
AcDbEntity
8
1
100
AcDbVertex
100
AcDb2dVertex
62
5
10
214.500000
20
330.875000
0
SEQEND
5
143
100
AcDbEntity
8
1
0
POLYLINE
5
144
100
AcDbEntity
8
1
6
CONTINUOUS
62
5
100
AcDb2dPolyline
66
1
10
0.0
20
0.0
30
0.0
70
0
0
VERTEX
5
145
100
AcDbEntity
8
1
100
AcDbVertex
100
AcDb2dVertex
62
5
10
213.500000
20
332.437500
0
VERTEX
5
146
100
AcDbEntity
8
1
100
AcDbVertex
100
AcDb2dVertex
62
5
10
212.750000
20
330.875000
0
VERTEX
5
147
100
AcDbEntity
8
1
100
AcDbVertex
100
AcDb2dVertex
62
5
10
212.250000
20
330.250000
0
VERTEX
5
148
100
AcDbEntity
8
1
100
AcDbVertex
100
AcDb2dVertex
62
5
10
211.250000
20
329.625000
0
SEQEND
5
149
100
AcDbEntity
8
1
0
LINE
5
14a
100
AcDbEntity
8
1
100
AcDbLine
6
CONTINUOUS
62
5
10
213.000000
20
334.000000
11
213.500000
21
333.062500
0
POLYLINE
5
14b
100
AcDbEntity
8
1
6
CONTINUOUS
62
5
100
AcDb2dPolyline
66
1
10
0.0
20
0.0
30
0.0
70
0
0
VERTEX
5
14c
100
AcDbEntity
8
1
100
AcDbVertex
100
AcDb2dVertex
62
5
10
257.500000
20
338.062500
0
VERTEX
5
14d
100
AcDbEntity
8
1
100
AcDbVertex
100
AcDb2dVertex
62
5
10
256.500000
20
335.250000
0
VERTEX
5
14e
100
AcDbEntity
8
1
100
AcDbVertex
100
AcDb2dVertex
62
5
10
255.250000
20
333.062500
0
SEQEND
5
14f
100
AcDbEntity
8
1
0
LINE
5
150
100
AcDbEntity
8
1
100
AcDbLine
6
CONTINUOUS
62
5
10
256.500000
20
335.250000
11
256.500000
21
329.312500
0
LINE
5
151
100
AcDbEntity
8
1
100
AcDbLine
6
CONTINUOUS
62
5
10
257.250000
20
335.250000
11
262.500000
21
335.250000
0
POLYLINE
5
152
100
AcDbEntity
8
1
6
CONTINUOUS
62
5
100
AcDb2dPolyline
66
1
10
0.0
20
0.0
30
0.0
70
0
0
VERTEX
5
153
100
AcDbEntity
8
1
100
AcDbVertex
100
AcDb2dVertex
62
5
10
260.750000
20
338.062500
0
VERTEX
5
154
100
AcDbEntity
8
1
100
AcDbVertex
100
AcDb2dVertex
62
5
10
260.750000
20
329.625000
0
VERTEX
5
155
100
AcDbEntity
8
1
100
AcDbVertex
100
AcDb2dVertex
62
5
10
259.250000
20
329.937500
0
SEQEND
5
156
100
AcDbEntity
8
1
0
LINE
5
157
100
AcDbEntity
8
1
100
AcDbLine
6
CONTINUOUS
62
5
10
258.250000
20
334.000000
11
259.250000
21
332.125000
0
POLYLINE
5
158
100
AcDbEntity
8
1
6
DOT2
62
5
100
AcDb2dPolyline
66
1
10
0.0
20
0.0
30
0.0
70
0
0
VERTEX
5
159
100
AcDbEntity
8
1
100
AcDbVertex
100
AcDb2dVertex
62
5
10
239.875000
20
240.125000
0
VERTEX
5
15a
100
AcDbEntity
8
1
100
AcDbVertex
100
AcDb2dVertex
62
5
10
240.812500
20
240.750000
0
VERTEX
5
15b
100
AcDbEntity
8
1
100
AcDbVertex
100
AcDb2dVertex
62
5
10
240.812500
20
233.250000
0
SEQEND
5
15c
100
AcDbEntity
8
1
0
LINE
5
15d
100
AcDbEntity
8
1
100
AcDbLine
6
DOT2
62
5
10
240.187500
20
233.250000
11
241.437500
21
233.250000
0
POLYLINE
5
15e
100
AcDbEntity
8
1
6
DOT2
62
5
100
AcDb2dPolyline
66
1
10
0.0
20
0.0
30
0.0
70
0
0
VERTEX
5
15f
100
AcDbEntity
8
1
100
AcDbVertex
100
AcDb2dVertex
62
5
10
247.375000
20
236.687500
0
VERTEX
5
160
100
AcDbEntity
8
1
100
AcDbVertex
100
AcDb2dVertex
62
5
10
247.375000
20
236.687500
0
VERTEX
5
161
100
AcDbEntity
8
1
100
AcDbVertex
100
AcDb2dVertex
62
5
10
246.125000
20
236.375000
0
VERTEX
5
162
100
AcDbEntity
8
1
100
AcDbVertex
100
AcDb2dVertex
62
5
10
245.187500
20
236.375000
0
VERTEX
5
163
100
AcDbEntity
8
1
100
AcDbVertex
100
AcDb2dVertex
62
5
10
244.562500
20
236.687500
0
VERTEX
5
164
100
AcDbEntity
8
1
100
AcDbVertex
100
AcDb2dVertex
62
5
10
244.250000
20
237.625000
0
VERTEX
5
165
100
AcDbEntity
8
1
100
AcDbVertex
100
AcDb2dVertex
62
5
10
244.250000
20
239.187500
0
VERTEX
5
166
100
AcDbEntity
8
1
100
AcDbVertex
100
AcDb2dVertex
62
5
10
244.562500
20
240.125000
0
VERTEX
5
167
100
AcDbEntity
8
1
100
AcDbVertex
100
AcDb2dVertex
62
5
10
244.875000
20
240.437500
0
VERTEX
5
168
100
AcDbEntity
8
1
100
AcDbVertex
100
AcDb2dVertex
62
5
10
245.500000
20
240.750000
0
VERTEX
5
169
100
AcDbEntity
8
1
100
AcDbVertex
100
AcDb2dVertex
62
5
10
246.125000
20
240.750000
0
VERTEX
5
16a
100
AcDbEntity
8
1
100
AcDbVertex
100
AcDb2dVertex
62
5
10
246.750000
20
240.437500
0
VERTEX
5
16b
100
AcDbEntity
8
1
100
AcDbVertex
100
AcDb2dVertex
62
5
10
247.062500
20
240.125000
0
VERTEX
5
16c
100
AcDbEntity
8
1
100
AcDbVertex
100
AcDb2dVertex
62
5
10
247.375000
20
239.187500
0
VERTEX
5
16d
100
AcDbEntity
8
1
100
AcDbVertex
100
AcDb2dVertex
62
5
10
247.375000
20
235.750000
0
VERTEX
5
16e
100
AcDbEntity
8
1
100
AcDbVertex
100
AcDb2dVertex
62
5
10
247.062500
20
234.187500
0
VERTEX
5
16f
100
AcDbEntity
8
1
100
AcDbVertex
100
AcDb2dVertex
62
5
10
246.437500
20
233.562500
0
VERTEX
5
170
100
AcDbEntity
8
1
100
AcDbVertex
100
AcDb2dVertex
62
5
10
245.500000
20
233.250000
0
VERTEX
5
171
100
AcDbEntity
8
1
100
AcDbVertex
100
AcDb2dVertex
62
5
10
244.875000
20
233.250000
0
SEQEND
5
172
100
AcDbEntity
8
1
0
POLYLINE
5
173
100
AcDbEntity
8
1
6
DOT2
62
5
100
AcDb2dPolyline
66
1
10
0.0
20
0.0
30
0.0
70
0
0
VERTEX
5
174
100
AcDbEntity
8
1
100
AcDbVertex
100
AcDb2dVertex
62
5
10
188.250000
20
239.812500
0
VERTEX
5
175
100
AcDbEntity
8
1
100
AcDbVertex
100
AcDb2dVertex
62
5
10
188.250000
20
240.750000
0
VERTEX
5
176
100
AcDbEntity
8
1
100
AcDbVertex
100
AcDb2dVertex
62
5
10
191.375000
20
240.750000
0
VERTEX
5
177
100
AcDbEntity
8
1
100
AcDbVertex
100
AcDb2dVertex
62
5
10
191.375000
20
240.125000
0
VERTEX
5
178
100
AcDbEntity
8
1
100
AcDbVertex
100
AcDb2dVertex
62
5
10
190.750000
20
238.562500
0
VERTEX
5
179
100
AcDbEntity
8
1
100
AcDbVertex
100
AcDb2dVertex
62
5
10
190.125000
20
236.375000
0
VERTEX
5
17a
100
AcDbEntity
8
1
100
AcDbVertex
100
AcDb2dVertex
62
5
10
189.500000
20
233.250000
0
SEQEND
5
17b
100
AcDbEntity
8
1
0
LINE
5
17c
100
AcDbEntity
8
1
100
AcDbLine
6
CONTINUOUS
62
5
10
207.800000
20
205.000000
11
209.000000
21
205.000000
0
LINE
5
17d
100
AcDbEntity
8
1
100
AcDbLine
6
CONTINUOUS
62
5
10
207.800000
20
196.000000
11
209.000000
21
196.000000
0
LINE
5
17e
100
AcDbEntity
8
1
100
AcDbLine
6
CONTINUOUS
62
5
10
132.750000
20
336.187500
11
133.750000
21
334.937500
0
POLYLINE
5
17f
100
AcDbEntity
8
1
6
CONTINUOUS
62
5
100
AcDb2dPolyline
66
1
10
0.0
20
0.0
30
0.0
70
0
0
VERTEX
5
180
100
AcDbEntity
8
1
100
AcDbVertex
100
AcDb2dVertex
62
5
10
132.500000
20
331.187500
0
VERTEX
5
181
100
AcDbEntity
8
1
100
AcDbVertex
100
AcDb2dVertex
62
5
10
134.250000
20
332.125000
0
VERTEX
5
182
100
AcDbEntity
8
1
100
AcDbVertex
100
AcDb2dVertex
62
5
10
135.750000
20
333.375000
0
VERTEX
5
183
100
AcDbEntity
8
1
100
AcDbVertex
100
AcDb2dVertex
62
5
10
137.250000
20
334.937500
0
SEQEND
5
184
100
AcDbEntity
8
1
0
POLYLINE
5
185
100
AcDbEntity
8
1
6
CONTINUOUS
62
5
100
AcDb2dPolyline
66
1
10
0.0
20
0.0
30
0.0
70
0
0
VERTEX
5
186
100
AcDbEntity
8
1
100
AcDbVertex
100
AcDb2dVertex
62
5
10
142.250000
20
334.937500
0
VERTEX
5
187
100
AcDbEntity
8
1
100
AcDbVertex
100
AcDb2dVertex
62
5
10
142.500000
20
334.937500
0
VERTEX
5
188
100
AcDbEntity
8
1
100
AcDbVertex
100
AcDb2dVertex
62
5
10
144.250000
20
333.687500
0
SEQEND
5
189
100
AcDbEntity
8
1
0
LINE
5
18a
100
AcDbEntity
8
1
100
AcDbLine
6
CONTINUOUS
62
5
10
142.250000
20
337.750000
11
142.250000
21
330.250000
0
POLYLINE
5
18b
100
AcDbEntity
8
1
6
CONTINUOUS
62
5
100
AcDb2dPolyline
66
1
10
0.0
20
0.0
30
0.0
70
0
0
VERTEX
5
18c
100
AcDbEntity
8
1
100
AcDbVertex
100
AcDb2dVertex
62
5
10
156.000000
20
335.562500
0
VERTEX
5
18d
100
AcDbEntity
8
1
100
AcDbVertex
100
AcDb2dVertex
62
5
10
156.250000
20
337.125000
0
VERTEX
5
18e
100
AcDbEntity
8
1
100
AcDbVertex
100
AcDb2dVertex
62
5
10
157.000000
20
337.750000
0
VERTEX
5
18f
100
AcDbEntity
8
1
100
AcDbVertex
100
AcDb2dVertex
62
5
10
157.750000
20
337.750000
0
VERTEX
5
190
100
AcDbEntity
8
1
100
AcDbVertex
100
AcDb2dVertex
62
5
10
158.250000
20
337.437500
0
VERTEX
5
191
100
AcDbEntity
8
1
100
AcDbVertex
100
AcDb2dVertex
62
5
10
158.500000
20
336.500000
0
VERTEX
5
192
100
AcDbEntity
8
1
100
AcDbVertex
100
AcDb2dVertex
62
5
10
158.500000
20
335.562500
0
VERTEX
5
193
100
AcDbEntity
8
1
100
AcDbVertex
100
AcDb2dVertex
62
5
10
158.250000
20
334.625000
0
VERTEX
5
194
100
AcDbEntity
8
1
100
AcDbVertex
100
AcDb2dVertex
62
5
10
156.000000
20
330.250000
0
VERTEX
5
195
100
AcDbEntity
8
1
100
AcDbVertex
100
AcDb2dVertex
62
5
10
158.500000
20
330.250000
0
VERTEX
5
196
100
AcDbEntity
8
1
100
AcDbVertex
100
AcDb2dVertex
62
5
10
158.500000
20
331.187500
0
SEQEND
5
197
100
AcDbEntity
8
1
0
LINE
5
198
100
AcDbEntity
8
1
100
AcDbLine
6
CONTINUOUS
62
5
10
159.250000
20
335.875000
11
161.500000
21
335.875000
0
LINE
5
199
100
AcDbEntity
8
1
100
AcDbLine
6
CONTINUOUS
62
5
10
160.500000
20
338.062500
11
160.500000
21
329.312500
0
POLYLINE
5
19a
100
AcDbEntity
8
1
6
CONTINUOUS
62
5
100
AcDb2dPolyline
66
1
10
0.0
20
0.0
30
0.0
70
0
0
VERTEX
5
19b
100
AcDbEntity
8
1
100
AcDbVertex
100
AcDb2dVertex
62
5
10
160.500000
20
335.875000
0
VERTEX
5
19c
100
AcDbEntity
8
1
100
AcDbVertex
100
AcDb2dVertex
62
5
10
160.000000
20
334.000000
0
VERTEX
5
19d
100
AcDbEntity
8
1
100
AcDbVertex
100
AcDb2dVertex
62
5
10
159.250000
20
332.125000
0
SEQEND
5
19e
100
AcDbEntity
8
1
0
LINE
5
19f
100
AcDbEntity
8
1
100
AcDbLine
6
CONTINUOUS
62
5
10
160.500000
20
334.937500
11
161.500000
21
333.375000
0
LINE
5
1a0
100
AcDbEntity
8
1
100
AcDbLine
6
CONTINUOUS
62
5
10
161.500000
20
337.750000
11
166.250000
21
337.750000
0
POLYLINE
5
1a1
100
AcDbEntity
8
1
6
CONTINUOUS
62
5
100
AcDb2dPolyline
66
1
10
0.0
20
0.0
30
0.0
70
0
0
VERTEX
5
1a2
100
AcDbEntity
8
1
100
AcDbVertex
100
AcDb2dVertex
62
5
10
163.750000
20
337.750000
0
VERTEX
5
1a3
100
AcDbEntity
8
1
100
AcDbVertex
100
AcDb2dVertex
62
5
10
162.750000
20
335.562500
0
VERTEX
5
1a4
100
AcDbEntity
8
1
100
AcDbVertex
100
AcDb2dVertex
62
5
10
164.250000
20
335.875000
0
VERTEX
5
1a5
100
AcDbEntity
8
1
100
AcDbVertex
100
AcDb2dVertex
62
5
10
164.250000
20
332.750000
0
VERTEX
5
1a6
100
AcDbEntity
8
1
100
AcDbVertex
100
AcDb2dVertex
62
5
10
163.750000
20
330.562500
0
VERTEX
5
1a7
100
AcDbEntity
8
1
100
AcDbVertex
100
AcDb2dVertex
62
5
10
163.250000
20
330.875000
0
SEQEND
5
1a8
100
AcDbEntity
8
1
0
POLYLINE
5
1a9
100
AcDbEntity
8
1
6
CONTINUOUS
62
5
100
AcDb2dPolyline
66
1
10
0.0
20
0.0
30
0.0
70
1
0
VERTEX
5
1aa
100
AcDbEntity
8
1
100
AcDbVertex
100
AcDb2dVertex
62
5
10
162.000000
20
334.000000
0
VERTEX
5
1ab
100
AcDbEntity
8
1
100
AcDbVertex
100
AcDb2dVertex
62
5
10
163.250000
20
334.000000
0
VERTEX
5
1ac
100
AcDbEntity
8
1
100
AcDbVertex
100
AcDb2dVertex
62
5
10
163.250000
20
331.812500
0
VERTEX
5
1ad
100
AcDbEntity
8
1
100
AcDbVertex
100
AcDb2dVertex
62
5
10
162.000000
20
331.812500
0
VERTEX
5
1ae
100
AcDbEntity
8
1
100
AcDbVertex
100
AcDb2dVertex
62
5
10
162.000000
20
334.000000
0
SEQEND
5
1af
100
AcDbEntity
8
1
0
POLYLINE
5
1b0
100
AcDbEntity
8
1
6
CONTINUOUS
62
5
100
AcDb2dPolyline
66
1
10
0.0
20
0.0
30
0.0
70
0
0
VERTEX
5
1b1
100
AcDbEntity
8
1
100
AcDbVertex
100
AcDb2dVertex
62
5
10
164.750000
20
335.562500
0
VERTEX
5
1b2
100
AcDbEntity
8
1
100
AcDbVertex
100
AcDb2dVertex
62
5
10
166.250000
20
335.562500
0
VERTEX
5
1b3
100
AcDbEntity
8
1
100
AcDbVertex
100
AcDb2dVertex
62
5
10
166.000000
20
334.312500
0
VERTEX
5
1b4
100
AcDbEntity
8
1
100
AcDbVertex
100
AcDb2dVertex
62
5
10
165.500000
20
332.750000
0
VERTEX
5
1b5
100
AcDbEntity
8
1
100
AcDbVertex
100
AcDb2dVertex
62
5
10
164.750000
20
331.187500
0
SEQEND
5
1b6
100
AcDbEntity
8
1
0
POLYLINE
5
1b7
100
AcDbEntity
8
1
6
CONTINUOUS
62
5
100
AcDb2dPolyline
66
1
10
0.0
20
0.0
30
0.0
70
0
0
VERTEX
5
1b8
100
AcDbEntity
8
1
100
AcDbVertex
100
AcDb2dVertex
62
5
10
164.750000
20
334.625000
0
VERTEX
5
1b9
100
AcDbEntity
8
1
100
AcDbVertex
100
AcDb2dVertex
62
5
10
165.000000
20
333.375000
0
VERTEX
5
1ba
100
AcDbEntity
8
1
100
AcDbVertex
100
AcDb2dVertex
62
5
10
166.500000
20
331.187500
0
SEQEND
5
1bb
100
AcDbEntity
8
1
0
LINE
5
1bc
100
AcDbEntity
8
1
100
AcDbLine
6
CONTINUOUS
62
5
10
161.250000
20
329.625000
11
166.500000
21
329.625000
0
POLYLINE
5
1bd
100
AcDbEntity
8
1
6
CONTINUOUS
62
5
100
AcDb2dPolyline
66
1
10
0.0
20
0.0
30
0.0
70
0
0
VERTEX
5
1be
100
AcDbEntity
8
1
100
AcDbVertex
100
AcDb2dVertex
62
5
10
108.750000
20
335.875000
0
VERTEX
5
1bf
100
AcDbEntity
8
1
100
AcDbVertex
100
AcDb2dVertex
62
5
10
112.750000
20
335.875000
0
VERTEX
5
1c0
100
AcDbEntity
8
1
100
AcDbVertex
100
AcDb2dVertex
62
5
10
112.750000
20
331.500000
0
VERTEX
5
1c1
100
AcDbEntity
8
1
100
AcDbVertex
100
AcDb2dVertex
62
5
10
108.750000
20
331.500000
0
SEQEND
5
1c2
100
AcDbEntity
8
1
0
LINE
5
1c3
100
AcDbEntity
8
1
100
AcDbLine
6
CONTINUOUS
62
5
10
116.750000
20
336.187500
11
117.750000
21
334.937500
0
POLYLINE
5
1c4
100
AcDbEntity
8
1
6
CONTINUOUS
62
5
100
AcDb2dPolyline
66
1
10
0.0
20
0.0
30
0.0
70
0
0
VERTEX
5
1c5
100
AcDbEntity
8
1
100
AcDbVertex
100
AcDb2dVertex
62
5
10
116.500000
20
331.187500
0
VERTEX
5
1c6
100
AcDbEntity
8
1
100
AcDbVertex
100
AcDb2dVertex
62
5
10
118.250000
20
332.125000
0
VERTEX
5
1c7
100
AcDbEntity
8
1
100
AcDbVertex
100
AcDb2dVertex
62
5
10
119.750000
20
333.375000
0
VERTEX
5
1c8
100
AcDbEntity
8
1
100
AcDbVertex
100
AcDb2dVertex
62
5
10
121.250000
20
334.937500
0
SEQEND
5
1c9
100
AcDbEntity
8
1
0
LINE
5
1ca
100
AcDbEntity
8
1
100
AcDbLine
6
CONTINUOUS
62
5
10
91.500000
20
335.250000
11
93.500000
21
335.250000
0
LINE
5
1cb
100
AcDbEntity
8
1
100
AcDbLine
6
CONTINUOUS
62
5
10
91.250000
20
330.875000
11
93.500000
21
332.125000
0
LINE
5
1cc
100
AcDbEntity
8
1
100
AcDbLine
6
CONTINUOUS
62
5
10
92.500000
20
337.750000
11
92.500000
21
331.500000
0
POLYLINE
5
1cd
100
AcDbEntity
8
1
6
CONTINUOUS
62
5
100
AcDb2dPolyline
66
1
10
0.0
20
0.0
30
0.0
70
1
0
VERTEX
5
1ce
100
AcDbEntity
8
1
100
AcDbVertex
100
AcDb2dVertex
62
5
10
94.500000
20
337.437500
0
VERTEX
5
1cf
100
AcDbEntity
8
1
100
AcDbVertex
100
AcDb2dVertex
62
5
10
94.500000
20
334.000000
0
VERTEX
5
1d0
100
AcDbEntity
8
1
100
AcDbVertex
100
AcDb2dVertex
62
5
10
97.500000
20
334.000000
0
VERTEX
5
1d1
100
AcDbEntity
8
1
100
AcDbVertex
100
AcDb2dVertex
62
5
10
97.500000
20
337.437500
0
VERTEX
5
1d2
100
AcDbEntity
8
1
100
AcDbVertex
100
AcDb2dVertex
62
5
10
94.500000
20
337.437500
0
SEQEND
5
1d3
100
AcDbEntity
8
1
0
LINE
5
1d4
100
AcDbEntity
8
1
100
AcDbLine
6
CONTINUOUS
62
5
10
94.500000
20
335.875000
11
97.500000
21
335.875000
0
LINE
5
1d5
100
AcDbEntity
8
1
100
AcDbLine
6
CONTINUOUS
62
5
10
96.000000
20
337.437500
11
96.000000
21
330.250000
0
LINE
5
1d6
100
AcDbEntity
8
1
100
AcDbLine
6
CONTINUOUS
62
5
10
94.000000
20
332.437500
11
98.000000
21
332.437500
0
LINE
5
1d7
100
AcDbEntity
8
1
100
AcDbLine
6
CONTINUOUS
62
5
10
93.250000
20
330.250000
11
98.500000
21
330.250000
0
LINE
5
1d8
100
AcDbEntity
8
1
100
AcDbLine
6
CONTINUOUS
62
5
10
100.000000
20
337.750000
11
101.000000
21
336.812500
0
POLYLINE
5
1d9
100
AcDbEntity
8
1
6
CONTINUOUS
62
5
100
AcDb2dPolyline
66
1
10
0.0
20
0.0
30
0.0
70
0
0
VERTEX
5
1da
100
AcDbEntity
8
1
100
AcDbVertex
100
AcDb2dVertex
62
5
10
99.750000
20
334.625000
0
VERTEX
5
1db
100
AcDbEntity
8
1
100
AcDbVertex
100
AcDb2dVertex
62
5
10
101.000000
20
334.625000
0
VERTEX
5
1dc
100
AcDbEntity
8
1
100
AcDbVertex
100
AcDb2dVertex
62
5
10
101.000000
20
331.500000
0
VERTEX
5
1dd
100
AcDbEntity
8
1
100
AcDbVertex
100
AcDb2dVertex
62
5
10
99.750000
20
329.937500
0
SEQEND
5
1de
100
AcDbEntity
8
1
0
POLYLINE
5
1df
100
AcDbEntity
8
1
6
CONTINUOUS
62
5
100
AcDb2dPolyline
66
1
10
0.0
20
0.0
30
0.0
70
0
0
VERTEX
5
1e0
100
AcDbEntity
8
1
100
AcDbVertex
100
AcDb2dVertex
62
5
10
101.000000
20
331.500000
0
VERTEX
5
1e1
100
AcDbEntity
8
1
100
AcDbVertex
100
AcDb2dVertex
62
5
10
101.750000
20
330.250000
0
VERTEX
5
1e2
100
AcDbEntity
8
1
100
AcDbVertex
100
AcDb2dVertex
62
5
10
102.750000
20
329.937500
0
VERTEX
5
1e3
100
AcDbEntity
8
1
100
AcDbVertex
100
AcDb2dVertex
62
5
10
106.500000
20
329.937500
0
SEQEND
5
1e4
100
AcDbEntity
8
1
0
POLYLINE
5
1e5
100
AcDbEntity
8
1
6
CONTINUOUS
62
5
100
AcDb2dPolyline
66
1
10
0.0
20
0.0
30
0.0
70
0
0
VERTEX
5
1e6
100
AcDbEntity
8
1
100
AcDbVertex
100
AcDb2dVertex
62
5
10
103.750000
20
335.250000
0
VERTEX
5
1e7
100
AcDbEntity
8
1
100
AcDbVertex
100
AcDb2dVertex
62
5
10
103.000000
20
333.375000
0
VERTEX
5
1e8
100
AcDbEntity
8
1
100
AcDbVertex
100
AcDb2dVertex
62
5
10
102.250000
20
332.125000
0
VERTEX
5
1e9
100
AcDbEntity
8
1
100
AcDbVertex
100
AcDb2dVertex
62
5
10
101.750000
20
331.500000
0
SEQEND
5
1ea
100
AcDbEntity
8
1
0
POLYLINE
5
1eb
100
AcDbEntity
8
1
6
CONTINUOUS
62
5
100
AcDb2dPolyline
66
1
10
0.0
20
0.0
30
0.0
70
0
0
VERTEX
5
1ec
100
AcDbEntity
8
1
100
AcDbVertex
100
AcDb2dVertex
62
5
10
102.500000
20
338.062500
0
VERTEX
5
1ed
100
AcDbEntity
8
1
100
AcDbVertex
100
AcDb2dVertex
62
5
10
103.750000
20
338.062500
0
VERTEX
5
1ee
100
AcDbEntity
8
1
100
AcDbVertex
100
AcDb2dVertex
62
5
10
103.750000
20
335.250000
0
VERTEX
5
1ef
100
AcDbEntity
8
1
100
AcDbVertex
100
AcDb2dVertex
62
5
10
104.500000
20
333.375000
0
VERTEX
5
1f0
100
AcDbEntity
8
1
100
AcDbVertex
100
AcDb2dVertex
62
5
10
105.500000
20
332.125000
0
VERTEX
5
1f1
100
AcDbEntity
8
1
100
AcDbVertex
100
AcDb2dVertex
62
5
10
106.250000
20
331.500000
0
SEQEND
5
1f2
100
AcDbEntity
8
1
0
POLYLINE
5
1f3
100
AcDbEntity
8
1
6
CONTINUOUS
62
5
100
AcDb2dPolyline
66
1
10
0.0
20
0.0
30
0.0
70
0
0
VERTEX
5
1f4
100
AcDbEntity
8
1
100
AcDbVertex
100
AcDb2dVertex
62
5
10
124.000000
20
334.312500
0
VERTEX
5
1f5
100
AcDbEntity
8
1
100
AcDbVertex
100
AcDb2dVertex
62
5
10
129.250000
20
334.937500
0
VERTEX
5
1f6
100
AcDbEntity
8
1
100
AcDbVertex
100
AcDb2dVertex
62
5
10
129.250000
20
334.625000
0
VERTEX
5
1f7
100
AcDbEntity
8
1
100
AcDbVertex
100
AcDb2dVertex
62
5
10
128.000000
20
333.062500
0
SEQEND
5
1f8
100
AcDbEntity
8
1
0
POLYLINE
5
1f9
100
AcDbEntity
8
1
6
CONTINUOUS
62
5
100
AcDb2dPolyline
66
1
10
0.0
20
0.0
30
0.0
70
0
0
VERTEX
5
1fa
100
AcDbEntity
8
1
100
AcDbVertex
100
AcDb2dVertex
62
5
10
126.000000
20
337.125000
0
VERTEX
5
1fb
100
AcDbEntity
8
1
100
AcDbVertex
100
AcDb2dVertex
62
5
10
126.000000
20
331.187500
0
VERTEX
5
1fc
100
AcDbEntity
8
1
100
AcDbVertex
100
AcDb2dVertex
62
5
10
126.500000
20
330.562500
0
VERTEX
5
1fd
100
AcDbEntity
8
1
100
AcDbVertex
100
AcDb2dVertex
62
5
10
129.250000
20
330.562500
0
SEQEND
5
1fe
100
AcDbEntity
8
1
0
POLYLINE
5
1ff
100
AcDbEntity
8
1
6
CONTINUOUS
62
5
100
AcDb2dPolyline
66
1
10
0.0
20
0.0
30
0.0
70
1
0
VERTEX
5
200
100
AcDbEntity
8
1
100
AcDbVertex
100
AcDb2dVertex
62
5
10
93.125000
20
300.812500
0
VERTEX
5
201
100
AcDbEntity
8
1
100
AcDbVertex
100
AcDb2dVertex
62
5
10
93.125000
20
297.687500
0
VERTEX
5
202
100
AcDbEntity
8
1
100
AcDbVertex
100
AcDb2dVertex
62
5
10
98.750000
20
297.687500
0
VERTEX
5
203
100
AcDbEntity
8
1
100
AcDbVertex
100
AcDb2dVertex
62
5
10
98.750000
20
300.812500
0
VERTEX
5
204
100
AcDbEntity
8
1
100
AcDbVertex
100
AcDb2dVertex
62
5
10
93.125000
20
300.812500
0
SEQEND
5
205
100
AcDbEntity
8
1
0
LINE
5
206
100
AcDbEntity
8
1
100
AcDbLine
6
CONTINUOUS
62
5
10
93.125000
20
299.250000
11
98.750000
21
299.250000
0
LINE
5
207
100
AcDbEntity
8
1
100
AcDbLine
6
CONTINUOUS
62
5
10
92.500000
20
296.437500
11
99.375000
21
296.437500
0
LINE
5
208
100
AcDbEntity
8
1
100
AcDbLine
6
CONTINUOUS
62
5
10
91.875000
20
294.875000
11
100.000000
21
294.875000
0
LINE
5
209
100
AcDbEntity
8
1
100
AcDbLine
6
CONTINUOUS
62
5
10
95.937500
20
300.812500
11
95.937500
21
294.875000
0
POLYLINE
5
20a
100
AcDbEntity
8
1
6
CONTINUOUS
62
5
100
AcDb2dPolyline
66
1
10
0.0
20
0.0
30
0.0
70
0
0
VERTEX
5
20b
100
AcDbEntity
8
1
100
AcDbVertex
100
AcDb2dVertex
62
5
10
93.125000
20
293.937500
0
VERTEX
5
20c
100
AcDbEntity
8
1
100
AcDbVertex
100
AcDb2dVertex
62
5
10
92.500000
20
293.000000
0
VERTEX
5
20d
100
AcDbEntity
8
1
100
AcDbVertex
100
AcDb2dVertex
62
5
10
91.562500
20
292.375000
0
SEQEND
5
20e
100
AcDbEntity
8
1
0
POLYLINE
5
20f
100
AcDbEntity
8
1
6
CONTINUOUS
62
5
100
AcDb2dPolyline
66
1
10
0.0
20
0.0
30
0.0
70
0
0
VERTEX
5
210
100
AcDbEntity
8
1
100
AcDbVertex
100
AcDb2dVertex
62
5
10
94.687500
20
293.937500
0
VERTEX
5
211
100
AcDbEntity
8
1
100
AcDbVertex
100
AcDb2dVertex
62
5
10
95.000000
20
293.312500
0
VERTEX
5
212
100
AcDbEntity
8
1
100
AcDbVertex
100
AcDb2dVertex
62
5
10
95.312500
20
292.375000
0
SEQEND
5
213
100
AcDbEntity
8
1
0
POLYLINE
5
214
100
AcDbEntity
8
1
6
CONTINUOUS
62
5
100
AcDb2dPolyline
66
1
10
0.0
20
0.0
30
0.0
70
0
0
VERTEX
5
215
100
AcDbEntity
8
1
100
AcDbVertex
100
AcDb2dVertex
62
5
10
96.875000
20
293.937500
0
VERTEX
5
216
100
AcDbEntity
8
1
100
AcDbVertex
100
AcDb2dVertex
62
5
10
97.187500
20
293.312500
0
VERTEX
5
217
100
AcDbEntity
8
1
100
AcDbVertex
100
AcDb2dVertex
62
5
10
97.500000
20
292.375000
0
SEQEND
5
218
100
AcDbEntity
8
1
0
POLYLINE
5
219
100
AcDbEntity
8
1
6
CONTINUOUS
62
5
100
AcDb2dPolyline
66
1
10
0.0
20
0.0
30
0.0
70
0
0
VERTEX
5
21a
100
AcDbEntity
8
1
100
AcDbVertex
100
AcDb2dVertex
62
5
10
98.750000
20
293.937500
0
VERTEX
5
21b
100
AcDbEntity
8
1
100
AcDbVertex
100
AcDb2dVertex
62
5
10
99.687500
20
293.312500
0
VERTEX
5
21c
100
AcDbEntity
8
1
100
AcDbVertex
100
AcDb2dVertex
62
5
10
100.312500
20
292.375000
0
SEQEND
5
21d
100
AcDbEntity
8
1
0
POLYLINE
5
21e
100
AcDbEntity
8
1
6
CONTINUOUS
62
5
100
AcDb2dPolyline
66
1
10
0.0
20
0.0
30
0.0
70
1
0
VERTEX
5
21f
100
AcDbEntity
8
1
100
AcDbVertex
100
AcDb2dVertex
62
5
10
76.500000
20
328.062500
0
VERTEX
5
220
100
AcDbEntity
8
1
100
AcDbVertex
100
AcDb2dVertex
62
5
10
76.500000
20
324.937500
0
VERTEX
5
221
100
AcDbEntity
8
1
100
AcDbVertex
100
AcDb2dVertex
62
5
10
81.000000
20
324.937500
0
VERTEX
5
222
100
AcDbEntity
8
1
100
AcDbVertex
100
AcDb2dVertex
62
5
10
81.000000
20
328.062500
0
VERTEX
5
223
100
AcDbEntity
8
1
100
AcDbVertex
100
AcDb2dVertex
62
5
10
76.500000
20
328.062500
0
SEQEND
5
224
100
AcDbEntity
8
1
0
LINE
5
225
100
AcDbEntity
8
1
100
AcDbLine
6
CONTINUOUS
62
5
10
76.500000
20
326.500000
11
81.000000
21
326.500000
0
LINE
5
226
100
AcDbEntity
8
1
100
AcDbLine
6
CONTINUOUS
62
5
10
76.000000
20
323.687500
11
81.500000
21
323.687500
0
LINE
5
227
100
AcDbEntity
8
1
100
AcDbLine
6
CONTINUOUS
62
5
10
75.500000
20
322.125000
11
82.000000
21
322.125000
0
LINE
5
228
100
AcDbEntity
8
1
100
AcDbLine
6
CONTINUOUS
62
5
10
78.750000
20
328.062500
11
78.750000
21
322.125000
0
POLYLINE
5
229
100
AcDbEntity
8
1
6
CONTINUOUS
62
5
100
AcDb2dPolyline
66
1
10
0.0
20
0.0
30
0.0
70
0
0
VERTEX
5
22a
100
AcDbEntity
8
1
100
AcDbVertex
100
AcDb2dVertex
62
5
10
76.500000
20
321.187500
0
VERTEX
5
22b
100
AcDbEntity
8
1
100
AcDbVertex
100
AcDb2dVertex
62
5
10
76.000000
20
320.250000
0
VERTEX
5
22c
100
AcDbEntity
8
1
100
AcDbVertex
100
AcDb2dVertex
62
5
10
75.250000
20
319.625000
0
SEQEND
5
22d
100
AcDbEntity
8
1
0
POLYLINE
5
22e
100
AcDbEntity
8
1
6
CONTINUOUS
62
5
100
AcDb2dPolyline
66
1
10
0.0
20
0.0
30
0.0
70
0
0
VERTEX
5
22f
100
AcDbEntity
8
1
100
AcDbVertex
100
AcDb2dVertex
62
5
10
77.750000
20
321.187500
0
VERTEX
5
230
100
AcDbEntity
8
1
100
AcDbVertex
100
AcDb2dVertex
62
5
10
78.000000
20
320.562500
0
VERTEX
5
231
100
AcDbEntity
8
1
100
AcDbVertex
100
AcDb2dVertex
62
5
10
78.250000
20
319.625000
0
SEQEND
5
232
100
AcDbEntity
8
1
0
POLYLINE
5
233
100
AcDbEntity
8
1
6
CONTINUOUS
62
5
100
AcDb2dPolyline
66
1
10
0.0
20
0.0
30
0.0
70
0
0
VERTEX
5
234
100
AcDbEntity
8
1
100
AcDbVertex
100
AcDb2dVertex
62
5
10
79.500000
20
321.187500
0
VERTEX
5
235
100
AcDbEntity
8
1
100
AcDbVertex
100
AcDb2dVertex
62
5
10
79.750000
20
320.562500
0
VERTEX
5
236
100
AcDbEntity
8
1
100
AcDbVertex
100
AcDb2dVertex
62
5
10
80.000000
20
319.625000
0
SEQEND
5
237
100
AcDbEntity
8
1
0
POLYLINE
5
238
100
AcDbEntity
8
1
6
CONTINUOUS
62
5
100
AcDb2dPolyline
66
1
10
0.0
20
0.0
30
0.0
70
0
0
VERTEX
5
239
100
AcDbEntity
8
1
100
AcDbVertex
100
AcDb2dVertex
62
5
10
81.000000
20
321.187500
0
VERTEX
5
23a
100
AcDbEntity
8
1
100
AcDbVertex
100
AcDb2dVertex
62
5
10
81.750000
20
320.562500
0
VERTEX
5
23b
100
AcDbEntity
8
1
100
AcDbVertex
100
AcDb2dVertex
62
5
10
82.250000
20
319.625000
0
SEQEND
5
23c
100
AcDbEntity
8
1
0
POLYLINE
5
23d
100
AcDbEntity
8
1
6
CONTINUOUS
62
5
100
AcDb2dPolyline
66
1
10
0.0
20
0.0
30
0.0
70
0
0
VERTEX
5
23e
100
AcDbEntity
8
1
100
AcDbVertex
100
AcDb2dVertex
62
5
10
75.500000
20
336.187500
0
VERTEX
5
23f
100
AcDbEntity
8
1
100
AcDbVertex
100
AcDb2dVertex
62
5
10
80.500000
20
336.187500
0
VERTEX
5
240
100
AcDbEntity
8
1
100
AcDbVertex
100
AcDb2dVertex
62
5
10
80.250000
20
333.687500
0
VERTEX
5
241
100
AcDbEntity
8
1
100
AcDbVertex
100
AcDb2dVertex
62
5
10
80.000000
20
330.250000
0
VERTEX
5
242
100
AcDbEntity
8
1
100
AcDbVertex
100
AcDb2dVertex
62
5
10
82.250000
20
330.250000
0
VERTEX
5
243
100
AcDbEntity
8
1
100
AcDbVertex
100
AcDb2dVertex
62
5
10
82.250000
20
331.500000
0
SEQEND
5
244
100
AcDbEntity
8
1
0
POLYLINE
5
245
100
AcDbEntity
8
1
6
CONTINUOUS
62
5
100
AcDb2dPolyline
66
1
10
0.0
20
0.0
30
0.0
70
0
0
VERTEX
5
246
100
AcDbEntity
8
1
100
AcDbVertex
100
AcDb2dVertex
62
5
10
78.000000
20
338.062500
0
VERTEX
5
247
100
AcDbEntity
8
1
100
AcDbVertex
100
AcDb2dVertex
62
5
10
78.000000
20
334.937500
0
VERTEX
5
248
100
AcDbEntity
8
1
100
AcDbVertex
100
AcDb2dVertex
62
5
10
77.250000
20
332.125000
0
VERTEX
5
249
100
AcDbEntity
8
1
100
AcDbVertex
100
AcDb2dVertex
62
5
10
76.500000
20
330.875000
0
VERTEX
5
24a
100
AcDbEntity
8
1
100
AcDbVertex
100
AcDb2dVertex
62
5
10
75.500000
20
329.937500
0
SEQEND
5
24b
100
AcDbEntity
8
1
0
POLYLINE
5
24c
100
AcDbEntity
8
1
6
CONTINUOUS
62
5
100
AcDb2dPolyline
66
1
10
0.0
20
0.0
30
0.0
70
0
0
VERTEX
5
24d
100
AcDbEntity
8
1
100
AcDbVertex
100
AcDb2dVertex
62
5
10
76.250000
20
334.312500
0
VERTEX
5
24e
100
AcDbEntity
8
1
100
AcDbVertex
100
AcDb2dVertex
62
5
10
77.750000
20
333.375000
0
VERTEX
5
24f
100
AcDbEntity
8
1
100
AcDbVertex
100
AcDb2dVertex
62
5
10
79.000000
20
331.812500
0
SEQEND
5
250
100
AcDbEntity
8
1
0
LINE
5
251
100
AcDbEntity
8
1
100
AcDbLine
6
CONTINUOUS
62
5
10
50.000000
20
350.000000
11
50.000000
21
318.000000
0
POLYLINE
5
252
100
AcDbEntity
8
1
6
CONTINUOUS
62
5
100
AcDb2dPolyline
66
1
10
0.0
20
0.0
30
0.0
70
0
0
VERTEX
5
253
100
AcDbEntity
8
1
100
AcDbVertex
100
AcDb2dVertex
62
5
10
63.125000
20
299.875000
0
VERTEX
5
254
100
AcDbEntity
8
1
100
AcDbVertex
100
AcDb2dVertex
62
5
10
64.062500
20
300.500000
0
VERTEX
5
255
100
AcDbEntity
8
1
100
AcDbVertex
100
AcDb2dVertex
62
5
10
64.062500
20
293.000000
0
SEQEND
5
256
100
AcDbEntity
8
1
0
LINE
5
257
100
AcDbEntity
8
1
100
AcDbLine
6
CONTINUOUS
62
5
10
63.437500
20
293.000000
11
64.687500
21
293.000000
0
POLYLINE
5
258
100
AcDbEntity
8
1
6
CONTINUOUS
62
5
100
AcDb2dPolyline
66
1
10
0.0
20
0.0
30
0.0
70
0
0
VERTEX
5
259
100
AcDbEntity
8
1
100
AcDbVertex
100
AcDb2dVertex
62
5
10
68.125000
20
299.875000
0
VERTEX
5
25a
100
AcDbEntity
8
1
100
AcDbVertex
100
AcDb2dVertex
62
5
10
69.062500
20
300.500000
0
VERTEX
5
25b
100
AcDbEntity
8
1
100
AcDbVertex
100
AcDb2dVertex
62
5
10
69.062500
20
293.000000
0
SEQEND
5
25c
100
AcDbEntity
8
1
0
LINE
5
25d
100
AcDbEntity
8
1
100
AcDbLine
6
CONTINUOUS
62
5
10
68.437500
20
293.000000
11
69.687500
21
293.000000
0
POLYLINE
5
25e
100
AcDbEntity
8
1
6
CONTINUOUS
62
5
100
AcDb2dPolyline
66
1
10
0.0
20
0.0
30
0.0
70
0
0
VERTEX
5
25f
100
AcDbEntity
8
1
100
AcDbVertex
100
AcDb2dVertex
62
5
10
72.500000
20
298.625000
0
VERTEX
5
260
100
AcDbEntity
8
1
100
AcDbVertex
100
AcDb2dVertex
62
5
10
72.812500
20
299.875000
0
VERTEX
5
261
100
AcDbEntity
8
1
100
AcDbVertex
100
AcDb2dVertex
62
5
10
73.437500
20
300.500000
0
VERTEX
5
262
100
AcDbEntity
8
1
100
AcDbVertex
100
AcDb2dVertex
62
5
10
74.375000
20
300.500000
0
VERTEX
5
263
100
AcDbEntity
8
1
100
AcDbVertex
100
AcDb2dVertex
62
5
10
75.000000
20
300.187500
0
VERTEX
5
264
100
AcDbEntity
8
1
100
AcDbVertex
100
AcDb2dVertex
62
5
10
75.312500
20
299.250000
0
VERTEX
5
265
100
AcDbEntity
8
1
100
AcDbVertex
100
AcDb2dVertex
62
5
10
75.312500
20
298.000000
0
VERTEX
5
266
100
AcDbEntity
8
1
100
AcDbVertex
100
AcDb2dVertex
62
5
10
75.000000
20
297.375000
0
VERTEX
5
267
100
AcDbEntity
8
1
100
AcDbVertex
100
AcDb2dVertex
62
5
10
74.375000
20
296.750000
0
VERTEX
5
268
100
AcDbEntity
8
1
100
AcDbVertex
100
AcDb2dVertex
62
5
10
73.437500
20
296.750000
0
SEQEND
5
269
100
AcDbEntity
8
1
0
POLYLINE
5
26a
100
AcDbEntity
8
1
6
CONTINUOUS
62
5
100
AcDb2dPolyline
66
1
10
0.0
20
0.0
30
0.0
70
0
0
VERTEX
5
26b
100
AcDbEntity
8
1
100
AcDbVertex
100
AcDb2dVertex
62
5
10
74.375000
20
296.750000
0
VERTEX
5
26c
100
AcDbEntity
8
1
100
AcDbVertex
100
AcDb2dVertex
62
5
10
75.312500
20
296.125000
0
VERTEX
5
26d
100
AcDbEntity
8
1
100
AcDbVertex
100
AcDb2dVertex
62
5
10
75.625000
20
295.187500
0
VERTEX
5
26e
100
AcDbEntity
8
1
100
AcDbVertex
100
AcDb2dVertex
62
5
10
75.625000
20
294.250000
0
VERTEX
5
26f
100
AcDbEntity
8
1
100
AcDbVertex
100
AcDb2dVertex
62
5
10
75.312500
20
293.625000
0
VERTEX
5
270
100
AcDbEntity
8
1
100
AcDbVertex
100
AcDb2dVertex
62
5
10
74.375000
20
293.000000
0
VERTEX
5
271
100
AcDbEntity
8
1
100
AcDbVertex
100
AcDb2dVertex
62
5
10
73.437500
20
293.000000
0
VERTEX
5
272
100
AcDbEntity
8
1
100
AcDbVertex
100
AcDb2dVertex
62
5
10
72.812500
20
293.312500
0
VERTEX
5
273
100
AcDbEntity
8
1
100
AcDbVertex
100
AcDb2dVertex
62
5
10
72.187500
20
294.250000
0
SEQEND
5
274
100
AcDbEntity
8
1
0
POLYLINE
5
275
100
AcDbEntity
8
1
6
CONTINUOUS
62
5
100
AcDb2dPolyline
66
1
10
0.0
20
0.0
30
0.0
70
0
0
VERTEX
5
276
100
AcDbEntity
8
1
100
AcDbVertex
100
AcDb2dVertex
62
5
10
80.000000
20
300.500000
0
VERTEX
5
277
100
AcDbEntity
8
1
100
AcDbVertex
100
AcDb2dVertex
62
5
10
79.062500
20
300.500000
0
VERTEX
5
278
100
AcDbEntity
8
1
100
AcDbVertex
100
AcDb2dVertex
62
5
10
78.125000
20
300.187500
0
VERTEX
5
279
100
AcDbEntity
8
1
100
AcDbVertex
100
AcDb2dVertex
62
5
10
77.500000
20
298.937500
0
VERTEX
5
27a
100
AcDbEntity
8
1
100
AcDbVertex
100
AcDb2dVertex
62
5
10
77.500000
20
294.562500
0
VERTEX
5
27b
100
AcDbEntity
8
1
100
AcDbVertex
100
AcDb2dVertex
62
5
10
77.812500
20
293.625000
0
VERTEX
5
27c
100
AcDbEntity
8
1
100
AcDbVertex
100
AcDb2dVertex
62
5
10
78.125000
20
293.312500
0
VERTEX
5
27d
100
AcDbEntity
8
1
100
AcDbVertex
100
AcDb2dVertex
62
5
10
78.750000
20
293.000000
0
VERTEX
5
27e
100
AcDbEntity
8
1
100
AcDbVertex
100
AcDb2dVertex
62
5
10
79.375000
20
293.000000
0
VERTEX
5
27f
100
AcDbEntity
8
1
100
AcDbVertex
100
AcDb2dVertex
62
5
10
80.000000
20
293.312500
0
VERTEX
5
280
100
AcDbEntity
8
1
100
AcDbVertex
100
AcDb2dVertex
62
5
10
80.312500
20
293.625000
0
VERTEX
5
281
100
AcDbEntity
8
1
100
AcDbVertex
100
AcDb2dVertex
62
5
10
80.625000
20
294.562500
0
VERTEX
5
282
100
AcDbEntity
8
1
100
AcDbVertex
100
AcDb2dVertex
62
5
10
80.625000
20
296.437500
0
VERTEX
5
283
100
AcDbEntity
8
1
100
AcDbVertex
100
AcDb2dVertex
62
5
10
80.312500
20
297.062500
0
VERTEX
5
284
100
AcDbEntity
8
1
100
AcDbVertex
100
AcDb2dVertex
62
5
10
79.687500
20
297.375000
0
VERTEX
5
285
100
AcDbEntity
8
1
100
AcDbVertex
100
AcDb2dVertex
62
5
10
78.437500
20
297.375000
0
VERTEX
5
286
100
AcDbEntity
8
1
100
AcDbVertex
100
AcDb2dVertex
62
5
10
77.500000
20
297.062500
0
SEQEND
5
287
100
AcDbEntity
8
1
0
LINE
5
288
100
AcDbEntity
8
1
100
AcDbLine
6
CONTINUOUS
62
5
10
83.500000
20
337.750000
11
87.000000
21
337.750000
0
LINE
5
289
100
AcDbEntity
8
1
100
AcDbLine
6
CONTINUOUS
62
5
10
83.250000
20
334.625000
11
87.500000
21
334.625000
0
POLYLINE
5
28a
100
AcDbEntity
8
1
6
CONTINUOUS
62
5
100
AcDb2dPolyline
66
1
10
0.0
20
0.0
30
0.0
70
0
0
VERTEX
5
28b
100
AcDbEntity
8
1
100
AcDbVertex
100
AcDb2dVertex
62
5
10
84.500000
20
337.750000
0
VERTEX
5
28c
100
AcDbEntity
8
1
100
AcDbVertex
100
AcDb2dVertex
62
5
10
84.500000
20
333.375000
0
VERTEX
5
28d
100
AcDbEntity
8
1
100
AcDbVertex
100
AcDb2dVertex
62
5
10
84.250000
20
331.187500
0
VERTEX
5
28e
100
AcDbEntity
8
1
100
AcDbVertex
100
AcDb2dVertex
62
5
10
83.500000
20
329.312500
0
SEQEND
5
28f
100
AcDbEntity
8
1
0
LINE
5
290
100
AcDbEntity
8
1
100
AcDbLine
6
CONTINUOUS
62
5
10
86.000000
20
337.750000
11
86.000000
21
329.312500
0
POLYLINE
5
291
100
AcDbEntity
8
1
6
CONTINUOUS
62
5
100
AcDb2dPolyline
66
1
10
0.0
20
0.0
30
0.0
70
0
0
VERTEX
5
292
100
AcDbEntity
8
1
100
AcDbVertex
100
AcDb2dVertex
62
5
10
89.750000
20
338.062500
0
VERTEX
5
293
100
AcDbEntity
8
1
100
AcDbVertex
100
AcDb2dVertex
62
5
10
88.250000
20
336.500000
0
VERTEX
5
294
100
AcDbEntity
8
1
100
AcDbVertex
100
AcDb2dVertex
62
5
10
87.000000
20
335.562500
0
SEQEND
5
295
100
AcDbEntity
8
1
0
POLYLINE
5
296
100
AcDbEntity
8
1
6
CONTINUOUS
62
5
100
AcDb2dPolyline
66
1
10
0.0
20
0.0
30
0.0
70
0
0
VERTEX
5
297
100
AcDbEntity
8
1
100
AcDbVertex
100
AcDb2dVertex
62
5
10
90.000000
20
335.562500
0
VERTEX
5
298
100
AcDbEntity
8
1
100
AcDbVertex
100
AcDb2dVertex
62
5
10
89.000000
20
334.312500
0
VERTEX
5
299
100
AcDbEntity
8
1
100
AcDbVertex
100
AcDb2dVertex
62
5
10
88.250000
20
333.687500
0
VERTEX
5
29a
100
AcDbEntity
8
1
100
AcDbVertex
100
AcDb2dVertex
62
5
10
87.500000
20
333.062500
0
SEQEND
5
29b
100
AcDbEntity
8
1
0
POLYLINE
5
29c
100
AcDbEntity
8
1
6
CONTINUOUS
62
5
100
AcDb2dPolyline
66
1
10
0.0
20
0.0
30
0.0
70
0
0
VERTEX
5
29d
100
AcDbEntity
8
1
100
AcDbVertex
100
AcDb2dVertex
62
5
10
90.250000
20
332.750000
0
VERTEX
5
29e
100
AcDbEntity
8
1
100
AcDbVertex
100
AcDb2dVertex
62
5
10
89.500000
20
331.812500
0
VERTEX
5
29f
100
AcDbEntity
8
1
100
AcDbVertex
100
AcDb2dVertex
62
5
10
88.750000
20
330.875000
0
VERTEX
5
2a0
100
AcDbEntity
8
1
100
AcDbVertex
100
AcDb2dVertex
62
5
10
87.250000
20
329.625000
0
SEQEND
5
2a1
100
AcDbEntity
8
1
0
POLYLINE
5
2a2
100
AcDbEntity
8
1
6
CONTINUOUS
62
5
100
AcDb2dPolyline
66
1
10
0.0
20
0.0
30
0.0
70
0
0
VERTEX
5
2a3
100
AcDbEntity
8
1
100
AcDbVertex
100
AcDb2dVertex
62
5
10
86.250000
20
328.375000
0
VERTEX
5
2a4
100
AcDbEntity
8
1
100
AcDbVertex
100
AcDb2dVertex
62
5
10
85.500000
20
327.125000
0
VERTEX
5
2a5
100
AcDbEntity
8
1
100
AcDbVertex
100
AcDb2dVertex
62
5
10
84.750000
20
326.187500
0
VERTEX
5
2a6
100
AcDbEntity
8
1
100
AcDbVertex
100
AcDb2dVertex
62
5
10
83.750000
20
325.250000
0
SEQEND
5
2a7
100
AcDbEntity
8
1
0
POLYLINE
5
2a8
100
AcDbEntity
8
1
6
CONTINUOUS
62
5
100
AcDb2dPolyline
66
1
10
0.0
20
0.0
30
0.0
70
0
0
VERTEX
5
2a9
100
AcDbEntity
8
1
100
AcDbVertex
100
AcDb2dVertex
62
5
10
86.000000
20
327.750000
0
VERTEX
5
2aa
100
AcDbEntity
8
1
100
AcDbVertex
100
AcDb2dVertex
62
5
10
88.250000
20
327.750000
0
VERTEX
5
2ab
100
AcDbEntity
8
1
100
AcDbVertex
100
AcDb2dVertex
62
5
10
87.000000
20
325.875000
0
SEQEND
5
2ac
100
AcDbEntity
8
1
0
POLYLINE
5
2ad
100
AcDbEntity
8
1
6
CONTINUOUS
62
5
100
AcDb2dPolyline
66
1
10
0.0
20
0.0
30
0.0
70
0
0
VERTEX
5
2ae
100
AcDbEntity
8
1
100
AcDbVertex
100
AcDb2dVertex
62
5
10
84.750000
20
325.875000
0
VERTEX
5
2af
100
AcDbEntity
8
1
100
AcDbVertex
100
AcDb2dVertex
62
5
10
89.250000
20
325.875000
0
VERTEX
5
2b0
100
AcDbEntity
8
1
100
AcDbVertex
100
AcDb2dVertex
62
5
10
89.250000
20
323.062500
0
VERTEX
5
2b1
100
AcDbEntity
8
1
100
AcDbVertex
100
AcDb2dVertex
62
5
10
84.750000
20
323.062500
0
SEQEND
5
2b2
100
AcDbEntity
8
1
0
LINE
5
2b3
100
AcDbEntity
8
1
100
AcDbLine
6
CONTINUOUS
62
5
10
87.000000
20
325.875000
11
87.000000
21
323.062500
0
POLYLINE
5
2b4
100
AcDbEntity
8
1
6
CONTINUOUS
62
5
100
AcDb2dPolyline
66
1
10
0.0
20
0.0
30
0.0
70
0
0
VERTEX
5
2b5
100
AcDbEntity
8
1
100
AcDbVertex
100
AcDb2dVertex
62
5
10
84.750000
20
325.875000
0
VERTEX
5
2b6
100
AcDbEntity
8
1
100
AcDbVertex
100
AcDb2dVertex
62
5
10
84.750000
20
320.562500
0
VERTEX
5
2b7
100
AcDbEntity
8
1
100
AcDbVertex
100
AcDb2dVertex
62
5
10
85.250000
20
319.937500
0
VERTEX
5
2b8
100
AcDbEntity
8
1
100
AcDbVertex
100
AcDb2dVertex
62
5
10
90.250000
20
319.937500
0
VERTEX
5
2b9
100
AcDbEntity
8
1
100
AcDbVertex
100
AcDb2dVertex
62
5
10
90.250000
20
321.187500
0
SEQEND
5
2ba
100
AcDbEntity
8
1
0
POLYLINE
5
2bb
100
AcDbEntity
8
1
6
CONTINUOUS
62
5
100
AcDb2dPolyline
66
1
10
0.0
20
0.0
30
0.0
70
0
0
VERTEX
5
2bc
100
AcDbEntity
8
1
100
AcDbVertex
100
AcDb2dVertex
62
5
10
82.500000
20
293.000000
0
VERTEX
5
2bd
100
AcDbEntity
8
1
100
AcDbVertex
100
AcDb2dVertex
62
5
10
84.062500
20
300.500000
0
VERTEX
5
2be
100
AcDbEntity
8
1
100
AcDbVertex
100
AcDb2dVertex
62
5
10
85.625000
20
293.000000
0
SEQEND
5
2bf
100
AcDbEntity
8
1
0
LINE
5
2c0
100
AcDbEntity
8
1
100
AcDbLine
6
CONTINUOUS
62
5
10
83.125000
20
295.500000
11
85.000000
21
295.500000
0
LINE
5
2c1
100
AcDbEntity
8
1
100
AcDbLine
6
DOT2
62
5
10
130.750000
20
240.750000
11
133.562500
21
240.750000
0
POLYLINE
5
2c2
100
AcDbEntity
8
1
6
DOT2
62
5
100
AcDb2dPolyline
66
1
10
0.0
20
0.0
30
0.0
70
0
0
VERTEX
5
2c3
100
AcDbEntity
8
1
100
AcDbVertex
100
AcDb2dVertex
62
5
10
130.750000
20
240.750000
0
VERTEX
5
2c4
100
AcDbEntity
8
1
100
AcDbVertex
100
AcDb2dVertex
62
5
10
130.750000
20
237.000000
0
VERTEX
5
2c5
100
AcDbEntity
8
1
100
AcDbVertex
100
AcDb2dVertex
62
5
10
131.375000
20
237.625000
0
VERTEX
5
2c6
100
AcDbEntity
8
1
100
AcDbVertex
100
AcDb2dVertex
62
5
10
132.000000
20
237.937500
0
VERTEX
5
2c7
100
AcDbEntity
8
1
100
AcDbVertex
100
AcDb2dVertex
62
5
10
132.937500
20
237.937500
0
VERTEX
5
2c8
100
AcDbEntity
8
1
100
AcDbVertex
100
AcDb2dVertex
62
5
10
133.562500
20
237.625000
0
VERTEX
5
2c9
100
AcDbEntity
8
1
100
AcDbVertex
100
AcDb2dVertex
62
5
10
133.875000
20
236.687500
0
VERTEX
5
2ca
100
AcDbEntity
8
1
100
AcDbVertex
100
AcDb2dVertex
62
5
10
133.875000
20
234.812500
0
VERTEX
5
2cb
100
AcDbEntity
8
1
100
AcDbVertex
100
AcDb2dVertex
62
5
10
133.250000
20
233.875000
0
VERTEX
5
2cc
100
AcDbEntity
8
1
100
AcDbVertex
100
AcDb2dVertex
62
5
10
132.312500
20
233.250000
0
VERTEX
5
2cd
100
AcDbEntity
8
1
100
AcDbVertex
100
AcDb2dVertex
62
5
10
130.750000
20
233.250000
0
SEQEND
5
2ce
100
AcDbEntity
8
1
0
POLYLINE
5
2cf
100
AcDbEntity
8
1
6
DOT2
62
5
100
AcDb2dPolyline
66
1
10
0.0
20
0.0
30
0.0
70
0
0
VERTEX
5
2d0
100
AcDbEntity
8
1
100
AcDbVertex
100
AcDb2dVertex
62
5
10
125.750000
20
238.875000
0
VERTEX
5
2d1
100
AcDbEntity
8
1
100
AcDbVertex
100
AcDb2dVertex
62
5
10
126.062500
20
240.125000
0
VERTEX
5
2d2
100
AcDbEntity
8
1
100
AcDbVertex
100
AcDb2dVertex
62
5
10
126.687500
20
240.750000
0
VERTEX
5
2d3
100
AcDbEntity
8
1
100
AcDbVertex
100
AcDb2dVertex
62
5
10
127.625000
20
240.750000
0
VERTEX
5
2d4
100
AcDbEntity
8
1
100
AcDbVertex
100
AcDb2dVertex
62
5
10
128.250000
20
240.437500
0
VERTEX
5
2d5
100
AcDbEntity
8
1
100
AcDbVertex
100
AcDb2dVertex
62
5
10
128.562500
20
239.500000
0
VERTEX
5
2d6
100
AcDbEntity
8
1
100
AcDbVertex
100
AcDb2dVertex
62
5
10
128.562500
20
238.250000
0
VERTEX
5
2d7
100
AcDbEntity
8
1
100
AcDbVertex
100
AcDb2dVertex
62
5
10
128.250000
20
237.625000
0
VERTEX
5
2d8
100
AcDbEntity
8
1
100
AcDbVertex
100
AcDb2dVertex
62
5
10
127.625000
20
237.000000
0
VERTEX
5
2d9
100
AcDbEntity
8
1
100
AcDbVertex
100
AcDb2dVertex
62
5
10
126.687500
20
237.000000
0
SEQEND
5
2da
100
AcDbEntity
8
1
0
POLYLINE
5
2db
100
AcDbEntity
8
1
6
DOT2
62
5
100
AcDb2dPolyline
66
1
10
0.0
20
0.0
30
0.0
70
0
0
VERTEX
5
2dc
100
AcDbEntity
8
1
100
AcDbVertex
100
AcDb2dVertex
62
5
10
127.625000
20
237.000000
0
VERTEX
5
2dd
100
AcDbEntity
8
1
100
AcDbVertex
100
AcDb2dVertex
62
5
10
128.562500
20
236.375000
0
VERTEX
5
2de
100
AcDbEntity
8
1
100
AcDbVertex
100
AcDb2dVertex
62
5
10
128.875000
20
235.437500
0
VERTEX
5
2df
100
AcDbEntity
8
1
100
AcDbVertex
100
AcDb2dVertex
62
5
10
128.875000
20
234.500000
0
VERTEX
5
2e0
100
AcDbEntity
8
1
100
AcDbVertex
100
AcDb2dVertex
62
5
10
128.562500
20
233.875000
0
VERTEX
5
2e1
100
AcDbEntity
8
1
100
AcDbVertex
100
AcDb2dVertex
62
5
10
127.625000
20
233.250000
0
VERTEX
5
2e2
100
AcDbEntity
8
1
100
AcDbVertex
100
AcDb2dVertex
62
5
10
126.687500
20
233.250000
0
VERTEX
5
2e3
100
AcDbEntity
8
1
100
AcDbVertex
100
AcDb2dVertex
62
5
10
126.062500
20
233.562500
0
VERTEX
5
2e4
100
AcDbEntity
8
1
100
AcDbVertex
100
AcDb2dVertex
62
5
10
125.437500
20
234.500000
0
SEQEND
5
2e5
100
AcDbEntity
8
1
0
CIRCLE
5
2e6
100
AcDbEntity
8
1
100
AcDbCircle
6
CONTINUOUS
62
5
10
129.500000
20
194.250000
40
1.479500
0
CIRCLE
5
2e7
100
AcDbEntity
8
1
100
AcDbCircle
6
CONTINUOUS
62
5
10
129.500000
20
190.250000
40
1.479500
0
CIRCLE
5
2e8
100
AcDbEntity
8
1
100
AcDbCircle
6
CONTINUOUS
62
5
10
129.500000
20
190.250000
40
1.750000
0
ARC
5
2e9
100
AcDbEntity
8
1
100
AcDbCircle
6
CONTINUOUS
62
5
10
125.500000
20
201.557941
40
2.500000
100
AcDbArc
50
179.999998
51
-84.502150
0
ARC
5
2ea
100
AcDbEntity
8
1
100
AcDbCircle
6
CONTINUOUS
62
5
10
129.500000
20
160.000000
40
39.250000
100
AcDbArc
50
84.502150
51
95.497848
0
ARC
5
2eb
100
AcDbEntity
8
1
100
AcDbCircle
6
CONTINUOUS
62
5
10
133.500000
20
201.557941
40
2.500000
100
AcDbArc
50
-95.497848
51
0.000000
0
LINE
5
2ec
100
AcDbEntity
8
1
100
AcDbLine
6
CONTINUOUS
62
5
10
136.000000
20
201.557941
11
136.000000
21
201.557941
0
ARC
5
2ed
100
AcDbEntity
8
1
100
AcDbCircle
6
CONTINUOUS
62
5
10
133.500000
20
201.557941
40
2.500000
100
AcDbArc
50
0.000000
51
84.502150
0
ARC
5
2ee
100
AcDbEntity
8
1
100
AcDbCircle
6
CONTINUOUS
62
5
10
129.500000
20
160.000000
40
44.250000
100
AcDbArc
50
84.502150
51
95.497848
0
LINE
5
2ef
100
AcDbEntity
8
1
100
AcDbLine
6
CONTINUOUS
62
5
10
125.260479
20
204.046441
11
125.196523
21
204.038619
0
ARC
5
2f0
100
AcDbEntity
8
1
100
AcDbCircle
6
CONTINUOUS
62
5
10
125.500000
20
201.557107
40
2.500000
100
AcDbArc
50
96.972371
51
179.999998
0
LINE
5
2f1
100
AcDbEntity
8
1
100
AcDbLine
6
CONTINUOUS
62
5
10
123.000000
20
201.557107
11
123.000000
21
201.557941
0
LINE
5
2f2
100
AcDbEntity
8
1
100
AcDbLine
6
CONTINUOUS
62
5
10
167.250000
20
336.187500
11
169.500000
21
336.187500
0
POLYLINE
5
2f3
100
AcDbEntity
8
1
6
CONTINUOUS
62
5
100
AcDb2dPolyline
66
1
10
0.0
20
0.0
30
0.0
70
0
0
VERTEX
5
2f4
100
AcDbEntity
8
1
100
AcDbVertex
100
AcDb2dVertex
62
5
10
168.500000
20
338.062500
0
VERTEX
5
2f5
100
AcDbEntity
8
1
100
AcDbVertex
100
AcDb2dVertex
62
5
10
168.500000
20
330.250000
0
VERTEX
5
2f6
100
AcDbEntity
8
1
100
AcDbVertex
100
AcDb2dVertex
62
5
10
168.000000
20
329.625000
0
VERTEX
5
2f7
100
AcDbEntity
8
1
100
AcDbVertex
100
AcDb2dVertex
62
5
10
167.500000
20
329.625000
0
SEQEND
5
2f8
100
AcDbEntity
8
1
0
LINE
5
2f9
100
AcDbEntity
8
1
100
AcDbLine
6
CONTINUOUS
62
5
10
167.500000
20
333.062500
11
169.250000
21
334.312500
0
LINE
5
2fa
100
AcDbEntity
8
1
100
AcDbLine
6
CONTINUOUS
62
5
10
170.000000
20
337.125000
11
174.000000
21
337.125000
0
LINE
5
2fb
100
AcDbEntity
8
1
100
AcDbLine
6
CONTINUOUS
62
5
10
169.750000
20
334.937500
11
174.250000
21
334.937500
0
LINE
5
2fc
100
AcDbEntity
8
1
100
AcDbLine
6
CONTINUOUS
62
5
10
170.750000
20
337.125000
11
171.500000
21
334.937500
0
LINE
5
2fd
100
AcDbEntity
8
1
100
AcDbLine
6
CONTINUOUS
62
5
10
172.500000
20
334.937500
11
173.250000
21
337.125000
0
LINE
5
2fe
100
AcDbEntity
8
1
100
AcDbLine
6
CONTINUOUS
62
5
10
172.000000
20
337.125000
11
172.000000
21
338.375000
0
POLYLINE
5
2ff
100
AcDbEntity
8
1
6
CONTINUOUS
62
5
100
AcDb2dPolyline
66
1
10
0.0
20
0.0
30
0.0
70
0
0
VERTEX
5
300
100
AcDbEntity
8
1
100
AcDbVertex
100
AcDb2dVertex
62
5
10
172.000000
20
334.937500
0
VERTEX
5
301
100
AcDbEntity
8
1
100
AcDbVertex
100
AcDb2dVertex
62
5
10
170.750000
20
331.812500
0
VERTEX
5
302
100
AcDbEntity
8
1
100
AcDbVertex
100
AcDb2dVertex
62
5
10
172.250000
20
331.500000
0
VERTEX
5
303
100
AcDbEntity
8
1
100
AcDbVertex
100
AcDb2dVertex
62
5
10
173.500000
20
330.875000
0
VERTEX
5
304
100
AcDbEntity
8
1
100
AcDbVertex
100
AcDb2dVertex
62
5
10
174.250000
20
329.937500
0
SEQEND
5
305
100
AcDbEntity
8
1
0
POLYLINE
5
306
100
AcDbEntity
8
1
6
CONTINUOUS
62
5
100
AcDb2dPolyline
66
1
10
0.0
20
0.0
30
0.0
70
0
0
VERTEX
5
307
100
AcDbEntity
8
1
100
AcDbVertex
100
AcDb2dVertex
62
5
10
173.000000
20
333.375000
0
VERTEX
5
308
100
AcDbEntity
8
1
100
AcDbVertex
100
AcDb2dVertex
62
5
10
172.250000
20
331.500000
0
VERTEX
5
309
100
AcDbEntity
8
1
100
AcDbVertex
100
AcDb2dVertex
62
5
10
171.500000
20
330.250000
0
VERTEX
5
30a
100
AcDbEntity
8
1
100
AcDbVertex
100
AcDb2dVertex
62
5
10
170.750000
20
329.937500
0
VERTEX
5
30b
100
AcDbEntity
8
1
100
AcDbVertex
100
AcDb2dVertex
62
5
10
170.000000
20
329.937500
0
SEQEND
5
30c
100
AcDbEntity
8
1
0
LINE
5
30d
100
AcDbEntity
8
1
100
AcDbLine
6
CONTINUOUS
62
5
10
170.000000
20
333.375000
11
174.250000
21
333.375000
0
LINE
5
30e
100
AcDbEntity
8
1
100
AcDbLine
6
CONTINUOUS
62
5
10
10.000000
20
318.000000
11
330.000000
21
318.000000
0
POLYLINE
5
30f
100
AcDbEntity
8
1
6
DOT2
62
5
100
AcDb2dPolyline
66
1
10
0.0
20
0.0
30
0.0
70
0
0
VERTEX
5
310
100
AcDbEntity
8
1
100
AcDbVertex
100
AcDb2dVertex
62
5
10
244.875000
20
160.625093
0
VERTEX
5
311
100
AcDbEntity
8
1
100
AcDbVertex
100
AcDb2dVertex
62
5
10
244.250000
20
161.562593
0
VERTEX
5
312
100
AcDbEntity
8
1
100
AcDbVertex
100
AcDb2dVertex
62
5
10
251.750000
20
161.562593
0
SEQEND
5
313
100
AcDbEntity
8
1
0
LINE
5
314
100
AcDbEntity
8
1
100
AcDbLine
6
DOT2
62
5
10
251.750000
20
160.937593
11
251.750000
21
162.187593
0
ARC
5
315
100
AcDbEntity
8
1
100
AcDbCircle
6
CONTINUOUS
62
5
10
226.000000
20
177.259174
40
0.500000
100
AcDbArc
50
0.000000
51
88.939088
0
LINE
5
316
100
AcDbEntity
8
1
100
AcDbLine
6
CONTINUOUS
62
5
10
226.009258
20
177.759088
11
225.300000
21
177.772222
0
LINE
5
317
100
AcDbEntity
8
1
100
AcDbLine
6
CONTINUOUS
62
5
10
227.500000
20
169.184000
11
227.367340
21
169.226186
0
LINE
5
318
100
AcDbEntity
8
1
100
AcDbLine
6
CONTINUOUS
62
5
10
227.500000
20
168.912000
11
227.107379
21
169.078471
0
LINE
5
319
100
AcDbEntity
8
1
100
AcDbLine
6
CONTINUOUS
62
5
10
227.500000
20
168.640000
11
226.840994
21
168.989273
0
LINE
5
31a
100
AcDbEntity
8
1
100
AcDbLine
6
CONTINUOUS
62
5
10
227.500000
20
168.096000
11
226.500000
21
168.838000
0
LINE
5
31b
100
AcDbEntity
8
1
100
AcDbLine
6
CONTINUOUS
62
5
10
227.500000
20
167.824000
11
226.500000
21
168.672000
0
LINE
5
31c
100
AcDbEntity
8
1
100
AcDbLine
6
CONTINUOUS
62
5
10
227.500000
20
168.368000
11
226.581428
21
168.952212
0
LINE
5
31d
100
AcDbEntity
8
1
100
AcDbLine
6
CONTINUOUS
62
5
10
227.500000
20
169.331966
11
227.500000
21
167.500000
0
POLYLINE
5
31e
100
AcDbEntity
8
1
6
CONTINUOUS
62
5
100
AcDb2dPolyline
66
1
10
0.0
20
0.0
30
0.0
70
0
0
VERTEX
5
31f
100
AcDbEntity
8
1
100
AcDbVertex
100
AcDb2dVertex
62
5
10
227.800000
20
169.701669
0
VERTEX
5
320
100
AcDbEntity
8
1
100
AcDbVertex
100
AcDb2dVertex
62
5
10
227.800000
20
167.500000
0
VERTEX
5
321
100
AcDbEntity
8
1
100
AcDbVertex
100
AcDb2dVertex
62
5
10
227.500000
20
167.500000
0
VERTEX
5
322
100
AcDbEntity
8
1
100
AcDbVertex
100
AcDb2dVertex
62
5
10
226.500000
20
168.500000
0
VERTEX
5
323
100
AcDbEntity
8
1
100
AcDbVertex
100
AcDb2dVertex
62
5
10
226.500000
20
168.950000
0
SEQEND
5
324
100
AcDbEntity
8
1
0
ARC
5
325
100
AcDbEntity
8
1
100
AcDbCircle
6
CONTINUOUS
62
5
10
226.500000
20
170.450000
40
1.500000
100
AcDbArc
50
-89.999999
51
0.000000
0
LINE
5
326
100
AcDbEntity
8
1
100
AcDbLine
6
CONTINUOUS
62
5
10
226.500000
20
168.950000
11
226.500000
21
168.950000
0
LINE
5
327
100
AcDbEntity
8
1
100
AcDbLine
6
CONTINUOUS
62
5
10
226.500000
20
172.950000
11
226.500000
21
172.950000
0
ARC
5
328
100
AcDbEntity
8
1
100
AcDbCircle
6
CONTINUOUS
62
5
10
226.500000
20
171.450000
40
1.500000
100
AcDbArc
50
0.000000
51
89.999999
0
LINE
5
329
100
AcDbEntity
8
1
100
AcDbLine
6
CONTINUOUS
62
5
10
228.000000
20
171.450000
11
228.000000
21
170.450000
0
LINE
5
32a
100
AcDbEntity
8
1
100
AcDbLine
6
CONTINUOUS
62
5
10
227.500000
20
159.132000
11
227.213836
21
158.950000
0
LINE
5
32b
100
AcDbEntity
8
1
100
AcDbLine
6
CONTINUOUS
62
5
10
227.500000
20
159.404000
11
226.888140
21
158.950000
0
LINE
5
32c
100
AcDbEntity
8
1
100
AcDbLine
6
CONTINUOUS
62
5
10
227.500000
20
159.676000
11
226.643868
21
158.950000
0
LINE
5
32d
100
AcDbEntity
8
1
100
AcDbLine
6
CONTINUOUS
62
5
10
227.500000
20
160.000000
11
227.500000
21
158.950000
0
POLYLINE
5
32e
100
AcDbEntity
8
1
6
CONTINUOUS
62
5
100
AcDb2dPolyline
66
1
10
0.0
20
0.0
30
0.0
70
0
0
VERTEX
5
32f
100
AcDbEntity
8
1
100
AcDbVertex
100
AcDb2dVertex
62
5
10
227.800000
20
158.850000
0
VERTEX
5
330
100
AcDbEntity
8
1
100
AcDbVertex
100
AcDb2dVertex
62
5
10
227.800000
20
160.000000
0
VERTEX
5
331
100
AcDbEntity
8
1
100
AcDbVertex
100
AcDb2dVertex
62
5
10
227.500000
20
160.000000
0
VERTEX
5
332
100
AcDbEntity
8
1
100
AcDbVertex
100
AcDb2dVertex
62
5
10
226.500000
20
159.000000
0
VERTEX
5
333
100
AcDbEntity
8
1
100
AcDbVertex
100
AcDb2dVertex
62
5
10
226.500000
20
158.950000
0
SEQEND
5
334
100
AcDbEntity
8
1
0
ARC
5
335
100
AcDbEntity
8
1
100
AcDbCircle
6
CONTINUOUS
62
5
10
224.800000
20
178.381396
40
0.500000
100
AcDbArc
50
0.000000
51
88.939088
0
LINE
5
336
100
AcDbEntity
8
1
100
AcDbLine
6
CONTINUOUS
62
5
10
225.300000
20
178.381396
11
225.300000
21
175.000000
0
LINE
5
337
100
AcDbEntity
8
1
100
AcDbLine
6
CONTINUOUS
62
5
10
213.000000
20
179.100000
11
224.809258
21
178.881310
0
POLYLINE
5
338
100
AcDbEntity
8
1
6
CONTINUOUS
62
5
100
AcDb2dPolyline
66
1
10
0.0
20
0.0
30
0.0
70
0
0
VERTEX
5
339
100
AcDbEntity
8
1
100
AcDbVertex
100
AcDb2dVertex
62
5
10
217.190099
20
151.008860
0
VERTEX
5
33a
100
AcDbEntity
8
1
100
AcDbVertex
100
AcDb2dVertex
62
5
10
216.086681
20
151.233560
0
VERTEX
5
33b
100
AcDbEntity
8
1
100
AcDbVertex
100
AcDb2dVertex
62
5
10
216.965399
20
151.233560
0
SEQEND
5
33c
100
AcDbEntity
8
1
0
ARC
5
33d
100
AcDbEntity
8
1
100
AcDbCircle
6
CONTINUOUS
62
5
10
218.100000
20
150.700000
40
1.203285
100
AcDbArc
50
162.714405
51
-162.714414
0
ARC
5
33e
100
AcDbEntity
8
1
100
AcDbCircle
6
CONTINUOUS
62
5
10
218.100000
20
150.700000
40
2.082820
100
AcDbArc
50
165.156960
51
-165.156984
0
POLYLINE
5
33f
100
AcDbEntity
8
1
6
CONTINUOUS
62
5
100
AcDb2dPolyline
66
1
10
0.0
20
0.0
30
0.0
70
0
0
VERTEX
5
340
100
AcDbEntity
8
1
100
AcDbVertex
100
AcDb2dVertex
62
5
10
217.190099
20
150.391140
0
VERTEX
5
341
100
AcDbEntity
8
1
100
AcDbVertex
100
AcDb2dVertex
62
5
10
216.086681
20
150.166441
0
VERTEX
5
342
100
AcDbEntity
8
1
100
AcDbVertex
100
AcDb2dVertex
62
5
10
216.965400
20
150.166441
0
SEQEND
5
343
100
AcDbEntity
8
1
0
POLYLINE
5
344
100
AcDbEntity
8
1
6
CONTINUOUS
62
5
100
AcDb2dPolyline
66
1
10
0.0
20
0.0
30
0.0
70
0
0
VERTEX
5
345
100
AcDbEntity
8
1
100
AcDbVertex
100
AcDb2dVertex
62
5
10
216.539885
20
139.267662
0
VERTEX
5
346
100
AcDbEntity
8
1
100
AcDbVertex
100
AcDb2dVertex
62
5
10
216.908734
20
139.267662
0
VERTEX
5
347
100
AcDbEntity
8
1
100
AcDbVertex
100
AcDb2dVertex
62
5
10
217.064797
20
140.750000
0
SEQEND
5
348
100
AcDbEntity
8
1
0
LINE
5
349
100
AcDbEntity
8
1
100
AcDbLine
6
CONTINUOUS
62
5
10
218.533073
20
152.219865
11
218.535897
21
152.233735
0
LINE
5
34a
100
AcDbEntity
8
1
100
AcDbLine
6
CONTINUOUS
62
5
10
218.533073
20
149.180135
11
218.535897
21
149.166265
0
LINE
5
34b
100
AcDbEntity
8
1
100
AcDbLine
6
CONTINUOUS
62
5
10
218.408860
20
149.790099
11
218.533073
21
149.180135
0
LINE
5
34c
100
AcDbEntity
8
1
100
AcDbLine
6
CONTINUOUS
62
5
10
218.600000
20
146.875104
11
218.600000
21
149.185949
0
LINE
5
34d
100
AcDbEntity
8
1
100
AcDbLine
6
CONTINUOUS
62
5
10
218.408860
20
151.609901
11
218.533073
21
152.219865
0
POLYLINE
5
34e
100
AcDbEntity
8
1
6
CONTINUOUS
62
5
100
AcDb2dPolyline
66
1
10
0.0
20
0.0
30
0.0
70
1
0
VERTEX
5
34f
100
AcDbEntity
8
1
100
AcDbVertex
100
AcDb2dVertex
62
5
10
219.009901
20
150.391140
0
VERTEX
5
350
100
AcDbEntity
8
1
100
AcDbVertex
100
AcDb2dVertex
62
5
10
218.600000
20
150.200000
0
VERTEX
5
351
100
AcDbEntity
8
1
100
AcDbVertex
100
AcDb2dVertex
62
5
10
218.408860
20
149.790099
0
VERTEX
5
352
100
AcDbEntity
8
1
100
AcDbVertex
100
AcDb2dVertex
62
5
10
218.633559
20
149.565400
0
VERTEX
5
353
100
AcDbEntity
8
1
100
AcDbVertex
100
AcDb2dVertex
62
5
10
218.811584
20
149.988416
0
VERTEX
5
354
100
AcDbEntity
8
1
100
AcDbVertex
100
AcDb2dVertex
62
5
10
219.234601
20
150.166440
0
VERTEX
5
355
100
AcDbEntity
8
1
100
AcDbVertex
100
AcDb2dVertex
62
5
10
219.009901
20
150.391140
0
SEQEND
5
356
100
AcDbEntity
8
1
0
POLYLINE
5
357
100
AcDbEntity
8
1
6
CONTINUOUS
62
5
100
AcDb2dPolyline
66
1
10
0.0
20
0.0
30
0.0
70
1
0
VERTEX
5
358
100
AcDbEntity
8
1
100
AcDbVertex
100
AcDb2dVertex
62
5
10
218.408860
20
151.609901
0
VERTEX
5
359
100
AcDbEntity
8
1
100
AcDbVertex
100
AcDb2dVertex
62
5
10
218.600000
20
151.200000
0
VERTEX
5
35a
100
AcDbEntity
8
1
100
AcDbVertex
100
AcDb2dVertex
62
5
10
219.009901
20
151.008860
0
VERTEX
5
35b
100
AcDbEntity
8
1
100
AcDbVertex
100
AcDb2dVertex
62
5
10
219.234600
20
151.233559
0
VERTEX
5
35c
100
AcDbEntity
8
1
100
AcDbVertex
100
AcDb2dVertex
62
5
10
218.811584
20
151.411584
0
VERTEX
5
35d
100
AcDbEntity
8
1
100
AcDbVertex
100
AcDb2dVertex
62
5
10
218.633560
20
151.834601
0
VERTEX
5
35e
100
AcDbEntity
8
1
100
AcDbVertex
100
AcDb2dVertex
62
5
10
218.408860
20
151.609901
0
SEQEND
5
35f
100
AcDbEntity
8
1
0
ARC
5
360
100
AcDbEntity
8
1
100
AcDbCircle
6
CONTINUOUS
62
5
10
218.100000
20
150.700000
40
2.082820
100
AcDbArc
50
-14.843038
51
14.843014
0
POLYLINE
5
361
100
AcDbEntity
8
1
6
CONTINUOUS
62
5
100
AcDb2dPolyline
66
1
10
0.0
20
0.0
30
0.0
70
0
0
VERTEX
5
362
100
AcDbEntity
8
1
100
AcDbVertex
100
AcDb2dVertex
62
5
10
219.009901
20
151.008860
0
VERTEX
5
363
100
AcDbEntity
8
1
100
AcDbVertex
100
AcDb2dVertex
62
5
10
220.113319
20
151.233559
0
VERTEX
5
364
100
AcDbEntity
8
1
100
AcDbVertex
100
AcDb2dVertex
62
5
10
219.234600
20
151.233559
0
SEQEND
5
365
100
AcDbEntity
8
1
0
ARC
5
366
100
AcDbEntity
8
1
100
AcDbCircle
6
CONTINUOUS
62
5
10
218.100000
20
150.700000
40
1.203285
100
AcDbArc
50
-17.285593
51
17.285584
0
POLYLINE
5
367
100
AcDbEntity
8
1
6
CONTINUOUS
62
5
100
AcDb2dPolyline
66
1
10
0.0
20
0.0
30
0.0
70
0
0
VERTEX
5
368
100
AcDbEntity
8
1
100
AcDbVertex
100
AcDb2dVertex
62
5
10
219.009901
20
150.391140
0
VERTEX
5
369
100
AcDbEntity
8
1
100
AcDbVertex
100
AcDb2dVertex
62
5
10
220.113319
20
150.166440
0
VERTEX
5
36a
100
AcDbEntity
8
1
100
AcDbVertex
100
AcDb2dVertex
62
5
10
219.234601
20
150.166440
0
SEQEND
5
36b
100
AcDbEntity
8
1
0
LINE
5
36c
100
AcDbEntity
8
1
100
AcDbLine
6
CONTINUOUS
62
5
10
224.500000
20
149.394107
11
224.500000
21
146.005893
0
LINE
5
36d
100
AcDbEntity
8
1
100
AcDbLine
6
CONTINUOUS
62
5
10
218.600000
20
152.214051
11
218.600000
21
154.588975
0
LINE
5
36e
100
AcDbEntity
8
1
100
AcDbLine
6
CONTINUOUS
62
5
10
224.500000
20
155.394107
11
224.500000
21
152.005893
0
ARC
5
36f
100
AcDbEntity
8
1
100
AcDbCircle
6
CONTINUOUS
62
5
10
218.100000
20
150.700000
40
3.750000
100
AcDbArc
50
-0.000000
51
82.337744
0
LINE
5
370
100
AcDbEntity
8
1
100
AcDbLine
6
CONTINUOUS
62
5
10
221.850000
20
150.700000
11
221.850000
21
150.700000
0
ARC
5
371
100
AcDbEntity
8
1
100
AcDbCircle
6
CONTINUOUS
62
5
10
218.100000
20
150.700000
40
3.750000
100
AcDbArc
50
-82.337744
51
0.000000
0
LINE
5
372
100
AcDbEntity
8
1
100
AcDbLine
6
CONTINUOUS
62
5
10
222.500000
20
155.700000
11
222.500000
21
145.700000
0
LINE
5
373
100
AcDbEntity
8
1
100
AcDbLine
6
CONTINUOUS
62
5
10
220.541071
20
139.267662
11
221.194777
21
140.750000
0
POLYLINE
5
374
100
AcDbEntity
8
1
6
CONTINUOUS
62
5
100
AcDb2dPolyline
66
1
10
0.0
20
0.0
30
0.0
70
0
0
VERTEX
5
375
100
AcDbEntity
8
1
100
AcDbVertex
100
AcDb2dVertex
62
5
10
224.060115
20
139.267662
0
VERTEX
5
376
100
AcDbEntity
8
1
100
AcDbVertex
100
AcDb2dVertex
62
5
10
223.691266
20
139.267662
0
VERTEX
5
377
100
AcDbEntity
8
1
100
AcDbVertex
100
AcDb2dVertex
62
5
10
223.535203
20
140.750000
0
SEQEND
5
378
100
AcDbEntity
8
1
0
POLYLINE
5
379
100
AcDbEntity
8
1
6
CONTINUOUS
62
5
100
AcDb2dPolyline
66
1
10
0.0
20
0.0
30
0.0
70
0
0
VERTEX
5
37a
100
AcDbEntity
8
1
100
AcDbVertex
100
AcDb2dVertex
62
5
10
224.060115
20
139.267662
0
VERTEX
5
37b
100
AcDbEntity
8
1
100
AcDbVertex
100
AcDb2dVertex
62
5
10
223.691266
20
139.267662
0
VERTEX
5
37c
100
AcDbEntity
8
1
100
AcDbVertex
100
AcDb2dVertex
62
5
10
223.535203
20
140.750000
0
SEQEND
5
37d
100
AcDbEntity
8
1
0
POLYLINE
5
37e
100
AcDbEntity
8
1
6
CONTINUOUS
62
5
100
AcDb2dPolyline
66
1
10
0.0
20
0.0
30
0.0
70
0
0
VERTEX
5
37f
100
AcDbEntity
8
1
100
AcDbVertex
100
AcDb2dVertex
62
5
10
219.405223
20
140.750000
0
VERTEX
5
380
100
AcDbEntity
8
1
100
AcDbVertex
100
AcDb2dVertex
62
5
10
220.058929
20
139.267662
0
VERTEX
5
381
100
AcDbEntity
8
1
100
AcDbVertex
100
AcDb2dVertex
62
5
10
220.541071
20
139.267662
0
VERTEX
5
382
100
AcDbEntity
8
1
100
AcDbVertex
100
AcDb2dVertex
62
5
10
221.194777
20
140.750000
0
SEQEND
5
383
100
AcDbEntity
8
1
0
ARC
5
384
100
AcDbEntity
8
1
100
AcDbCircle
6
CONTINUOUS
62
5
10
227.500000
20
155.394107
40
0.500000
100
AcDbArc
50
-89.999999
51
0.000000
0
LINE
5
385
100
AcDbEntity
8
1
100
AcDbLine
6
CONTINUOUS
62
5
10
228.000000
20
155.394107
11
228.000000
21
155.394107
0
LINE
5
386
100
AcDbEntity
8
1
100
AcDbLine
6
CONTINUOUS
62
5
10
224.500000
20
154.894107
11
227.500000
21
154.894107
0
ARC
5
387
100
AcDbEntity
8
1
100
AcDbCircle
6
CONTINUOUS
62
5
10
227.500000
20
149.394107
40
0.500000
100
AcDbArc
50
-89.999999
51
0.000000
0
LINE
5
388
100
AcDbEntity
8
1
100
AcDbLine
6
CONTINUOUS
62
5
10
228.000000
20
149.394107
11
228.000000
21
149.394107
0
LINE
5
389
100
AcDbEntity
8
1
100
AcDbLine
6
CONTINUOUS
62
5
10
224.500000
20
148.894107
11
227.500000
21
148.894107
0
ARC
5
38a
100
AcDbEntity
8
1
100
AcDbCircle
6
CONTINUOUS
62
5
10
227.500000
20
152.005893
40
0.500000
100
AcDbArc
50
0.000000
51
89.999999
0
LINE
5
38b
100
AcDbEntity
8
1
100
AcDbLine
6
CONTINUOUS
62
5
10
228.000000
20
152.005893
11
228.000000
21
152.005893
0
LINE
5
38c
100
AcDbEntity
8
1
100
AcDbLine
6
CONTINUOUS
62
5
10
224.500000
20
152.505893
11
227.500000
21
152.505893
0
ARC
5
38d
100
AcDbEntity
8
1
100
AcDbCircle
6
CONTINUOUS
62
5
10
227.500000
20
146.005893
40
0.500000
100
AcDbArc
50
0.000000
51
89.999999
0
LINE
5
38e
100
AcDbEntity
8
1
100
AcDbLine
6
CONTINUOUS
62
5
10
228.000000
20
146.005893
11
228.000000
21
146.005893
0
LINE
5
38f
100
AcDbEntity
8
1
100
AcDbLine
6
CONTINUOUS
62
5
10
224.500000
20
146.505893
11
227.500000
21
146.505893
0
ARC
5
390
100
AcDbEntity
8
1
100
AcDbCircle
6
CONTINUOUS
62
5
10
222.116168
20
145.718777
40
6.640619
100
AcDbArc
50
-103.720832
51
-76.279167
0
LINE
5
391
100
AcDbEntity
8
1
100
AcDbLine
6
CONTINUOUS
62
5
10
217.664102
20
152.233735
11
217.666927
21
152.219865
0
ARC
5
392
100
AcDbEntity
8
1
100
AcDbCircle
6
CONTINUOUS
62
5
10
218.100000
20
150.700000
40
1.203285
100
AcDbArc
50
-107.285593
51
-72.714415
0
POLYLINE
5
393
100
AcDbEntity
8
1
6
CONTINUOUS
62
5
100
AcDb2dPolyline
66
1
10
0.0
20
0.0
30
0.0
70
0
0
VERTEX
5
394
100
AcDbEntity
8
1
100
AcDbVertex
100
AcDb2dVertex
62
5
10
217.791140
20
149.790099
0
VERTEX
5
395
100
AcDbEntity
8
1
100
AcDbVertex
100
AcDb2dVertex
62
5
10
217.666927
20
149.180135
0
VERTEX
5
396
100
AcDbEntity
8
1
100
AcDbVertex
100
AcDb2dVertex
62
5
10
217.666927
20
149.180135
0
VERTEX
5
397
100
AcDbEntity
8
1
100
AcDbVertex
100
AcDb2dVertex
62
5
10
217.664102
20
149.166265
0
SEQEND
5
398
100
AcDbEntity
8
1
0
ARC
5
399
100
AcDbEntity
8
1
100
AcDbCircle
6
CONTINUOUS
62
5
10
218.100000
20
150.700000
40
1.594475
100
AcDbArc
50
-109.550071
51
-70.449928
0
LINE
5
39a
100
AcDbEntity
8
1
100
AcDbLine
6
CONTINUOUS
62
5
10
218.633560
20
149.197447
11
218.633560
21
149.565402
0
LINE
5
39b
100
AcDbEntity
8
1
100
AcDbLine
6
CONTINUOUS
62
5
10
217.566440
20
149.565399
11
217.566440
21
149.197447
0
ARC
5
39c
100
AcDbEntity
8
1
100
AcDbCircle
6
CONTINUOUS
62
5
10
218.100000
20
150.732039
40
3.889210
100
AcDbArc
50
-97.386434
51
-82.613564
0
LINE
5
39d
100
AcDbEntity
8
1
100
AcDbLine
6
CONTINUOUS
62
5
10
217.600000
20
149.185949
11
217.600000
21
146.875104
0
POLYLINE
5
39e
100
AcDbEntity
8
1
6
CONTINUOUS
62
5
100
AcDb2dPolyline
66
1
10
0.0
20
0.0
30
0.0
70
1
0
VERTEX
5
39f
100
AcDbEntity
8
1
100
AcDbVertex
100
AcDb2dVertex
62
5
10
217.791140
20
149.790099
0
VERTEX
5
3a0
100
AcDbEntity
8
1
100
AcDbVertex
100
AcDb2dVertex
62
5
10
217.600000
20
150.200000
0
VERTEX
5
3a1
100
AcDbEntity
8
1
100
AcDbVertex
100
AcDb2dVertex
62
5
10
217.190099
20
150.391140
0
VERTEX
5
3a2
100
AcDbEntity
8
1
100
AcDbVertex
100
AcDb2dVertex
62
5
10
216.965400
20
150.166441
0
VERTEX
5
3a3
100
AcDbEntity
8
1
100
AcDbVertex
100
AcDb2dVertex
62
5
10
217.388416
20
149.988416
0
VERTEX
5
3a4
100
AcDbEntity
8
1
100
AcDbVertex
100
AcDb2dVertex
62
5
10
217.566440
20
149.565399
0
VERTEX
5
3a5
100
AcDbEntity
8
1
100
AcDbVertex
100
AcDb2dVertex
62
5
10
217.791140
20
149.790099
0
SEQEND
5
3a6
100
AcDbEntity
8
1
0
LINE
5
3a7
100
AcDbEntity
8
1
100
AcDbLine
6
CONTINUOUS
62
5
10
217.791140
20
151.609901
11
217.666927
21
152.219865
0
ARC
5
3a8
100
AcDbEntity
8
1
100
AcDbCircle
6
CONTINUOUS
62
5
10
218.100000
20
150.700000
40
1.203285
100
AcDbArc
50
72.714415
51
107.285593
0
POLYLINE
5
3a9
100
AcDbEntity
8
1
6
CONTINUOUS
62
5
100
AcDb2dPolyline
66
1
10
0.0
20
0.0
30
0.0
70
1
0
VERTEX
5
3aa
100
AcDbEntity
8
1
100
AcDbVertex
100
AcDb2dVertex
62
5
10
217.190099
20
151.008860
0
VERTEX
5
3ab
100
AcDbEntity
8
1
100
AcDbVertex
100
AcDb2dVertex
62
5
10
217.600000
20
151.200000
0
VERTEX
5
3ac
100
AcDbEntity
8
1
100
AcDbVertex
100
AcDb2dVertex
62
5
10
217.791140
20
151.609901
0
VERTEX
5
3ad
100
AcDbEntity
8
1
100
AcDbVertex
100
AcDb2dVertex
62
5
10
217.566441
20
151.834600
0
VERTEX
5
3ae
100
AcDbEntity
8
1
100
AcDbVertex
100
AcDb2dVertex
62
5
10
217.388416
20
151.411584
0
VERTEX
5
3af
100
AcDbEntity
8
1
100
AcDbVertex
100
AcDb2dVertex
62
5
10
216.965399
20
151.233560
0
VERTEX
5
3b0
100
AcDbEntity
8
1
100
AcDbVertex
100
AcDb2dVertex
62
5
10
217.190099
20
151.008860
0
SEQEND
5
3b1
100
AcDbEntity
8
1
0
ARC
5
3b2
100
AcDbEntity
8
1
100
AcDbCircle
6
CONTINUOUS
62
5
10
218.100000
20
150.700000
40
1.594475
100
AcDbArc
50
70.449928
51
109.550071
0
LINE
5
3b3
100
AcDbEntity
8
1
100
AcDbLine
6
CONTINUOUS
62
5
10
218.633560
20
152.202553
11
218.633560
21
151.834598
0
LINE
5
3b4
100
AcDbEntity
8
1
100
AcDbLine
6
CONTINUOUS
62
5
10
217.566440
20
151.834601
11
217.566440
21
152.202553
0
ARC
5
3b5
100
AcDbEntity
8
1
100
AcDbCircle
6
CONTINUOUS
62
5
10
218.100000
20
150.700000
40
3.750000
100
AcDbArc
50
179.999998
51
-97.662255
0
ARC
5
3b6
100
AcDbEntity
8
1
100
AcDbCircle
6
CONTINUOUS
62
5
10
218.100000
20
150.732039
40
3.889210
100
AcDbArc
50
82.613564
51
97.386434
0
LINE
5
3b7
100
AcDbEntity
8
1
100
AcDbLine
6
CONTINUOUS
62
5
10
217.600000
20
154.588975
11
217.600000
21
154.588975
0
LINE
5
3b8
100
AcDbEntity
8
1
100
AcDbLine
6
CONTINUOUS
62
5
10
217.600000
20
154.588975
11
217.600000
21
152.214051
0
ARC
5
3b9
100
AcDbEntity
8
1
100
AcDbCircle
6
CONTINUOUS
62
5
10
218.100000
20
150.700000
40
3.750000
100
AcDbArc
50
97.662255
51
-179.999998
0
ARC
5
3ba
100
AcDbEntity
8
1
100
AcDbCircle
6
CONTINUOUS
62
5
10
218.483832
20
145.718777
40
6.640619
100
AcDbArc
50
-103.720832
51
-76.279167
0
ARC
5
3bb
100
AcDbEntity
8
1
100
AcDbCircle
6
CONTINUOUS
62
5
10
220.300000
20
147.250000
40
9.000000
100
AcDbArc
50
-114.340646
51
-65.659353
0
POLYLINE
5
3bc
100
AcDbEntity
8
1
6
CONTINUOUS
62
5
100
AcDb2dPolyline
66
1
10
0.0
20
0.0
30
0.0
70
0
0
VERTEX
5
3bd
100
AcDbEntity
8
1
100
AcDbVertex
100
AcDb2dVertex
62
5
10
224.009447
20
139.050000
0
VERTEX
5
3be
100
AcDbEntity
8
1
100
AcDbVertex
100
AcDb2dVertex
62
5
10
224.405176
20
140.750000
0
VERTEX
5
3bf
100
AcDbEntity
8
1
100
AcDbVertex
100
AcDb2dVertex
62
5
10
216.194824
20
140.750000
0
VERTEX
5
3c0
100
AcDbEntity
8
1
100
AcDbVertex
100
AcDb2dVertex
62
5
10
216.590553
20
139.050000
0
SEQEND
5
3c1
100
AcDbEntity
8
1
0
ARC
5
3c2
100
AcDbEntity
8
1
100
AcDbCircle
6
CONTINUOUS
62
5
10
218.100000
20
150.700000
40
4.250000
100
AcDbArc
50
0.000000
51
179.999998
0
ARC
5
3c3
100
AcDbEntity
8
1
100
AcDbCircle
6
CONTINUOUS
62
5
10
218.100000
20
150.700000
40
4.250000
100
AcDbArc
50
-179.999998
51
-0.000000
0
ARC
5
3c4
100
AcDbEntity
8
1
100
AcDbCircle
6
CONTINUOUS
62
5
10
226.000000
20
141.640826
40
0.500000
100
AcDbArc
50
-88.939088
51
0.000000
0
LINE
5
3c5
100
AcDbEntity
8
1
100
AcDbLine
6
CONTINUOUS
62
5
10
226.009258
20
141.140912
11
213.000000
21
140.900000
0
LINE
5
3c6
100
AcDbEntity
8
1
100
AcDbLine
6
CONTINUOUS
62
5
10
226.500000
20
144.450000
11
226.500000
21
141.640826
0
ARC
5
3c7
100
AcDbEntity
8
1
100
AcDbCircle
6
CONTINUOUS
62
5
10
227.500000
20
156.200000
40
0.500000
100
AcDbArc
50
-89.999999
51
0.000000
0
LINE
5
3c8
100
AcDbEntity
8
1
100
AcDbLine
6
CONTINUOUS
62
5
10
213.000000
20
155.700000
11
227.500000
21
155.700000
0
ARC
5
3c9
100
AcDbEntity
8
1
100
AcDbCircle
6
CONTINUOUS
62
5
10
227.500000
20
156.700000
40
0.500000
100
AcDbArc
50
-89.999999
51
-0.000000
0
LINE
5
3ca
100
AcDbEntity
8
1
100
AcDbLine
6
CONTINUOUS
62
5
10
227.500000
20
156.200000
11
213.000000
21
156.200000
0
ARC
5
3cb
100
AcDbEntity
8
1
100
AcDbCircle
6
CONTINUOUS
62
5
10
227.500000
20
145.200000
40
0.500000
100
AcDbArc
50
0.000000
51
89.999999
0
LINE
5
3cc
100
AcDbEntity
8
1
100
AcDbLine
6
CONTINUOUS
62
5
10
213.000000
20
145.700000
11
227.500000
21
145.700000
0
ARC
5
3cd
100
AcDbEntity
8
1
100
AcDbCircle
6
CONTINUOUS
62
5
10
227.500000
20
144.700000
40
0.500000
100
AcDbArc
50
-0.000000
51
89.999999
0
LINE
5
3ce
100
AcDbEntity
8
1
100
AcDbLine
6
CONTINUOUS
62
5
10
227.500000
20
145.200000
11
213.000000
21
145.200000
0
POLYLINE
5
3cf
100
AcDbEntity
8
1
6
DOT2
62
5
100
AcDb2dPolyline
66
1
10
0.0
20
0.0
30
0.0
70
0
0
VERTEX
5
3d0
100
AcDbEntity
8
1
100
AcDbVertex
100
AcDb2dVertex
62
5
10
244.250000
20
157.500093
0
VERTEX
5
3d1
100
AcDbEntity
8
1
100
AcDbVertex
100
AcDb2dVertex
62
5
10
249.875000
20
154.687593
0
VERTEX
5
3d2
100
AcDbEntity
8
1
100
AcDbVertex
100
AcDb2dVertex
62
5
10
249.875000
20
158.437593
0
SEQEND
5
3d3
100
AcDbEntity
8
1
0
LINE
5
3d4
100
AcDbEntity
8
1
100
AcDbLine
6
DOT2
62
5
10
244.250000
20
157.500093
11
251.750000
21
157.500093
0
LINE
5
3d5
100
AcDbEntity
8
1
100
AcDbLine
6
DOT2
62
5
10
251.750000
20
156.875093
11
251.750000
21
158.125093
0
ARC
5
3d6
100
AcDbEntity
8
1
100
AcDbCircle
6
CONTINUOUS
62
5
10
227.500000
20
142.950000
40
0.500000
100
AcDbArc
50
-89.999999
51
0.000000
0
LINE
5
3d7
100
AcDbEntity
8
1
100
AcDbLine
6
CONTINUOUS
62
5
10
227.500000
20
142.450000
11
226.500000
21
142.450000
0
LINE
5
3d8
100
AcDbEntity
8
1
100
AcDbLine
6
CONTINUOUS
62
5
10
226.500000
20
158.950000
11
227.500000
21
158.950000
0
ARC
5
3d9
100
AcDbEntity
8
1
100
AcDbCircle
6
CONTINUOUS
62
5
10
227.500000
20
158.450000
40
0.500000
100
AcDbArc
50
0.000000
51
89.999999
0
LINE
5
3da
100
AcDbEntity
8
1
100
AcDbLine
6
CONTINUOUS
62
5
10
228.000000
20
158.450000
11
228.000000
21
142.950000
0
ARC
5
3db
100
AcDbEntity
8
1
100
AcDbCircle
6
CONTINUOUS
62
5
10
226.000000
20
178.359174
40
0.500000
100
AcDbArc
50
-0.000000
51
91.060911
0
LINE
5
3dc
100
AcDbEntity
8
1
100
AcDbLine
6
CONTINUOUS
62
5
10
225.990742
20
178.859088
11
224.947683
21
178.859088
0
LINE
5
3dd
100
AcDbEntity
8
1
100
AcDbLine
6
CONTINUOUS
62
5
10
226.500000
20
156.950000
11
226.500000
21
178.359174
0
LINE
5
3de
100
AcDbEntity
8
1
100
AcDbLine
6
CONTINUOUS
62
5
10
211.100000
20
179.250000
11
211.100000
21
179.100000
0
LINE
5
3df
100
AcDbEntity
8
1
100
AcDbLine
6
CONTINUOUS
62
5
10
211.100000
20
140.750000
11
211.100000
21
140.900000
0
ARC
5
3e0
100
AcDbEntity
8
1
100
AcDbCircle
6
CONTINUOUS
62
5
10
202.700000
20
176.550000
40
0.700000
100
AcDbArc
50
89.999999
51
179.999998
0
LINE
5
3e1
100
AcDbEntity
8
1
100
AcDbLine
6
CONTINUOUS
62
5
10
202.000000
20
176.550000
11
202.000000
21
143.450000
0
ARC
5
3e2
100
AcDbEntity
8
1
100
AcDbCircle
6
CONTINUOUS
62
5
10
202.700000
20
143.450000
40
0.700000
100
AcDbArc
50
-179.999998
51
-89.999999
0
LINE
5
3e3
100
AcDbEntity
8
1
100
AcDbLine
6
CONTINUOUS
62
5
10
202.700000
20
142.750000
11
208.000000
21
142.750000
0
LINE
5
3e4
100
AcDbEntity
8
1
100
AcDbLine
6
CONTINUOUS
62
5
10
208.000000
20
177.250000
11
202.700000
21
177.250000
0
ARC
5
3e5
100
AcDbEntity
8
1
100
AcDbCircle
6
CONTINUOUS
62
5
10
208.500000
20
141.400000
40
0.500000
100
AcDbArc
50
179.999998
51
-89.999999
0
POLYLINE
5
3e6
100
AcDbEntity
8
1
6
CONTINUOUS
62
5
100
AcDb2dPolyline
66
1
10
0.0
20
0.0
30
0.0
70
0
0
VERTEX
5
3e7
100
AcDbEntity
8
1
100
AcDbVertex
100
AcDb2dVertex
62
5
10
208.500000
20
140.900000
0
VERTEX
5
3e8
100
AcDbEntity
8
1
100
AcDbVertex
100
AcDb2dVertex
62
5
10
213.000000
20
140.900000
0
VERTEX
5
3e9
100
AcDbEntity
8
1
100
AcDbVertex
100
AcDb2dVertex
62
5
10
213.000000
20
179.100000
0
SEQEND
5
3ea
100
AcDbEntity
8
1
0
LINE
5
3eb
100
AcDbEntity
8
1
100
AcDbLine
6
CONTINUOUS
62
5
10
213.000000
20
179.100000
11
208.500000
21
179.100000
0
ARC
5
3ec
100
AcDbEntity
8
1
100
AcDbCircle
6
CONTINUOUS
62
5
10
208.500000
20
178.600000
40
0.500000
100
AcDbArc
50
89.999999
51
179.999998
0
LINE
5
3ed
100
AcDbEntity
8
1
100
AcDbLine
6
CONTINUOUS
62
5
10
208.000000
20
178.600000
11
208.000000
21
141.400000
0
ARC
5
3ee
100
AcDbEntity
8
1
100
AcDbCircle
6
CONTINUOUS
62
5
10
226.000000
20
174.500000
40
0.500000
100
AcDbArc
50
0.000000
51
89.999999
0
LINE
5
3ef
100
AcDbEntity
8
1
100
AcDbLine
6
CONTINUOUS
62
5
10
226.000000
20
175.000000
11
208.500000
21
175.000000
0
ARC
5
3f0
100
AcDbEntity
8
1
100
AcDbCircle
6
CONTINUOUS
62
5
10
208.500000
20
174.500000
40
0.500000
100
AcDbArc
50
89.999999
51
-179.999998
0
LINE
5
3f1
100
AcDbEntity
8
1
100
AcDbLine
6
CONTINUOUS
62
5
10
207.800000
20
124.000000
11
209.000000
21
124.000000
0
LINE
5
3f2
100
AcDbEntity
8
1
100
AcDbLine
6
CONTINUOUS
62
5
10
207.800000
20
115.000000
11
209.000000
21
115.000000
0
ARC
5
3f3
100
AcDbEntity
8
1
100
AcDbCircle
6
CONTINUOUS
62
5
10
209.000000
20
140.750000
40
1.200000
100
AcDbArc
50
146.442689
51
-179.999998
0
POLYLINE
5
3f4
100
AcDbEntity
8
1
6
CONTINUOUS
62
5
100
AcDb2dPolyline
66
1
10
0.0
20
0.0
30
0.0
70
0
0
VERTEX
5
3f5
100
AcDbEntity
8
1
100
AcDbVertex
100
AcDb2dVertex
62
5
10
207.800000
20
140.750000
0
VERTEX
5
3f6
100
AcDbEntity
8
1
100
AcDbVertex
100
AcDb2dVertex
62
5
10
207.800000
20
113.000000
0
VERTEX
5
3f7
100
AcDbEntity
8
1
100
AcDbVertex
100
AcDb2dVertex
62
5
10
209.000000
20
113.000000
0
VERTEX
5
3f8
100
AcDbEntity
8
1
100
AcDbVertex
100
AcDb2dVertex
62
5
10
209.000000
20
140.750000
0
VERTEX
5
3f9
100
AcDbEntity
8
1
100
AcDbVertex
100
AcDb2dVertex
62
5
10
224.300000
20
140.750000
0
SEQEND
5
3fa
100
AcDbEntity
8
1
0
ARC
5
3fb
100
AcDbEntity
8
1
100
AcDbCircle
6
CONTINUOUS
62
5
10
224.300000
20
142.950000
40
2.200000
100
AcDbArc
50
-89.999999
51
-55.294848
0
LINE
5
3fc
100
AcDbEntity
8
1
100
AcDbLine
6
CONTINUOUS
62
5
10
221.857915
20
179.250000
11
255.000000
21
179.250000
0
LINE
5
3fd
100
AcDbEntity
8
1
100
AcDbLine
6
CONTINUOUS
62
5
10
221.857915
20
138.250186
11
255.000000
21
138.250186
0
POLYLINE
5
3fe
100
AcDbEntity
8
1
6
CONTINUOUS
62
5
100
AcDb2dPolyline
66
1
10
0.0
20
0.0
30
0.0
70
0
0
VERTEX
5
3ff
100
AcDbEntity
8
1
100
AcDbVertex
100
AcDb2dVertex
62
5
10
253.000000
20
158.750093
0
VERTEX
5
400
100
AcDbEntity
8
1
100
AcDbVertex
100
AcDb2dVertex
62
5
10
253.000000
20
138.250186
0
VERTEX
5
401
100
AcDbEntity
8
1
100
AcDbVertex
100
AcDb2dVertex
62
5
10
252.000000
20
144.250186
0
VERTEX
5
402
100
AcDbEntity
8
1
100
AcDbVertex
100
AcDb2dVertex
62
5
10
254.000000
20
144.250186
0
VERTEX
5
403
100
AcDbEntity
8
1
100
AcDbVertex
100
AcDb2dVertex
62
5
10
253.000000
20
138.250186
0
VERTEX
5
404
100
AcDbEntity
8
1
100
AcDbVertex
100
AcDb2dVertex
62
5
10
252.500000
20
144.250186
0
VERTEX
5
405
100
AcDbEntity
8
1
100
AcDbVertex
100
AcDb2dVertex
62
5
10
253.500000
20
144.250186
0
VERTEX
5
406
100
AcDbEntity
8
1
100
AcDbVertex
100
AcDb2dVertex
62
5
10
253.000000
20
138.250186
0
SEQEND
5
407
100
AcDbEntity
8
1
0
POLYLINE
5
408
100
AcDbEntity
8
1
6
CONTINUOUS
62
5
100
AcDb2dPolyline
66
1
10
0.0
20
0.0
30
0.0
70
0
0
VERTEX
5
409
100
AcDbEntity
8
1
100
AcDbVertex
100
AcDb2dVertex
62
5
10
253.000000
20
158.750093
0
VERTEX
5
40a
100
AcDbEntity
8
1
100
AcDbVertex
100
AcDb2dVertex
62
5
10
253.000000
20
179.250000
0
VERTEX
5
40b
100
AcDbEntity
8
1
100
AcDbVertex
100
AcDb2dVertex
62
5
10
254.000000
20
173.250000
0
VERTEX
5
40c
100
AcDbEntity
8
1
100
AcDbVertex
100
AcDb2dVertex
62
5
10
252.000000
20
173.250000
0
VERTEX
5
40d
100
AcDbEntity
8
1
100
AcDbVertex
100
AcDb2dVertex
62
5
10
253.000000
20
179.250000
0
VERTEX
5
40e
100
AcDbEntity
8
1
100
AcDbVertex
100
AcDb2dVertex
62
5
10
253.500000
20
173.250000
0
VERTEX
5
40f
100
AcDbEntity
8
1
100
AcDbVertex
100
AcDb2dVertex
62
5
10
252.500000
20
173.250000
0
VERTEX
5
410
100
AcDbEntity
8
1
100
AcDbVertex
100
AcDb2dVertex
62
5
10
253.000000
20
179.250000
0
SEQEND
5
411
100
AcDbEntity
8
1
0
LINE
5
412
100
AcDbEntity
8
1
100
AcDbLine
6
CONTINUOUS
62
5
10
137.750000
20
179.100000
11
138.750000
21
179.100000
0
LINE
5
413
100
AcDbEntity
8
1
100
AcDbLine
6
CONTINUOUS
62
5
10
135.850000
20
166.700000
11
135.850000
21
159.700000
0
POLYLINE
5
414
100
AcDbEntity
8
1
6
CONTINUOUS
62
5
100
AcDb2dPolyline
66
1
10
0.0
20
0.0
30
0.0
70
1
0
VERTEX
5
415
100
AcDbEntity
8
1
100
AcDbVertex
100
AcDb2dVertex
62
5
10
134.750000
20
166.700000
0
VERTEX
5
416
100
AcDbEntity
8
1
100
AcDbVertex
100
AcDb2dVertex
62
5
10
136.950000
20
166.700000
0
VERTEX
5
417
100
AcDbEntity
8
1
100
AcDbVertex
100
AcDb2dVertex
62
5
10
136.950000
20
159.700000
0
VERTEX
5
418
100
AcDbEntity
8
1
100
AcDbVertex
100
AcDb2dVertex
62
5
10
134.750000
20
159.700000
0
VERTEX
5
419
100
AcDbEntity
8
1
100
AcDbVertex
100
AcDb2dVertex
62
5
10
134.750000
20
166.700000
0
SEQEND
5
41a
100
AcDbEntity
8
1
0
LINE
5
41b
100
AcDbEntity
8
1
100
AcDbLine
6
CONTINUOUS
62
5
10
128.250000
20
153.500000
11
128.250000
21
149.100000
0
LINE
5
41c
100
AcDbEntity
8
1
100
AcDbLine
6
CONTINUOUS
62
5
10
130.750000
20
153.500000
11
130.750000
21
149.100000
0
LINE
5
41d
100
AcDbEntity
8
1
100
AcDbLine
6
CONTINUOUS
62
5
10
137.750000
20
140.900000
11
138.750000
21
140.900000
0
ARC
5
41e
100
AcDbEntity
8
1
100
AcDbCircle
6
CONTINUOUS
62
5
10
129.500000
20
151.300000
40
1.750000
100
AcDbArc
50
44.415308
51
135.584690
0
ARC
5
41f
100
AcDbEntity
8
1
100
AcDbCircle
6
CONTINUOUS
62
5
10
129.500000
20
151.300000
40
1.750000
100
AcDbArc
50
-135.584690
51
-44.415308
0
LINE
5
420
100
AcDbEntity
8
1
100
AcDbLine
6
CONTINUOUS
62
5
10
127.934752
20
153.500000
11
131.065248
21
153.500000
0
ARC
5
421
100
AcDbEntity
8
1
100
AcDbCircle
6
CONTINUOUS
62
5
10
134.350000
20
167.950000
40
1.500000
100
AcDbArc
50
89.999999
51
179.999998
0
LINE
5
422
100
AcDbEntity
8
1
100
AcDbLine
6
CONTINUOUS
62
5
10
132.850000
20
167.950000
11
132.850000
21
158.450000
0
ARC
5
423
100
AcDbEntity
8
1
100
AcDbCircle
6
CONTINUOUS
62
5
10
134.350000
20
158.450000
40
1.500000
100
AcDbArc
50
179.999998
51
-89.999999
0
LINE
5
424
100
AcDbEntity
8
1
100
AcDbLine
6
CONTINUOUS
62
5
10
134.350000
20
156.950000
11
137.350000
21
156.950000
0
ARC
5
425
100
AcDbEntity
8
1
100
AcDbCircle
6
CONTINUOUS
62
5
10
137.350000
20
158.450000
40
1.500000
100
AcDbArc
50
-89.999999
51
0.000000
0
LINE
5
426
100
AcDbEntity
8
1
100
AcDbLine
6
CONTINUOUS
62
5
10
138.850000
20
158.450000
11
138.850000
21
167.950000
0
ARC
5
427
100
AcDbEntity
8
1
100
AcDbCircle
6
CONTINUOUS
62
5
10
137.350000
20
167.950000
40
1.500000
100
AcDbArc
50
0.000000
51
89.999999
0
LINE
5
428
100
AcDbEntity
8
1
100
AcDbLine
6
CONTINUOUS
62
5
10
137.350000
20
169.450000
11
134.350000
21
169.450000
0
LINE
5
429
100
AcDbEntity
8
1
100
AcDbLine
6
CONTINUOUS
62
5
10
122.050000
20
166.800000
11
124.250000
21
166.800000
0
LINE
5
42a
100
AcDbEntity
8
1
100
AcDbLine
6
CONTINUOUS
62
5
10
120.250000
20
179.100000
11
121.250000
21
179.100000
0
LINE
5
42b
100
AcDbEntity
8
1
100
AcDbLine
6
CONTINUOUS
62
5
10
122.050000
20
159.600000
11
124.250000
21
159.600000
0
LINE
5
42c
100
AcDbEntity
8
1
100
AcDbLine
6
CONTINUOUS
62
5
10
123.150000
20
166.800000
11
123.150000
21
159.600000
0
POLYLINE
5
42d
100
AcDbEntity
8
1
6
CONTINUOUS
62
5
100
AcDb2dPolyline
66
1
10
0.0
20
0.0
30
0.0
70
1
0
VERTEX
5
42e
100
AcDbEntity
8
1
100
AcDbVertex
100
AcDb2dVertex
62
5
10
122.050000
20
167.550000
0
VERTEX
5
42f
100
AcDbEntity
8
1
100
AcDbVertex
100
AcDb2dVertex
62
5
10
124.250000
20
167.550000
0
VERTEX
5
430
100
AcDbEntity
8
1
100
AcDbVertex
100
AcDb2dVertex
62
5
10
124.250000
20
158.850000
0
VERTEX
5
431
100
AcDbEntity
8
1
100
AcDbVertex
100
AcDb2dVertex
62
5
10
122.050000
20
158.850000
0
VERTEX
5
432
100
AcDbEntity
8
1
100
AcDbVertex
100
AcDb2dVertex
62
5
10
122.050000
20
167.550000
0
SEQEND
5
433
100
AcDbEntity
8
1
0
POLYLINE
5
434
100
AcDbEntity
8
1
6
CONTINUOUS
62
5
100
AcDb2dPolyline
66
1
10
0.0
20
0.0
30
0.0
70
0
0
VERTEX
5
435
100
AcDbEntity
8
1
100
AcDbVertex
100
AcDb2dVertex
62
5
10
114.682139
20
142.499327
0
VERTEX
5
436
100
AcDbEntity
8
1
100
AcDbVertex
100
AcDb2dVertex
62
5
10
114.682139
20
146.474327
0
VERTEX
5
437
100
AcDbEntity
8
1
100
AcDbVertex
100
AcDb2dVertex
62
5
10
117.332139
20
142.499327
0
VERTEX
5
438
100
AcDbEntity
8
1
100
AcDbVertex
100
AcDb2dVertex
62
5
10
117.332139
20
146.474327
0
SEQEND
5
439
100
AcDbEntity
8
1
0
LINE
5
43a
100
AcDbEntity
8
1
100
AcDbLine
6
CONTINUOUS
62
5
10
120.250000
20
140.900000
11
121.250000
21
140.900000
0
ARC
5
43b
100
AcDbEntity
8
1
100
AcDbCircle
6
CONTINUOUS
62
5
10
124.650000
20
167.950000
40
1.500000
100
AcDbArc
50
0.000000
51
89.999999
0
LINE
5
43c
100
AcDbEntity
8
1
100
AcDbLine
6
CONTINUOUS
62
5
10
126.150000
20
167.950000
11
126.150000
21
158.450000
0
ARC
5
43d
100
AcDbEntity
8
1
100
AcDbCircle
6
CONTINUOUS
62
5
10
124.650000
20
158.450000
40
1.500000
100
AcDbArc
50
-89.999999
51
0.000000
0
LINE
5
43e
100
AcDbEntity
8
1
100
AcDbLine
6
CONTINUOUS
62
5
10
124.650000
20
156.950000
11
121.650000
21
156.950000
0
ARC
5
43f
100
AcDbEntity
8
1
100
AcDbCircle
6
CONTINUOUS
62
5
10
121.650000
20
158.450000
40
1.500000
100
AcDbArc
50
179.999998
51
-89.999999
0
LINE
5
440
100
AcDbEntity
8
1
100
AcDbLine
6
CONTINUOUS
62
5
10
120.150000
20
158.450000
11
120.150000
21
167.950000
0
ARC
5
441
100
AcDbEntity
8
1
100
AcDbCircle
6
CONTINUOUS
62
5
10
121.650000
20
167.950000
40
1.500000
100
AcDbArc
50
89.999999
51
179.999998
0
LINE
5
442
100
AcDbEntity
8
1
100
AcDbLine
6
CONTINUOUS
62
5
10
121.650000
20
169.450000
11
124.650000
21
169.450000
0
LINE
5
443
100
AcDbEntity
8
1
100
AcDbLine
6
CONTINUOUS
62
5
10
126.800000
20
149.100000
11
132.200000
21
149.100000
0
ARC
5
444
100
AcDbEntity
8
1
100
AcDbCircle
6
CONTINUOUS
62
5
10
129.500000
20
151.300000
40
2.700000
100
AcDbArc
50
0.000000
51
179.999998
0
POLYLINE
5
445
100
AcDbEntity
8
1
6
CONTINUOUS
62
5
100
AcDb2dPolyline
66
1
10
0.0
20
0.0
30
0.0
70
0
0
VERTEX
5
446
100
AcDbEntity
8
1
100
AcDbVertex
100
AcDb2dVertex
62
5
10
132.200000
20
151.300000
0
VERTEX
5
447
100
AcDbEntity
8
1
100
AcDbVertex
100
AcDb2dVertex
62
5
10
132.200000
20
148.600000
0
VERTEX
5
448
100
AcDbEntity
8
1
100
AcDbVertex
100
AcDb2dVertex
62
5
10
126.800000
20
148.600000
0
VERTEX
5
449
100
AcDbEntity
8
1
100
AcDbVertex
100
AcDb2dVertex
62
5
10
126.800000
20
151.300000
0
SEQEND
5
44a
100
AcDbEntity
8
1
0
ARC
5
44b
100
AcDbEntity
8
1
100
AcDbCircle
6
CONTINUOUS
62
5
10
132.700000
20
148.100000
40
1.000000
100
AcDbArc
50
-89.999999
51
0.000000
0
LINE
5
44c
100
AcDbEntity
8
1
100
AcDbLine
6
CONTINUOUS
62
5
10
132.700000
20
147.100000
11
126.300000
21
147.100000
0
ARC
5
44d
100
AcDbEntity
8
1
100
AcDbCircle
6
CONTINUOUS
62
5
10
126.300000
20
148.100000
40
1.000000
100
AcDbArc
50
179.999998
51
-89.999999
0
LINE
5
44e
100
AcDbEntity
8
1
100
AcDbLine
6
CONTINUOUS
62
5
10
125.300000
20
148.100000
11
125.300000
21
151.300000
0
ARC
5
44f
100
AcDbEntity
8
1
100
AcDbCircle
6
CONTINUOUS
62
5
10
129.500000
20
151.300000
40
4.200000
100
AcDbArc
50
0.000000
51
179.999998
0
LINE
5
450
100
AcDbEntity
8
1
100
AcDbLine
6
CONTINUOUS
62
5
10
133.700000
20
151.300000
11
133.700000
21
148.100000
0
CIRCLE
5
451
100
AcDbEntity
8
1
100
AcDbCircle
6
CONTINUOUS
62
5
10
129.500000
20
160.000000
40
15.750000
0
CIRCLE
5
452
100
AcDbEntity
8
1
100
AcDbCircle
6
CONTINUOUS
62
5
10
129.500000
20
160.000000
40
17.250000
0
ARC
5
453
100
AcDbEntity
8
1
100
AcDbCircle
6
CONTINUOUS
62
5
10
138.750000
20
178.600000
40
0.500000
100
AcDbArc
50
89.999999
51
-179.999998
0
LINE
5
454
100
AcDbEntity
8
1
100
AcDbLine
6
CONTINUOUS
62
5
10
138.750000
20
179.100000
11
139.500000
21
179.100000
0
ARC
5
455
100
AcDbEntity
8
1
100
AcDbCircle
6
CONTINUOUS
62
5
10
139.500000
20
176.100000
40
3.000000
100
AcDbArc
50
-0.000000
51
89.999999
0
LINE
5
456
100
AcDbEntity
8
1
100
AcDbLine
6
CONTINUOUS
62
5
10
142.500000
20
176.100000
11
142.500000
21
175.000000
0
ARC
5
457
100
AcDbEntity
8
1
100
AcDbCircle
6
CONTINUOUS
62
5
10
142.500000
20
170.500000
40
4.500000
100
AcDbArc
50
0.000000
51
89.999999
0
LINE
5
458
100
AcDbEntity
8
1
100
AcDbLine
6
CONTINUOUS
62
5
10
147.000000
20
170.500000
11
147.000000
21
143.900000
0
ARC
5
459
100
AcDbEntity
8
1
100
AcDbCircle
6
CONTINUOUS
62
5
10
144.000000
20
143.900000
40
3.000000
100
AcDbArc
50
-89.999999
51
-0.000000
0
LINE
5
45a
100
AcDbEntity
8
1
100
AcDbLine
6
CONTINUOUS
62
5
10
144.000000
20
140.900000
11
138.750000
21
140.900000
0
ARC
5
45b
100
AcDbEntity
8
1
100
AcDbCircle
6
CONTINUOUS
62
5
10
138.750000
20
141.400000
40
0.500000
100
AcDbArc
50
-179.999998
51
-89.999999
0
POLYLINE
5
45c
100
AcDbEntity
8
1
6
CONTINUOUS
62
5
100
AcDb2dPolyline
66
1
10
0.0
20
0.0
30
0.0
70
0
0
VERTEX
5
45d
100
AcDbEntity
8
1
100
AcDbVertex
100
AcDb2dVertex
62
5
10
138.250000
20
141.400000
0
VERTEX
5
45e
100
AcDbEntity
8
1
100
AcDbVertex
100
AcDb2dVertex
62
5
10
138.250000
20
142.000000
0
VERTEX
5
45f
100
AcDbEntity
8
1
100
AcDbVertex
100
AcDb2dVertex
62
5
10
120.750000
20
142.000000
0
VERTEX
5
460
100
AcDbEntity
8
1
100
AcDbVertex
100
AcDb2dVertex
62
5
10
120.750000
20
141.400000
0
SEQEND
5
461
100
AcDbEntity
8
1
0
ARC
5
462
100
AcDbEntity
8
1
100
AcDbCircle
6
CONTINUOUS
62
5
10
120.250000
20
141.400000
40
0.500000
100
AcDbArc
50
-89.999999
51
-0.000000
0
LINE
5
463
100
AcDbEntity
8
1
100
AcDbLine
6
CONTINUOUS
62
5
10
120.250000
20
140.900000
11
115.000000
21
140.900000
0
ARC
5
464
100
AcDbEntity
8
1
100
AcDbCircle
6
CONTINUOUS
62
5
10
115.000000
20
143.900000
40
3.000000
100
AcDbArc
50
179.999998
51
-89.999999
0
LINE
5
465
100
AcDbEntity
8
1
100
AcDbLine
6
CONTINUOUS
62
5
10
112.000000
20
143.900000
11
112.000000
21
170.500000
0
ARC
5
466
100
AcDbEntity
8
1
100
AcDbCircle
6
CONTINUOUS
62
5
10
116.500000
20
170.500000
40
4.500000
100
AcDbArc
50
89.999999
51
-179.999998
0
LINE
5
467
100
AcDbEntity
8
1
100
AcDbLine
6
CONTINUOUS
62
5
10
116.500000
20
175.000000
11
116.500000
21
176.100000
0
ARC
5
468
100
AcDbEntity
8
1
100
AcDbCircle
6
CONTINUOUS
62
5
10
119.500000
20
176.100000
40
3.000000
100
AcDbArc
50
89.999999
51
-179.999998
0
LINE
5
469
100
AcDbEntity
8
1
100
AcDbLine
6
CONTINUOUS
62
5
10
119.500000
20
179.100000
11
120.250000
21
179.100000
0
ARC
5
46a
100
AcDbEntity
8
1
100
AcDbCircle
6
CONTINUOUS
62
5
10
120.250000
20
178.600000
40
0.500000
100
AcDbArc
50
-0.000000
51
89.999999
0
POLYLINE
5
46b
100
AcDbEntity
8
1
6
CONTINUOUS
62
5
100
AcDb2dPolyline
66
1
10
0.0
20
0.0
30
0.0
70
0
0
VERTEX
5
46c
100
AcDbEntity
8
1
100
AcDbVertex
100
AcDb2dVertex
62
5
10
120.750000
20
178.600000
0
VERTEX
5
46d
100
AcDbEntity
8
1
100
AcDbVertex
100
AcDb2dVertex
62
5
10
120.750000
20
178.000000
0
VERTEX
5
46e
100
AcDbEntity
8
1
100
AcDbVertex
100
AcDb2dVertex
62
5
10
138.250000
20
178.000000
0
VERTEX
5
46f
100
AcDbEntity
8
1
100
AcDbVertex
100
AcDb2dVertex
62
5
10
138.250000
20
178.600000
0
SEQEND
5
470
100
AcDbEntity
8
1
0
CIRCLE
5
471
100
AcDbEntity
8
1
100
AcDbCircle
6
CONTINUOUS
62
5
10
129.500000
20
125.750000
40
1.479500
0
CIRCLE
5
472
100
AcDbEntity
8
1
100
AcDbCircle
6
CONTINUOUS
62
5
10
129.500000
20
129.750000
40
1.479500
0
CIRCLE
5
473
100
AcDbEntity
8
1
100
AcDbCircle
6
CONTINUOUS
62
5
10
129.500000
20
129.750000
40
1.750000
0
ARC
5
474
100
AcDbEntity
8
1
100
AcDbCircle
6
CONTINUOUS
62
5
10
125.500000
20
118.442059
40
2.500000
100
AcDbArc
50
84.502150
51
179.999998
0
ARC
5
475
100
AcDbEntity
8
1
100
AcDbCircle
6
CONTINUOUS
62
5
10
129.500000
20
160.000000
40
39.250000
100
AcDbArc
50
-95.497848
51
-84.502150
0
ARC
5
476
100
AcDbEntity
8
1
100
AcDbCircle
6
CONTINUOUS
62
5
10
133.500000
20
118.442059
40
2.500000
100
AcDbArc
50
0.000000
51
95.497848
0
LINE
5
477
100
AcDbEntity
8
1
100
AcDbLine
6
CONTINUOUS
62
5
10
136.000000
20
118.442059
11
136.000000
21
118.442059
0
ARC
5
478
100
AcDbEntity
8
1
100
AcDbCircle
6
CONTINUOUS
62
5
10
133.500000
20
118.442059
40
2.500000
100
AcDbArc
50
-84.502150
51
0.000000
0
ARC
5
479
100
AcDbEntity
8
1
100
AcDbCircle
6
CONTINUOUS
62
5
10
129.500000
20
160.000000
40
44.250000
100
AcDbArc
50
-95.497848
51
-84.502150
0
ARC
5
47a
100
AcDbEntity
8
1
100
AcDbCircle
6
CONTINUOUS
62
5
10
125.500000
20
118.442059
40
2.500000
100
AcDbArc
50
179.999998
51
-95.497848
0
LINE
5
47b
100
AcDbEntity
8
1
100
AcDbLine
6
CONTINUOUS
62
5
10
123.000000
20
118.442059
11
123.000000
21
118.442059
0
POLYLINE
5
47c
100
AcDbEntity
8
1
6
DOT2
62
5
100
AcDb2dPolyline
66
1
10
0.0
20
0.0
30
0.0
70
0
0
VERTEX
5
47d
100
AcDbEntity
8
1
100
AcDbVertex
100
AcDb2dVertex
62
5
10
82.312500
20
159.375000
0
VERTEX
5
47e
100
AcDbEntity
8
1
100
AcDbVertex
100
AcDb2dVertex
62
5
10
82.312500
20
159.375000
0
VERTEX
5
47f
100
AcDbEntity
8
1
100
AcDbVertex
100
AcDb2dVertex
62
5
10
82.625000
20
158.125000
0
VERTEX
5
480
100
AcDbEntity
8
1
100
AcDbVertex
100
AcDb2dVertex
62
5
10
82.625000
20
157.187500
0
VERTEX
5
481
100
AcDbEntity
8
1
100
AcDbVertex
100
AcDb2dVertex
62
5
10
82.312500
20
156.562500
0
VERTEX
5
482
100
AcDbEntity
8
1
100
AcDbVertex
100
AcDb2dVertex
62
5
10
81.375000
20
156.250000
0
VERTEX
5
483
100
AcDbEntity
8
1
100
AcDbVertex
100
AcDb2dVertex
62
5
10
79.812500
20
156.250000
0
VERTEX
5
484
100
AcDbEntity
8
1
100
AcDbVertex
100
AcDb2dVertex
62
5
10
78.875000
20
156.562500
0
VERTEX
5
485
100
AcDbEntity
8
1
100
AcDbVertex
100
AcDb2dVertex
62
5
10
78.562500
20
156.875000
0
VERTEX
5
486
100
AcDbEntity
8
1
100
AcDbVertex
100
AcDb2dVertex
62
5
10
78.250000
20
157.500000
0
VERTEX
5
487
100
AcDbEntity
8
1
100
AcDbVertex
100
AcDb2dVertex
62
5
10
78.250000
20
158.125000
0
VERTEX
5
488
100
AcDbEntity
8
1
100
AcDbVertex
100
AcDb2dVertex
62
5
10
78.562500
20
158.750000
0
VERTEX
5
489
100
AcDbEntity
8
1
100
AcDbVertex
100
AcDb2dVertex
62
5
10
78.875000
20
159.062500
0
VERTEX
5
48a
100
AcDbEntity
8
1
100
AcDbVertex
100
AcDb2dVertex
62
5
10
79.812500
20
159.375000
0
VERTEX
5
48b
100
AcDbEntity
8
1
100
AcDbVertex
100
AcDb2dVertex
62
5
10
83.250000
20
159.375000
0
VERTEX
5
48c
100
AcDbEntity
8
1
100
AcDbVertex
100
AcDb2dVertex
62
5
10
84.812500
20
159.062500
0
VERTEX
5
48d
100
AcDbEntity
8
1
100
AcDbVertex
100
AcDb2dVertex
62
5
10
85.437500
20
158.437500
0
VERTEX
5
48e
100
AcDbEntity
8
1
100
AcDbVertex
100
AcDb2dVertex
62
5
10
85.750000
20
157.500000
0
VERTEX
5
48f
100
AcDbEntity
8
1
100
AcDbVertex
100
AcDb2dVertex
62
5
10
85.750000
20
156.875000
0
SEQEND
5
490
100
AcDbEntity
8
1
0
POLYLINE
5
491
100
AcDbEntity
8
1
6
DOT2
62
5
100
AcDb2dPolyline
66
1
10
0.0
20
0.0
30
0.0
70
0
0
VERTEX
5
492
100
AcDbEntity
8
1
100
AcDbVertex
100
AcDb2dVertex
62
5
10
78.250000
20
163.750000
0
VERTEX
5
493
100
AcDbEntity
8
1
100
AcDbVertex
100
AcDb2dVertex
62
5
10
83.875000
20
160.937500
0
VERTEX
5
494
100
AcDbEntity
8
1
100
AcDbVertex
100
AcDb2dVertex
62
5
10
83.875000
20
164.687500
0
SEQEND
5
495
100
AcDbEntity
8
1
0
LINE
5
496
100
AcDbEntity
8
1
100
AcDbLine
6
DOT2
62
5
10
78.250000
20
163.750000
11
85.750000
21
163.750000
0
LINE
5
497
100
AcDbEntity
8
1
100
AcDbLine
6
DOT2
62
5
10
85.750000
20
163.125000
11
85.750000
21
164.375000
0
LINE
5
498
100
AcDbEntity
8
1
100
AcDbLine
6
CONTINUOUS
62
5
10
127.500000
20
42.000000
11
130.625000
21
42.000000
0
POLYLINE
5
499
100
AcDbEntity
8
1
6
CONTINUOUS
62
5
100
AcDb2dPolyline
66
1
10
0.0
20
0.0
30
0.0
70
0
0
VERTEX
5
49a
100
AcDbEntity
8
1
100
AcDbVertex
100
AcDb2dVertex
62
5
10
113.125000
20
45.125000
0
VERTEX
5
49b
100
AcDbEntity
8
1
100
AcDbVertex
100
AcDb2dVertex
62
5
10
114.062500
20
45.750000
0
VERTEX
5
49c
100
AcDbEntity
8
1
100
AcDbVertex
100
AcDb2dVertex
62
5
10
114.062500
20
38.250000
0
SEQEND
5
49d
100
AcDbEntity
8
1
0
LINE
5
49e
100
AcDbEntity
8
1
100
AcDbLine
6
CONTINUOUS
62
5
10
113.437500
20
38.250000
11
114.687500
21
38.250000
0
LINE
5
49f
100
AcDbEntity
8
1
100
AcDbLine
6
CONTINUOUS
62
5
10
117.500000
20
45.750000
11
120.312500
21
45.750000
0
POLYLINE
5
4a0
100
AcDbEntity
8
1
6
CONTINUOUS
62
5
100
AcDb2dPolyline
66
1
10
0.0
20
0.0
30
0.0
70
0
0
VERTEX
5
4a1
100
AcDbEntity
8
1
100
AcDbVertex
100
AcDb2dVertex
62
5
10
117.500000
20
45.750000
0
VERTEX
5
4a2
100
AcDbEntity
8
1
100
AcDbVertex
100
AcDb2dVertex
62
5
10
117.500000
20
42.000000
0
VERTEX
5
4a3
100
AcDbEntity
8
1
100
AcDbVertex
100
AcDb2dVertex
62
5
10
118.125000
20
42.625000
0
VERTEX
5
4a4
100
AcDbEntity
8
1
100
AcDbVertex
100
AcDb2dVertex
62
5
10
118.750000
20
42.937500
0
VERTEX
5
4a5
100
AcDbEntity
8
1
100
AcDbVertex
100
AcDb2dVertex
62
5
10
119.687500
20
42.937500
0
VERTEX
5
4a6
100
AcDbEntity
8
1
100
AcDbVertex
100
AcDb2dVertex
62
5
10
120.312500
20
42.625000
0
VERTEX
5
4a7
100
AcDbEntity
8
1
100
AcDbVertex
100
AcDb2dVertex
62
5
10
120.625000
20
41.687500
0
VERTEX
5
4a8
100
AcDbEntity
8
1
100
AcDbVertex
100
AcDb2dVertex
62
5
10
120.625000
20
39.812500
0
VERTEX
5
4a9
100
AcDbEntity
8
1
100
AcDbVertex
100
AcDb2dVertex
62
5
10
120.000000
20
38.875000
0
VERTEX
5
4aa
100
AcDbEntity
8
1
100
AcDbVertex
100
AcDb2dVertex
62
5
10
119.062500
20
38.250000
0
VERTEX
5
4ab
100
AcDbEntity
8
1
100
AcDbVertex
100
AcDb2dVertex
62
5
10
117.500000
20
38.250000
0
SEQEND
5
4ac
100
AcDbEntity
8
1
0
POLYLINE
5
4ad
100
AcDbEntity
8
1
6
CONTINUOUS
62
5
100
AcDb2dPolyline
66
1
10
0.0
20
0.0
30
0.0
70
0
0
VERTEX
5
4ae
100
AcDbEntity
8
1
100
AcDbVertex
100
AcDb2dVertex
62
5
10
122.500000
20
38.250000
0
VERTEX
5
4af
100
AcDbEntity
8
1
100
AcDbVertex
100
AcDb2dVertex
62
5
10
124.062500
20
45.750000
0
VERTEX
5
4b0
100
AcDbEntity
8
1
100
AcDbVertex
100
AcDb2dVertex
62
5
10
125.625000
20
38.250000
0
SEQEND
5
4b1
100
AcDbEntity
8
1
0
LINE
5
4b2
100
AcDbEntity
8
1
100
AcDbLine
6
CONTINUOUS
62
5
10
123.125000
20
40.750000
11
125.000000
21
40.750000
0
POLYLINE
5
4b3
100
AcDbEntity
8
1
6
CONTINUOUS
62
5
100
AcDb2dPolyline
66
1
10
0.0
20
0.0
30
0.0
70
0
0
VERTEX
5
4b4
100
AcDbEntity
8
1
100
AcDbVertex
100
AcDb2dVertex
62
5
10
133.125000
20
45.125000
0
VERTEX
5
4b5
100
AcDbEntity
8
1
100
AcDbVertex
100
AcDb2dVertex
62
5
10
134.062500
20
45.750000
0
VERTEX
5
4b6
100
AcDbEntity
8
1
100
AcDbVertex
100
AcDb2dVertex
62
5
10
134.062500
20
38.250000
0
SEQEND
5
4b7
100
AcDbEntity
8
1
0
LINE
5
4b8
100
AcDbEntity
8
1
100
AcDbLine
6
CONTINUOUS
62
5
10
133.437500
20
38.250000
11
134.687500
21
38.250000
0
POLYLINE
5
4b9
100
AcDbEntity
8
1
6
CONTINUOUS
62
5
100
AcDb2dPolyline
66
1
10
0.0
20
0.0
30
0.0
70
0
0
VERTEX
5
4ba
100
AcDbEntity
8
1
100
AcDbVertex
100
AcDb2dVertex
62
5
10
137.500000
20
43.562500
0
VERTEX
5
4bb
100
AcDbEntity
8
1
100
AcDbVertex
100
AcDb2dVertex
62
5
10
137.812500
20
45.125000
0
VERTEX
5
4bc
100
AcDbEntity
8
1
100
AcDbVertex
100
AcDb2dVertex
62
5
10
138.750000
20
45.750000
0
VERTEX
5
4bd
100
AcDbEntity
8
1
100
AcDbVertex
100
AcDb2dVertex
62
5
10
139.687500
20
45.750000
0
VERTEX
5
4be
100
AcDbEntity
8
1
100
AcDbVertex
100
AcDb2dVertex
62
5
10
140.312500
20
45.437500
0
VERTEX
5
4bf
100
AcDbEntity
8
1
100
AcDbVertex
100
AcDb2dVertex
62
5
10
140.625000
20
44.500000
0
VERTEX
5
4c0
100
AcDbEntity
8
1
100
AcDbVertex
100
AcDb2dVertex
62
5
10
140.625000
20
43.562500
0
VERTEX
5
4c1
100
AcDbEntity
8
1
100
AcDbVertex
100
AcDb2dVertex
62
5
10
140.312500
20
42.625000
0
VERTEX
5
4c2
100
AcDbEntity
8
1
100
AcDbVertex
100
AcDb2dVertex
62
5
10
137.500000
20
38.250000
0
VERTEX
5
4c3
100
AcDbEntity
8
1
100
AcDbVertex
100
AcDb2dVertex
62
5
10
140.625000
20
38.250000
0
VERTEX
5
4c4
100
AcDbEntity
8
1
100
AcDbVertex
100
AcDb2dVertex
62
5
10
140.625000
20
39.187500
0
SEQEND
5
4c5
100
AcDbEntity
8
1
0
LINE
5
4c6
100
AcDbEntity
8
1
100
AcDbLine
6
CONTINUOUS
62
5
10
142.500000
20
45.750000
11
145.312500
21
45.750000
0
POLYLINE
5
4c7
100
AcDbEntity
8
1
6
CONTINUOUS
62
5
100
AcDb2dPolyline
66
1
10
0.0
20
0.0
30
0.0
70
0
0
VERTEX
5
4c8
100
AcDbEntity
8
1
100
AcDbVertex
100
AcDb2dVertex
62
5
10
142.500000
20
45.750000
0
VERTEX
5
4c9
100
AcDbEntity
8
1
100
AcDbVertex
100
AcDb2dVertex
62
5
10
142.500000
20
42.000000
0
VERTEX
5
4ca
100
AcDbEntity
8
1
100
AcDbVertex
100
AcDb2dVertex
62
5
10
143.125000
20
42.625000
0
VERTEX
5
4cb
100
AcDbEntity
8
1
100
AcDbVertex
100
AcDb2dVertex
62
5
10
143.750000
20
42.937500
0
VERTEX
5
4cc
100
AcDbEntity
8
1
100
AcDbVertex
100
AcDb2dVertex
62
5
10
144.687500
20
42.937500
0
VERTEX
5
4cd
100
AcDbEntity
8
1
100
AcDbVertex
100
AcDb2dVertex
62
5
10
145.312500
20
42.625000
0
VERTEX
5
4ce
100
AcDbEntity
8
1
100
AcDbVertex
100
AcDb2dVertex
62
5
10
145.625000
20
41.687500
0
VERTEX
5
4cf
100
AcDbEntity
8
1
100
AcDbVertex
100
AcDb2dVertex
62
5
10
145.625000
20
39.812500
0
VERTEX
5
4d0
100
AcDbEntity
8
1
100
AcDbVertex
100
AcDb2dVertex
62
5
10
145.000000
20
38.875000
0
VERTEX
5
4d1
100
AcDbEntity
8
1
100
AcDbVertex
100
AcDb2dVertex
62
5
10
144.062500
20
38.250000
0
VERTEX
5
4d2
100
AcDbEntity
8
1
100
AcDbVertex
100
AcDb2dVertex
62
5
10
142.500000
20
38.250000
0
SEQEND
5
4d3
100
AcDbEntity
8
1
0
POLYLINE
5
4d4
100
AcDbEntity
8
1
6
CONTINUOUS
62
5
100
AcDb2dPolyline
66
1
10
0.0
20
0.0
30
0.0
70
0
0
VERTEX
5
4d5
100
AcDbEntity
8
1
100
AcDbVertex
100
AcDb2dVertex
62
5
10
147.500000
20
45.750000
0
VERTEX
5
4d6
100
AcDbEntity
8
1
100
AcDbVertex
100
AcDb2dVertex
62
5
10
149.062500
20
38.250000
0
VERTEX
5
4d7
100
AcDbEntity
8
1
100
AcDbVertex
100
AcDb2dVertex
62
5
10
150.625000
20
45.750000
0
SEQEND
5
4d8
100
AcDbEntity
8
1
0
POLYLINE
5
4d9
100
AcDbEntity
8
1
6
CONTINUOUS
62
5
100
AcDb2dPolyline
66
1
10
0.0
20
0.0
30
0.0
70
0
0
VERTEX
5
4da
100
AcDbEntity
8
1
100
AcDbVertex
100
AcDb2dVertex
62
5
10
157.500000
20
38.250000
0
VERTEX
5
4db
100
AcDbEntity
8
1
100
AcDbVertex
100
AcDb2dVertex
62
5
10
159.062500
20
45.750000
0
VERTEX
5
4dc
100
AcDbEntity
8
1
100
AcDbVertex
100
AcDb2dVertex
62
5
10
160.625000
20
38.250000
0
SEQEND
5
4dd
100
AcDbEntity
8
1
0
LINE
5
4de
100
AcDbEntity
8
1
100
AcDbLine
6
CONTINUOUS
62
5
10
158.125000
20
40.750000
11
160.000000
21
40.750000
0
POLYLINE
5
4df
100
AcDbEntity
8
1
6
CONTINUOUS
62
5
100
AcDb2dPolyline
66
1
10
0.0
20
0.0
30
0.0
70
0
0
VERTEX
5
4e0
100
AcDbEntity
8
1
100
AcDbVertex
100
AcDb2dVertex
62
5
10
165.625000
20
44.187500
0
VERTEX
5
4e1
100
AcDbEntity
8
1
100
AcDbVertex
100
AcDb2dVertex
62
5
10
165.312500
20
45.125000
0
VERTEX
5
4e2
100
AcDbEntity
8
1
100
AcDbVertex
100
AcDb2dVertex
62
5
10
164.687500
20
45.750000
0
VERTEX
5
4e3
100
AcDbEntity
8
1
100
AcDbVertex
100
AcDb2dVertex
62
5
10
163.750000
20
45.750000
0
VERTEX
5
4e4
100
AcDbEntity
8
1
100
AcDbVertex
100
AcDb2dVertex
62
5
10
162.812500
20
44.812500
0
VERTEX
5
4e5
100
AcDbEntity
8
1
100
AcDbVertex
100
AcDb2dVertex
62
5
10
162.500000
20
43.250000
0
VERTEX
5
4e6
100
AcDbEntity
8
1
100
AcDbVertex
100
AcDb2dVertex
62
5
10
162.500000
20
40.750000
0
VERTEX
5
4e7
100
AcDbEntity
8
1
100
AcDbVertex
100
AcDb2dVertex
62
5
10
162.812500
20
39.187500
0
VERTEX
5
4e8
100
AcDbEntity
8
1
100
AcDbVertex
100
AcDb2dVertex
62
5
10
163.750000
20
38.250000
0
VERTEX
5
4e9
100
AcDbEntity
8
1
100
AcDbVertex
100
AcDb2dVertex
62
5
10
164.687500
20
38.250000
0
VERTEX
5
4ea
100
AcDbEntity
8
1
100
AcDbVertex
100
AcDb2dVertex
62
5
10
165.312500
20
38.875000
0
VERTEX
5
4eb
100
AcDbEntity
8
1
100
AcDbVertex
100
AcDb2dVertex
62
5
10
165.937500
20
40.437500
0
SEQEND
5
4ec
100
AcDbEntity
8
1
0
LINE
5
4ed
100
AcDbEntity
8
1
100
AcDbLine
6
CONTINUOUS
62
5
10
100.000000
20
54.000000
11
100.000000
21
30.000000
0
LINE
5
4ee
100
AcDbEntity
8
1
100
AcDbLine
6
CONTINUOUS
62
5
10
64.687500
20
46.375000
11
64.687500
21
45.437500
0
POLYLINE
5
4ef
100
AcDbEntity
8
1
6
CONTINUOUS
62
5
100
AcDb2dPolyline
66
1
10
0.0
20
0.0
30
0.0
70
0
0
VERTEX
5
4f0
100
AcDbEntity
8
1
100
AcDbVertex
100
AcDb2dVertex
62
5
10
60.937500
20
43.250000
0
VERTEX
5
4f1
100
AcDbEntity
8
1
100
AcDbVertex
100
AcDb2dVertex
62
5
10
60.937500
20
45.437500
0
VERTEX
5
4f2
100
AcDbEntity
8
1
100
AcDbVertex
100
AcDb2dVertex
62
5
10
68.437500
20
45.437500
0
VERTEX
5
4f3
100
AcDbEntity
8
1
100
AcDbVertex
100
AcDb2dVertex
62
5
10
68.437500
20
43.250000
0
SEQEND
5
4f4
100
AcDbEntity
8
1
0
LINE
5
4f5
100
AcDbEntity
8
1
100
AcDbLine
6
CONTINUOUS
62
5
10
61.875000
20
43.562500
11
67.500000
21
43.562500
0
LINE
5
4f6
100
AcDbEntity
8
1
100
AcDbLine
6
CONTINUOUS
62
5
10
64.687500
20
43.562500
11
64.687500
21
38.250000
0
LINE
5
4f7
100
AcDbEntity
8
1
100
AcDbLine
6
CONTINUOUS
62
5
10
64.687500
20
41.062500
11
67.500000
21
41.062500
0
POLYLINE
5
4f8
100
AcDbEntity
8
1
6
CONTINUOUS
62
5
100
AcDb2dPolyline
66
1
10
0.0
20
0.0
30
0.0
70
0
0
VERTEX
5
4f9
100
AcDbEntity
8
1
100
AcDbVertex
100
AcDb2dVertex
62
5
10
62.500000
20
41.687500
0
VERTEX
5
4fa
100
AcDbEntity
8
1
100
AcDbVertex
100
AcDb2dVertex
62
5
10
62.187500
20
39.812500
0
VERTEX
5
4fb
100
AcDbEntity
8
1
100
AcDbVertex
100
AcDb2dVertex
62
5
10
61.562500
20
38.562500
0
VERTEX
5
4fc
100
AcDbEntity
8
1
100
AcDbVertex
100
AcDb2dVertex
62
5
10
60.625000
20
37.625000
0
SEQEND
5
4fd
100
AcDbEntity
8
1
0
POLYLINE
5
4fe
100
AcDbEntity
8
1
6
CONTINUOUS
62
5
100
AcDb2dPolyline
66
1
10
0.0
20
0.0
30
0.0
70
0
0
VERTEX
5
4ff
100
AcDbEntity
8
1
100
AcDbVertex
100
AcDb2dVertex
62
5
10
62.187500
20
39.812500
0
VERTEX
5
500
100
AcDbEntity
8
1
100
AcDbVertex
100
AcDb2dVertex
62
5
10
64.687500
20
38.250000
0
VERTEX
5
501
100
AcDbEntity
8
1
100
AcDbVertex
100
AcDb2dVertex
62
5
10
65.937500
20
37.937500
0
VERTEX
5
502
100
AcDbEntity
8
1
100
AcDbVertex
100
AcDb2dVertex
62
5
10
69.062500
20
37.625000
0
SEQEND
5
503
100
AcDbEntity
8
1
0
LINE
5
504
100
AcDbEntity
8
1
100
AcDbLine
6
CONTINUOUS
62
5
10
80.625000
20
44.187500
11
83.750000
21
44.187500
0
LINE
5
505
100
AcDbEntity
8
1
100
AcDbLine
6
CONTINUOUS
62
5
10
82.500000
20
46.375000
11
82.500000
21
37.625000
0
POLYLINE
5
506
100
AcDbEntity
8
1
6
CONTINUOUS
62
5
100
AcDb2dPolyline
66
1
10
0.0
20
0.0
30
0.0
70
0
0
VERTEX
5
507
100
AcDbEntity
8
1
100
AcDbVertex
100
AcDb2dVertex
62
5
10
82.500000
20
44.187500
0
VERTEX
5
508
100
AcDbEntity
8
1
100
AcDbVertex
100
AcDb2dVertex
62
5
10
81.562500
20
42.000000
0
VERTEX
5
509
100
AcDbEntity
8
1
100
AcDbVertex
100
AcDb2dVertex
62
5
10
80.625000
20
40.750000
0
SEQEND
5
50a
100
AcDbEntity
8
1
0
LINE
5
50b
100
AcDbEntity
8
1
100
AcDbLine
6
CONTINUOUS
62
5
10
82.500000
20
43.250000
11
83.437500
21
42.000000
0
POLYLINE
5
50c
100
AcDbEntity
8
1
6
CONTINUOUS
62
5
100
AcDb2dPolyline
66
1
10
0.0
20
0.0
30
0.0
70
0
0
VERTEX
5
50d
100
AcDbEntity
8
1
100
AcDbVertex
100
AcDb2dVertex
62
5
10
85.937500
20
46.375000
0
VERTEX
5
50e
100
AcDbEntity
8
1
100
AcDbVertex
100
AcDb2dVertex
62
5
10
85.312500
20
45.125000
0
VERTEX
5
50f
100
AcDbEntity
8
1
100
AcDbVertex
100
AcDb2dVertex
62
5
10
83.750000
20
43.250000
0
SEQEND
5
510
100
AcDbEntity
8
1
0
POLYLINE
5
511
100
AcDbEntity
8
1
6
CONTINUOUS
62
5
100
AcDb2dPolyline
66
1
10
0.0
20
0.0
30
0.0
70
0
0
VERTEX
5
512
100
AcDbEntity
8
1
100
AcDbVertex
100
AcDb2dVertex
62
5
10
85.312500
20
45.125000
0
VERTEX
5
513
100
AcDbEntity
8
1
100
AcDbVertex
100
AcDb2dVertex
62
5
10
88.437500
20
45.125000
0
VERTEX
5
514
100
AcDbEntity
8
1
100
AcDbVertex
100
AcDb2dVertex
62
5
10
87.500000
20
43.562500
0
VERTEX
5
515
100
AcDbEntity
8
1
100
AcDbVertex
100
AcDb2dVertex
62
5
10
85.937500
20
42.000000
0
VERTEX
5
516
100
AcDbEntity
8
1
100
AcDbVertex
100
AcDb2dVertex
62
5
10
83.750000
20
40.750000
0
SEQEND
5
517
100
AcDbEntity
8
1
0
POLYLINE
5
518
100
AcDbEntity
8
1
6
CONTINUOUS
62
5
100
AcDb2dPolyline
66
1
10
0.0
20
0.0
30
0.0
70
0
0
VERTEX
5
519
100
AcDbEntity
8
1
100
AcDbVertex
100
AcDb2dVertex
62
5
10
85.312500
20
45.125000
0
VERTEX
5
51a
100
AcDbEntity
8
1
100
AcDbVertex
100
AcDb2dVertex
62
5
10
85.937500
20
43.562500
0
VERTEX
5
51b
100
AcDbEntity
8
1
100
AcDbVertex
100
AcDb2dVertex
62
5
10
87.187500
20
42.000000
0
VERTEX
5
51c
100
AcDbEntity
8
1
100
AcDbVertex
100
AcDb2dVertex
62
5
10
88.125000
20
41.375000
0
VERTEX
5
51d
100
AcDbEntity
8
1
100
AcDbVertex
100
AcDb2dVertex
62
5
10
89.375000
20
40.750000
0
SEQEND
5
51e
100
AcDbEntity
8
1
0
POLYLINE
5
51f
100
AcDbEntity
8
1
6
CONTINUOUS
62
5
100
AcDb2dPolyline
66
1
10
0.0
20
0.0
30
0.0
70
1
0
VERTEX
5
520
100
AcDbEntity
8
1
100
AcDbVertex
100
AcDb2dVertex
62
5
10
85.000000
20
40.750000
0
VERTEX
5
521
100
AcDbEntity
8
1
100
AcDbVertex
100
AcDb2dVertex
62
5
10
85.000000
20
37.937500
0
VERTEX
5
522
100
AcDbEntity
8
1
100
AcDbVertex
100
AcDb2dVertex
62
5
10
88.437500
20
37.937500
0
VERTEX
5
523
100
AcDbEntity
8
1
100
AcDbVertex
100
AcDb2dVertex
62
5
10
88.437500
20
40.750000
0
VERTEX
5
524
100
AcDbEntity
8
1
100
AcDbVertex
100
AcDb2dVertex
62
5
10
85.000000
20
40.750000
0
SEQEND
5
525
100
AcDbEntity
8
1
0
POLYLINE
5
526
100
AcDbEntity
8
1
6
DOT2
62
5
100
AcDb2dPolyline
66
1
10
0.0
20
0.0
30
0.0
70
0
0
VERTEX
5
527
100
AcDbEntity
8
1
100
AcDbVertex
100
AcDb2dVertex
62
5
10
100.750000
20
94.562500
0
VERTEX
5
528
100
AcDbEntity
8
1
100
AcDbVertex
100
AcDb2dVertex
62
5
10
101.062500
20
96.125000
0
VERTEX
5
529
100
AcDbEntity
8
1
100
AcDbVertex
100
AcDb2dVertex
62
5
10
102.000000
20
96.750000
0
VERTEX
5
52a
100
AcDbEntity
8
1
100
AcDbVertex
100
AcDb2dVertex
62
5
10
102.937500
20
96.750000
0
VERTEX
5
52b
100
AcDbEntity
8
1
100
AcDbVertex
100
AcDb2dVertex
62
5
10
103.562500
20
96.437500
0
VERTEX
5
52c
100
AcDbEntity
8
1
100
AcDbVertex
100
AcDb2dVertex
62
5
10
103.875000
20
95.500000
0
VERTEX
5
52d
100
AcDbEntity
8
1
100
AcDbVertex
100
AcDb2dVertex
62
5
10
103.875000
20
94.562500
0
VERTEX
5
52e
100
AcDbEntity
8
1
100
AcDbVertex
100
AcDb2dVertex
62
5
10
103.562500
20
93.625000
0
VERTEX
5
52f
100
AcDbEntity
8
1
100
AcDbVertex
100
AcDb2dVertex
62
5
10
100.750000
20
89.250000
0
VERTEX
5
530
100
AcDbEntity
8
1
100
AcDbVertex
100
AcDb2dVertex
62
5
10
103.875000
20
89.250000
0
VERTEX
5
531
100
AcDbEntity
8
1
100
AcDbVertex
100
AcDb2dVertex
62
5
10
103.875000
20
90.187500
0
SEQEND
5
532
100
AcDbEntity
8
1
0
POLYLINE
5
533
100
AcDbEntity
8
1
6
DOT2
62
5
100
AcDb2dPolyline
66
1
10
0.0
20
0.0
30
0.0
70
1
0
VERTEX
5
534
100
AcDbEntity
8
1
100
AcDbVertex
100
AcDb2dVertex
62
5
10
107.000000
20
96.750000
0
VERTEX
5
535
100
AcDbEntity
8
1
100
AcDbVertex
100
AcDb2dVertex
62
5
10
107.625000
20
96.750000
0
VERTEX
5
536
100
AcDbEntity
8
1
100
AcDbVertex
100
AcDb2dVertex
62
5
10
107.937500
20
96.437500
0
VERTEX
5
537
100
AcDbEntity
8
1
100
AcDbVertex
100
AcDb2dVertex
62
5
10
108.562500
20
95.187500
0
VERTEX
5
538
100
AcDbEntity
8
1
100
AcDbVertex
100
AcDb2dVertex
62
5
10
108.875000
20
93.937500
0
VERTEX
5
539
100
AcDbEntity
8
1
100
AcDbVertex
100
AcDb2dVertex
62
5
10
108.875000
20
92.062500
0
VERTEX
5
53a
100
AcDbEntity
8
1
100
AcDbVertex
100
AcDb2dVertex
62
5
10
108.562500
20
90.812500
0
VERTEX
5
53b
100
AcDbEntity
8
1
100
AcDbVertex
100
AcDb2dVertex
62
5
10
107.937500
20
89.562500
0
VERTEX
5
53c
100
AcDbEntity
8
1
100
AcDbVertex
100
AcDb2dVertex
62
5
10
107.625000
20
89.250000
0
VERTEX
5
53d
100
AcDbEntity
8
1
100
AcDbVertex
100
AcDb2dVertex
62
5
10
107.000000
20
89.250000
0
VERTEX
5
53e
100
AcDbEntity
8
1
100
AcDbVertex
100
AcDb2dVertex
62
5
10
106.687500
20
89.562500
0
VERTEX
5
53f
100
AcDbEntity
8
1
100
AcDbVertex
100
AcDb2dVertex
62
5
10
106.062500
20
90.812500
0
VERTEX
5
540
100
AcDbEntity
8
1
100
AcDbVertex
100
AcDb2dVertex
62
5
10
105.750000
20
92.062500
0
VERTEX
5
541
100
AcDbEntity
8
1
100
AcDbVertex
100
AcDb2dVertex
62
5
10
105.750000
20
93.937500
0
VERTEX
5
542
100
AcDbEntity
8
1
100
AcDbVertex
100
AcDb2dVertex
62
5
10
106.062500
20
95.187500
0
VERTEX
5
543
100
AcDbEntity
8
1
100
AcDbVertex
100
AcDb2dVertex
62
5
10
106.687500
20
96.437500
0
VERTEX
5
544
100
AcDbEntity
8
1
100
AcDbVertex
100
AcDb2dVertex
62
5
10
107.000000
20
96.750000
0
SEQEND
5
545
100
AcDbEntity
8
1
0
LINE
5
546
100
AcDbEntity
8
1
100
AcDbLine
6
CONTINUOUS
62
5
10
119.500000
20
113.500000
11
119.500000
21
86.000000
0
LINE
5
547
100
AcDbEntity
8
1
100
AcDbLine
6
CONTINUOUS
62
5
10
139.500000
20
113.500000
11
139.500000
21
86.000000
0
POLYLINE
5
548
100
AcDbEntity
8
1
6
CONTINUOUS
62
5
100
AcDb2dPolyline
66
1
10
0.0
20
0.0
30
0.0
70
0
0
VERTEX
5
549
100
AcDbEntity
8
1
100
AcDbVertex
100
AcDb2dVertex
62
5
10
98.250000
20
88.000000
0
VERTEX
5
54a
100
AcDbEntity
8
1
100
AcDbVertex
100
AcDb2dVertex
62
5
10
119.500000
20
88.000000
0
VERTEX
5
54b
100
AcDbEntity
8
1
100
AcDbVertex
100
AcDb2dVertex
62
5
10
113.500000
20
87.000000
0
VERTEX
5
54c
100
AcDbEntity
8
1
100
AcDbVertex
100
AcDb2dVertex
62
5
10
113.500000
20
89.000000
0
VERTEX
5
54d
100
AcDbEntity
8
1
100
AcDbVertex
100
AcDb2dVertex
62
5
10
119.500000
20
88.000000
0
VERTEX
5
54e
100
AcDbEntity
8
1
100
AcDbVertex
100
AcDb2dVertex
62
5
10
113.500000
20
87.500000
0
VERTEX
5
54f
100
AcDbEntity
8
1
100
AcDbVertex
100
AcDb2dVertex
62
5
10
113.500000
20
88.500000
0
VERTEX
5
550
100
AcDbEntity
8
1
100
AcDbVertex
100
AcDb2dVertex
62
5
10
119.500000
20
88.000000
0
SEQEND
5
551
100
AcDbEntity
8
1
0
LINE
5
552
100
AcDbEntity
8
1
100
AcDbLine
6
CONTINUOUS
62
5
10
119.500000
20
88.000000
11
139.500000
21
88.000000
0
POLYLINE
5
553
100
AcDbEntity
8
1
6
CONTINUOUS
62
5
100
AcDb2dPolyline
66
1
10
0.0
20
0.0
30
0.0
70
0
0
VERTEX
5
554
100
AcDbEntity
8
1
100
AcDbVertex
100
AcDb2dVertex
62
5
10
148.500000
20
88.000000
0
VERTEX
5
555
100
AcDbEntity
8
1
100
AcDbVertex
100
AcDb2dVertex
62
5
10
139.500000
20
88.000000
0
VERTEX
5
556
100
AcDbEntity
8
1
100
AcDbVertex
100
AcDb2dVertex
62
5
10
145.500000
20
89.000000
0
VERTEX
5
557
100
AcDbEntity
8
1
100
AcDbVertex
100
AcDb2dVertex
62
5
10
145.500000
20
87.000000
0
VERTEX
5
558
100
AcDbEntity
8
1
100
AcDbVertex
100
AcDb2dVertex
62
5
10
139.500000
20
88.000000
0
VERTEX
5
559
100
AcDbEntity
8
1
100
AcDbVertex
100
AcDb2dVertex
62
5
10
145.500000
20
88.500000
0
VERTEX
5
55a
100
AcDbEntity
8
1
100
AcDbVertex
100
AcDb2dVertex
62
5
10
145.500000
20
87.500000
0
VERTEX
5
55b
100
AcDbEntity
8
1
100
AcDbVertex
100
AcDb2dVertex
62
5
10
139.500000
20
88.000000
0
SEQEND
5
55c
100
AcDbEntity
8
1
0
POLYLINE
5
55d
100
AcDbEntity
8
1
6
CONTINUOUS
62
5
100
AcDb2dPolyline
66
1
10
0.0
20
0.0
30
0.0
70
1
0
VERTEX
5
55e
100
AcDbEntity
8
1
100
AcDbVertex
100
AcDb2dVertex
62
5
10
290.000000
20
30.000000
0
VERTEX
5
55f
100
AcDbEntity
8
1
100
AcDbVertex
100
AcDb2dVertex
62
5
10
290.000000
20
54.000000
0
VERTEX
5
560
100
AcDbEntity
8
1
100
AcDbVertex
100
AcDb2dVertex
62
5
10
50.000000
20
54.000000
0
VERTEX
5
561
100
AcDbEntity
8
1
100
AcDbVertex
100
AcDb2dVertex
62
5
10
50.000000
20
30.000000
0
VERTEX
5
562
100
AcDbEntity
8
1
100
AcDbVertex
100
AcDb2dVertex
62
5
10
290.000000
20
30.000000
0
SEQEND
5
563
100
AcDbEntity
8
1
0
LINE
5
564
100
AcDbEntity
8
1
100
AcDbLine
6
CONTINUOUS
62
5
10
120.000000
20
207.000000
11
85.000000
21
207.000000
0
LINE
5
565
100
AcDbEntity
8
1
100
AcDbLine
6
CONTINUOUS
62
5
10
120.000000
20
113.000000
11
85.000000
21
113.000000
0
POLYLINE
5
566
100
AcDbEntity
8
1
6
CONTINUOUS
62
5
100
AcDb2dPolyline
66
1
10
0.0
20
0.0
30
0.0
70
0
0
VERTEX
5
567
100
AcDbEntity
8
1
100
AcDbVertex
100
AcDb2dVertex
62
5
10
87.000000
20
160.000000
0
VERTEX
5
568
100
AcDbEntity
8
1
100
AcDbVertex
100
AcDb2dVertex
62
5
10
87.000000
20
113.000000
0
VERTEX
5
569
100
AcDbEntity
8
1
100
AcDbVertex
100
AcDb2dVertex
62
5
10
86.000000
20
119.000000
0
VERTEX
5
56a
100
AcDbEntity
8
1
100
AcDbVertex
100
AcDb2dVertex
62
5
10
88.000000
20
119.000000
0
VERTEX
5
56b
100
AcDbEntity
8
1
100
AcDbVertex
100
AcDb2dVertex
62
5
10
87.000000
20
113.000000
0
VERTEX
5
56c
100
AcDbEntity
8
1
100
AcDbVertex
100
AcDb2dVertex
62
5
10
86.500000
20
119.000000
0
VERTEX
5
56d
100
AcDbEntity
8
1
100
AcDbVertex
100
AcDb2dVertex
62
5
10
87.500000
20
119.000000
0
VERTEX
5
56e
100
AcDbEntity
8
1
100
AcDbVertex
100
AcDb2dVertex
62
5
10
87.000000
20
113.000000
0
SEQEND
5
56f
100
AcDbEntity
8
1
0
POLYLINE
5
570
100
AcDbEntity
8
1
6
CONTINUOUS
62
5
100
AcDb2dPolyline
66
1
10
0.0
20
0.0
30
0.0
70
0
0
VERTEX
5
571
100
AcDbEntity
8
1
100
AcDbVertex
100
AcDb2dVertex
62
5
10
87.000000
20
160.000000
0
VERTEX
5
572
100
AcDbEntity
8
1
100
AcDbVertex
100
AcDb2dVertex
62
5
10
87.000000
20
207.000000
0
VERTEX
5
573
100
AcDbEntity
8
1
100
AcDbVertex
100
AcDb2dVertex
62
5
10
88.000000
20
201.000000
0
VERTEX
5
574
100
AcDbEntity
8
1
100
AcDbVertex
100
AcDb2dVertex
62
5
10
86.000000
20
201.000000
0
VERTEX
5
575
100
AcDbEntity
8
1
100
AcDbVertex
100
AcDb2dVertex
62
5
10
87.000000
20
207.000000
0
VERTEX
5
576
100
AcDbEntity
8
1
100
AcDbVertex
100
AcDb2dVertex
62
5
10
87.500000
20
201.000000
0
VERTEX
5
577
100
AcDbEntity
8
1
100
AcDbVertex
100
AcDb2dVertex
62
5
10
86.500000
20
201.000000
0
VERTEX
5
578
100
AcDbEntity
8
1
100
AcDbVertex
100
AcDb2dVertex
62
5
10
87.000000
20
207.000000
0
SEQEND
5
579
100
AcDbEntity
8
1
0
LINE
5
57a
100
AcDbEntity
8
1
100
AcDbLine
6
CONTINUOUS
62
5
10
209.000000
20
208.500000
11
209.000000
21
234.000000
0
LINE
5
57b
100
AcDbEntity
8
1
100
AcDbLine
6
CONTINUOUS
62
5
10
228.000000
20
159.950000
11
228.000000
21
234.000000
0
POLYLINE
5
57c
100
AcDbEntity
8
1
6
CONTINUOUS
62
5
100
AcDb2dPolyline
66
1
10
0.0
20
0.0
30
0.0
70
0
0
VERTEX
5
57d
100
AcDbEntity
8
1
100
AcDbVertex
100
AcDb2dVertex
62
5
10
249.250000
20
232.000000
0
VERTEX
5
57e
100
AcDbEntity
8
1
100
AcDbVertex
100
AcDb2dVertex
62
5
10
228.000000
20
232.000000
0
VERTEX
5
57f
100
AcDbEntity
8
1
100
AcDbVertex
100
AcDb2dVertex
62
5
10
234.000000
20
233.000000
0
VERTEX
5
580
100
AcDbEntity
8
1
100
AcDbVertex
100
AcDb2dVertex
62
5
10
234.000000
20
231.000000
0
VERTEX
5
581
100
AcDbEntity
8
1
100
AcDbVertex
100
AcDb2dVertex
62
5
10
228.000000
20
232.000000
0
VERTEX
5
582
100
AcDbEntity
8
1
100
AcDbVertex
100
AcDb2dVertex
62
5
10
234.000000
20
232.500000
0
VERTEX
5
583
100
AcDbEntity
8
1
100
AcDbVertex
100
AcDb2dVertex
62
5
10
234.000000
20
231.500000
0
VERTEX
5
584
100
AcDbEntity
8
1
100
AcDbVertex
100
AcDb2dVertex
62
5
10
228.000000
20
232.000000
0
SEQEND
5
585
100
AcDbEntity
8
1
0
LINE
5
586
100
AcDbEntity
8
1
100
AcDbLine
6
CONTINUOUS
62
5
10
228.000000
20
232.000000
11
209.000000
21
232.000000
0
LINE
5
587
100
AcDbEntity
8
1
100
AcDbLine
6
CONTINUOUS
62
5
10
204.000000
20
232.000000
11
209.000000
21
232.000000
0
POLYLINE
5
588
100
AcDbEntity
8
1
6
CONTINUOUS
62
5
100
AcDb2dPolyline
66
1
10
0.0
20
0.0
30
0.0
70
0
0
VERTEX
5
589
100
AcDbEntity
8
1
100
AcDbVertex
100
AcDb2dVertex
62
5
10
210.000000
20
232.500000
0
VERTEX
5
58a
100
AcDbEntity
8
1
100
AcDbVertex
100
AcDb2dVertex
62
5
10
210.000000
20
231.500000
0
VERTEX
5
58b
100
AcDbEntity
8
1
100
AcDbVertex
100
AcDb2dVertex
62
5
10
209.500000
20
231.000000
0
VERTEX
5
58c
100
AcDbEntity
8
1
100
AcDbVertex
100
AcDb2dVertex
62
5
10
208.500000
20
231.000000
0
VERTEX
5
58d
100
AcDbEntity
8
1
100
AcDbVertex
100
AcDb2dVertex
62
5
10
208.000000
20
231.500000
0
VERTEX
5
58e
100
AcDbEntity
8
1
100
AcDbVertex
100
AcDb2dVertex
62
5
10
208.000000
20
232.500000
0
VERTEX
5
58f
100
AcDbEntity
8
1
100
AcDbVertex
100
AcDb2dVertex
62
5
10
208.500000
20
233.000000
0
VERTEX
5
590
100
AcDbEntity
8
1
100
AcDbVertex
100
AcDb2dVertex
62
5
10
209.500000
20
233.000000
0
VERTEX
5
591
100
AcDbEntity
8
1
100
AcDbVertex
100
AcDb2dVertex
62
5
10
210.000000
20
232.500000
0
VERTEX
5
592
100
AcDbEntity
8
1
100
AcDbVertex
100
AcDb2dVertex
62
5
10
208.000000
20
231.500000
0
SEQEND
5
593
100
AcDbEntity
8
1
0
LINE
5
594
100
AcDbEntity
8
1
100
AcDbLine
6
CONTINUOUS
62
5
10
208.000000
20
232.500000
11
210.000000
21
231.500000
0
LINE
5
595
100
AcDbEntity
8
1
100
AcDbLine
6
CONTINUOUS
62
5
10
209.500000
20
231.000000
11
208.500000
21
233.000000
0
LINE
5
596
100
AcDbEntity
8
1
100
AcDbLine
6
CONTINUOUS
62
5
10
209.500000
20
233.000000
11
208.500000
21
231.000000
0
LINE
5
597
100
AcDbEntity
8
1
100
AcDbLine
6
CONTINUOUS
62
5
10
209.000000
20
208.500000
11
209.000000
21
234.000000
0
LINE
5
598
100
AcDbEntity
8
1
100
AcDbLine
6
CONTINUOUS
62
5
10
202.000000
20
178.050000
11
202.000000
21
234.000000
0
POLYLINE
5
599
100
AcDbEntity
8
1
6
CONTINUOUS
62
5
100
AcDb2dPolyline
66
1
10
0.0
20
0.0
30
0.0
70
0
0
VERTEX
5
59a
100
AcDbEntity
8
1
100
AcDbVertex
100
AcDb2dVertex
62
5
10
185.750000
20
232.000000
0
VERTEX
5
59b
100
AcDbEntity
8
1
100
AcDbVertex
100
AcDb2dVertex
62
5
10
202.000000
20
232.000000
0
VERTEX
5
59c
100
AcDbEntity
8
1
100
AcDbVertex
100
AcDb2dVertex
62
5
10
196.000000
20
231.000000
0
VERTEX
5
59d
100
AcDbEntity
8
1
100
AcDbVertex
100
AcDb2dVertex
62
5
10
196.000000
20
233.000000
0
VERTEX
5
59e
100
AcDbEntity
8
1
100
AcDbVertex
100
AcDb2dVertex
62
5
10
202.000000
20
232.000000
0
VERTEX
5
59f
100
AcDbEntity
8
1
100
AcDbVertex
100
AcDb2dVertex
62
5
10
196.000000
20
231.500000
0
VERTEX
5
5a0
100
AcDbEntity
8
1
100
AcDbVertex
100
AcDb2dVertex
62
5
10
196.000000
20
232.500000
0
VERTEX
5
5a1
100
AcDbEntity
8
1
100
AcDbVertex
100
AcDb2dVertex
62
5
10
202.000000
20
232.000000
0
SEQEND
5
5a2
100
AcDbEntity
8
1
0
LINE
5
5a3
100
AcDbEntity
8
1
100
AcDbLine
6
CONTINUOUS
62
5
10
202.000000
20
232.000000
11
209.000000
21
232.000000
0
LINE
5
5a4
100
AcDbEntity
8
1
100
AcDbLine
6
CONTINUOUS
62
5
10
214.000000
20
232.000000
11
209.000000
21
232.000000
0
POLYLINE
5
5a5
100
AcDbEntity
8
1
6
CONTINUOUS
62
5
100
AcDb2dPolyline
66
1
10
0.0
20
0.0
30
0.0
70
0
0
VERTEX
5
5a6
100
AcDbEntity
8
1
100
AcDbVertex
100
AcDb2dVertex
62
5
10
208.000000
20
231.500000
0
VERTEX
5
5a7
100
AcDbEntity
8
1
100
AcDbVertex
100
AcDb2dVertex
62
5
10
208.000000
20
232.500000
0
VERTEX
5
5a8
100
AcDbEntity
8
1
100
AcDbVertex
100
AcDb2dVertex
62
5
10
208.500000
20
233.000000
0
VERTEX
5
5a9
100
AcDbEntity
8
1
100
AcDbVertex
100
AcDb2dVertex
62
5
10
209.500000
20
233.000000
0
VERTEX
5
5aa
100
AcDbEntity
8
1
100
AcDbVertex
100
AcDb2dVertex
62
5
10
210.000000
20
232.500000
0
VERTEX
5
5ab
100
AcDbEntity
8
1
100
AcDbVertex
100
AcDb2dVertex
62
5
10
210.000000
20
231.500000
0
VERTEX
5
5ac
100
AcDbEntity
8
1
100
AcDbVertex
100
AcDb2dVertex
62
5
10
209.500000
20
231.000000
0
VERTEX
5
5ad
100
AcDbEntity
8
1
100
AcDbVertex
100
AcDb2dVertex
62
5
10
208.500000
20
231.000000
0
VERTEX
5
5ae
100
AcDbEntity
8
1
100
AcDbVertex
100
AcDb2dVertex
62
5
10
208.000000
20
231.500000
0
VERTEX
5
5af
100
AcDbEntity
8
1
100
AcDbVertex
100
AcDb2dVertex
62
5
10
210.000000
20
232.500000
0
SEQEND
5
5b0
100
AcDbEntity
8
1
0
LINE
5
5b1
100
AcDbEntity
8
1
100
AcDbLine
6
CONTINUOUS
62
5
10
210.000000
20
231.500000
11
208.000000
21
232.500000
0
LINE
5
5b2
100
AcDbEntity
8
1
100
AcDbLine
6
CONTINUOUS
62
5
10
208.500000
20
233.000000
11
209.500000
21
231.000000
0
LINE
5
5b3
100
AcDbEntity
8
1
100
AcDbLine
6
CONTINUOUS
62
5
10
208.500000
20
231.000000
11
209.500000
21
233.000000
0
LINE
5
5b4
100
AcDbEntity
8
1
100
AcDbLine
6
CONTINUOUS
62
5
10
112.000000
20
172.000000
11
112.000000
21
234.000000
0
LINE
5
5b5
100
AcDbEntity
8
1
100
AcDbLine
6
CONTINUOUS
62
5
10
147.000000
20
172.000000
11
147.000000
21
234.000000
0
POLYLINE
5
5b6
100
AcDbEntity
8
1
6
CONTINUOUS
62
5
100
AcDb2dPolyline
66
1
10
0.0
20
0.0
30
0.0
70
0
0
VERTEX
5
5b7
100
AcDbEntity
8
1
100
AcDbVertex
100
AcDb2dVertex
62
5
10
129.500000
20
232.000000
0
VERTEX
5
5b8
100
AcDbEntity
8
1
100
AcDbVertex
100
AcDb2dVertex
62
5
10
112.000000
20
232.000000
0
VERTEX
5
5b9
100
AcDbEntity
8
1
100
AcDbVertex
100
AcDb2dVertex
62
5
10
118.000000
20
233.000000
0
VERTEX
5
5ba
100
AcDbEntity
8
1
100
AcDbVertex
100
AcDb2dVertex
62
5
10
118.000000
20
231.000000
0
VERTEX
5
5bb
100
AcDbEntity
8
1
100
AcDbVertex
100
AcDb2dVertex
62
5
10
112.000000
20
232.000000
0
VERTEX
5
5bc
100
AcDbEntity
8
1
100
AcDbVertex
100
AcDb2dVertex
62
5
10
118.000000
20
232.500000
0
VERTEX
5
5bd
100
AcDbEntity
8
1
100
AcDbVertex
100
AcDb2dVertex
62
5
10
118.000000
20
231.500000
0
VERTEX
5
5be
100
AcDbEntity
8
1
100
AcDbVertex
100
AcDb2dVertex
62
5
10
112.000000
20
232.000000
0
SEQEND
5
5bf
100
AcDbEntity
8
1
0
POLYLINE
5
5c0
100
AcDbEntity
8
1
6
CONTINUOUS
62
5
100
AcDb2dPolyline
66
1
10
0.0
20
0.0
30
0.0
70
0
0
VERTEX
5
5c1
100
AcDbEntity
8
1
100
AcDbVertex
100
AcDb2dVertex
62
5
10
129.500000
20
232.000000
0
VERTEX
5
5c2
100
AcDbEntity
8
1
100
AcDbVertex
100
AcDb2dVertex
62
5
10
147.000000
20
232.000000
0
VERTEX
5
5c3
100
AcDbEntity
8
1
100
AcDbVertex
100
AcDb2dVertex
62
5
10
141.000000
20
231.000000
0
VERTEX
5
5c4
100
AcDbEntity
8
1
100
AcDbVertex
100
AcDb2dVertex
62
5
10
141.000000
20
233.000000
0
VERTEX
5
5c5
100
AcDbEntity
8
1
100
AcDbVertex
100
AcDb2dVertex
62
5
10
147.000000
20
232.000000
0
VERTEX
5
5c6
100
AcDbEntity
8
1
100
AcDbVertex
100
AcDb2dVertex
62
5
10
141.000000
20
231.500000
0
VERTEX
5
5c7
100
AcDbEntity
8
1
100
AcDbVertex
100
AcDb2dVertex
62
5
10
141.000000
20
232.500000
0
VERTEX
5
5c8
100
AcDbEntity
8
1
100
AcDbVertex
100
AcDb2dVertex
62
5
10
147.000000
20
232.000000
0
SEQEND
5
5c9
100
AcDbEntity
8
1
0
ARC
5
5ca
100
AcDbEntity
8
1
100
AcDbCircle
6
CONTINUOUS
62
5
10
138.500000
20
123.000000
40
1.000000
100
AcDbArc
50
0.000000
51
89.999999
0
POLYLINE
5
5cb
100
AcDbEntity
8
1
6
CONTINUOUS
62
5
100
AcDb2dPolyline
66
1
10
0.0
20
0.0
30
0.0
70
0
0
VERTEX
5
5cc
100
AcDbEntity
8
1
100
AcDbVertex
100
AcDb2dVertex
62
5
10
138.500000
20
124.000000
0
VERTEX
5
5cd
100
AcDbEntity
8
1
100
AcDbVertex
100
AcDb2dVertex
62
5
10
137.750000
20
124.000000
0
VERTEX
5
5ce
100
AcDbEntity
8
1
100
AcDbVertex
100
AcDb2dVertex
62
5
10
137.750000
20
142.000000
0
SEQEND
5
5cf
100
AcDbEntity
8
1
0
POLYLINE
5
5d0
100
AcDbEntity
8
1
6
CONTINUOUS
62
5
100
AcDb2dPolyline
66
1
10
0.0
20
0.0
30
0.0
70
0
0
VERTEX
5
5d1
100
AcDbEntity
8
1
100
AcDbVertex
100
AcDb2dVertex
62
5
10
137.750000
20
178.000000
0
VERTEX
5
5d2
100
AcDbEntity
8
1
100
AcDbVertex
100
AcDb2dVertex
62
5
10
137.750000
20
196.000000
0
VERTEX
5
5d3
100
AcDbEntity
8
1
100
AcDbVertex
100
AcDb2dVertex
62
5
10
138.500000
20
196.000000
0
SEQEND
5
5d4
100
AcDbEntity
8
1
0
ARC
5
5d5
100
AcDbEntity
8
1
100
AcDbCircle
6
CONTINUOUS
62
5
10
138.500000
20
197.000000
40
1.000000
100
AcDbArc
50
-89.999999
51
0.000000
0
POLYLINE
5
5d6
100
AcDbEntity
8
1
6
CONTINUOUS
62
5
100
AcDb2dPolyline
66
1
10
0.0
20
0.0
30
0.0
70
0
0
VERTEX
5
5d7
100
AcDbEntity
8
1
100
AcDbVertex
100
AcDb2dVertex
62
5
10
139.500000
20
197.000000
0
VERTEX
5
5d8
100
AcDbEntity
8
1
100
AcDbVertex
100
AcDb2dVertex
62
5
10
139.500000
20
205.000000
0
VERTEX
5
5d9
100
AcDbEntity
8
1
100
AcDbVertex
100
AcDb2dVertex
62
5
10
137.500000
20
207.000000
0
VERTEX
5
5da
100
AcDbEntity
8
1
100
AcDbVertex
100
AcDb2dVertex
62
5
10
121.500000
20
207.000000
0
VERTEX
5
5db
100
AcDbEntity
8
1
100
AcDbVertex
100
AcDb2dVertex
62
5
10
119.500000
20
205.000000
0
VERTEX
5
5dc
100
AcDbEntity
8
1
100
AcDbVertex
100
AcDb2dVertex
62
5
10
119.500000
20
197.000000
0
SEQEND
5
5dd
100
AcDbEntity
8
1
0
ARC
5
5de
100
AcDbEntity
8
1
100
AcDbCircle
6
CONTINUOUS
62
5
10
120.500000
20
197.000000
40
1.000000
100
AcDbArc
50
179.999998
51
-89.999999
0
POLYLINE
5
5df
100
AcDbEntity
8
1
6
CONTINUOUS
62
5
100
AcDb2dPolyline
66
1
10
0.0
20
0.0
30
0.0
70
0
0
VERTEX
5
5e0
100
AcDbEntity
8
1
100
AcDbVertex
100
AcDb2dVertex
62
5
10
120.500000
20
196.000000
0
VERTEX
5
5e1
100
AcDbEntity
8
1
100
AcDbVertex
100
AcDb2dVertex
62
5
10
121.250000
20
196.000000
0
VERTEX
5
5e2
100
AcDbEntity
8
1
100
AcDbVertex
100
AcDb2dVertex
62
5
10
121.250000
20
178.000000
0
SEQEND
5
5e3
100
AcDbEntity
8
1
0
POLYLINE
5
5e4
100
AcDbEntity
8
1
6
CONTINUOUS
62
5
100
AcDb2dPolyline
66
1
10
0.0
20
0.0
30
0.0
70
0
0
VERTEX
5
5e5
100
AcDbEntity
8
1
100
AcDbVertex
100
AcDb2dVertex
62
5
10
121.250000
20
142.000000
0
VERTEX
5
5e6
100
AcDbEntity
8
1
100
AcDbVertex
100
AcDb2dVertex
62
5
10
121.250000
20
124.000000
0
VERTEX
5
5e7
100
AcDbEntity
8
1
100
AcDbVertex
100
AcDb2dVertex
62
5
10
120.500000
20
124.000000
0
SEQEND
5
5e8
100
AcDbEntity
8
1
0
ARC
5
5e9
100
AcDbEntity
8
1
100
AcDbCircle
6
CONTINUOUS
62
5
10
120.500000
20
123.000000
40
1.000000
100
AcDbArc
50
89.999999
51
179.999998
0
POLYLINE
5
5ea
100
AcDbEntity
8
1
6
CONTINUOUS
62
5
100
AcDb2dPolyline
66
1
10
0.0
20
0.0
30
0.0
70
0
0
VERTEX
5
5eb
100
AcDbEntity
8
1
100
AcDbVertex
100
AcDb2dVertex
62
5
10
119.500000
20
123.000000
0
VERTEX
5
5ec
100
AcDbEntity
8
1
100
AcDbVertex
100
AcDb2dVertex
62
5
10
119.500000
20
115.000000
0
VERTEX
5
5ed
100
AcDbEntity
8
1
100
AcDbVertex
100
AcDb2dVertex
62
5
10
121.500000
20
113.000000
0
VERTEX
5
5ee
100
AcDbEntity
8
1
100
AcDbVertex
100
AcDb2dVertex
62
5
10
137.500000
20
113.000000
0
VERTEX
5
5ef
100
AcDbEntity
8
1
100
AcDbVertex
100
AcDb2dVertex
62
5
10
139.500000
20
115.000000
0
VERTEX
5
5f0
100
AcDbEntity
8
1
100
AcDbVertex
100
AcDb2dVertex
62
5
10
139.500000
20
123.000000
0
SEQEND
5
5f1
100
AcDbEntity
8
1
0
ARC
5
5f2
100
AcDbEntity
8
1
100
AcDbCircle
6
CONTINUOUS
62
5
10
209.000000
20
179.200000
40
1.200000
100
AcDbArc
50
179.999998
51
-146.442689
0
POLYLINE
5
5f3
100
AcDbEntity
8
1
6
CONTINUOUS
62
5
100
AcDb2dPolyline
66
1
10
0.0
20
0.0
30
0.0
70
0
0
VERTEX
5
5f4
100
AcDbEntity
8
1
100
AcDbVertex
100
AcDb2dVertex
62
5
10
207.800000
20
179.200000
0
VERTEX
5
5f5
100
AcDbEntity
8
1
100
AcDbVertex
100
AcDb2dVertex
62
5
10
207.800000
20
207.000000
0
VERTEX
5
5f6
100
AcDbEntity
8
1
100
AcDbVertex
100
AcDb2dVertex
62
5
10
209.000000
20
207.000000
0
VERTEX
5
5f7
100
AcDbEntity
8
1
100
AcDbVertex
100
AcDb2dVertex
62
5
10
209.000000
20
179.250000
0
VERTEX
5
5f8
100
AcDbEntity
8
1
100
AcDbVertex
100
AcDb2dVertex
62
5
10
224.300000
20
179.250000
0
SEQEND
5
5f9
100
AcDbEntity
8
1
0
ARC
5
5fa
100
AcDbEntity
8
1
100
AcDbCircle
6
CONTINUOUS
62
5
10
224.300000
20
177.050000
40
2.200000
100
AcDbArc
50
55.717391
51
89.999999
0
POLYLINE
5
5fb
100
AcDbEntity
8
1
6
DOT2
62
5
100
AcDb2dPolyline
66
1
10
0.0
20
0.0
30
0.0
70
0
0
VERTEX
5
5fc
100
AcDbEntity
8
1
100
AcDbVertex
100
AcDb2dVertex
62
5
10
340.000000
20
10.000000
0
VERTEX
5
5fd
100
AcDbEntity
8
1
100
AcDbVertex
100
AcDb2dVertex
62
5
10
340.000000
20
0.000000
0
VERTEX
5
5fe
100
AcDbEntity
8
1
100
AcDbVertex
100
AcDb2dVertex
62
5
10
330.000000
20
0.000000
0
SEQEND
5
5ff
100
AcDbEntity
8
1
0
POLYLINE
5
600
100
AcDbEntity
8
1
6
DOT2
62
5
100
AcDb2dPolyline
66
1
10
0.0
20
0.0
30
0.0
70
0
0
VERTEX
5
601
100
AcDbEntity
8
1
100
AcDbVertex
100
AcDb2dVertex
62
5
10
10.000000
20
0.000000
0
VERTEX
5
602
100
AcDbEntity
8
1
100
AcDbVertex
100
AcDb2dVertex
62
5
10
0.000000
20
0.000000
0
VERTEX
5
603
100
AcDbEntity
8
1
100
AcDbVertex
100
AcDb2dVertex
62
5
10
0.000000
20
10.000000
0
SEQEND
5
604
100
AcDbEntity
8
1
0
POLYLINE
5
605
100
AcDbEntity
8
1
6
DOT2
62
5
100
AcDb2dPolyline
66
1
10
0.0
20
0.0
30
0.0
70
0
0
VERTEX
5
606
100
AcDbEntity
8
1
100
AcDbVertex
100
AcDb2dVertex
62
5
10
0.000000
20
350.000000
0
VERTEX
5
607
100
AcDbEntity
8
1
100
AcDbVertex
100
AcDb2dVertex
62
5
10
0.000000
20
360.000000
0
VERTEX
5
608
100
AcDbEntity
8
1
100
AcDbVertex
100
AcDb2dVertex
62
5
10
10.000000
20
360.000000
0
SEQEND
5
609
100
AcDbEntity
8
1
0
POLYLINE
5
60a
100
AcDbEntity
8
1
6
DOT2
62
5
100
AcDb2dPolyline
66
1
10
0.0
20
0.0
30
0.0
70
0
0
VERTEX
5
60b
100
AcDbEntity
8
1
100
AcDbVertex
100
AcDb2dVertex
62
5
10
330.000000
20
360.000000
0
VERTEX
5
60c
100
AcDbEntity
8
1
100
AcDbVertex
100
AcDb2dVertex
62
5
10
340.000000
20
360.000000
0
VERTEX
5
60d
100
AcDbEntity
8
1
100
AcDbVertex
100
AcDb2dVertex
62
5
10
340.000000
20
350.000000
0
SEQEND
5
60e
100
AcDbEntity
8
1
0
POLYLINE
5
60f
100
AcDbEntity
8
1
6
CONTINUOUS
62
5
100
AcDb2dPolyline
66
1
10
0.0
20
0.0
30
0.0
70
1
0
VERTEX
5
610
100
AcDbEntity
8
1
100
AcDbVertex
100
AcDb2dVertex
62
5
10
10.000000
20
10.000000
0
VERTEX
5
611
100
AcDbEntity
8
1
100
AcDbVertex
100
AcDb2dVertex
62
5
10
10.000000
20
350.000000
0
VERTEX
5
612
100
AcDbEntity
8
1
100
AcDbVertex
100
AcDb2dVertex
62
5
10
330.000000
20
350.000000
0
VERTEX
5
613
100
AcDbEntity
8
1
100
AcDbVertex
100
AcDb2dVertex
62
5
10
330.000000
20
10.000000
0
VERTEX
5
614
100
AcDbEntity
8
1
100
AcDbVertex
100
AcDb2dVertex
62
5
10
10.000000
20
10.000000
0
SEQEND
5
615
100
AcDbEntity
8
1
0
LINE
5
616
100
AcDbEntity
8
1
100
AcDbLine
6
DOT2
62
6
10
2590.313965
20
-405.838889
11
2590.469028
21
-405.683825
0
LINE
5
617
100
AcDbEntity
8
1
100
AcDbLine
6
DOT2
62
6
10
2590.541385
20
-407.308524
11
2590.632924
21
-407.216986
0
LINE
5
618
100
AcDbEntity
8
1
100
AcDbLine
6
DOT2
62
6
10
2590.313965
20
-407.253102
11
2590.632924
21
-406.934143
0
LINE
5
619
100
AcDbEntity
8
1
100
AcDbLine
6
DOT2
62
6
10
2590.313965
20
-406.970259
11
2590.632924
21
-406.651300
0
LINE
5
61a
100
AcDbEntity
8
1
100
AcDbLine
6
DOT2
62
6
10
2590.313965
20
-406.687417
11
2590.632924
21
-406.368457
0
LINE
5
61b
100
AcDbEntity
8
1
100
AcDbLine
6
DOT2
62
6
10
2590.313965
20
-406.404574
11
2590.632924
21
-406.085615
0
LINE
5
61c
100
AcDbEntity
8
1
100
AcDbLine
6
DOT2
62
6
10
2590.313965
20
-406.121731
11
2590.723263
21
-405.712432
0
LINE
5
61d
100
AcDbEntity
8
1
100
AcDbLine
6
DOT2
62
6
10
2590.648809
20
-405.688855
11
2590.782576
21
-405.822622
0
LINE
5
61e
100
AcDbEntity
8
1
100
AcDbLine
6
DOT2
62
6
10
2590.313965
20
-407.051067
11
2590.571422
21
-407.308524
0
LINE
5
61f
100
AcDbEntity
8
1
100
AcDbLine
6
DOT2
62
6
10
2590.313965
20
-406.768224
11
2590.632924
21
-407.087184
0
LINE
5
620
100
AcDbEntity
8
1
100
AcDbLine
6
DOT2
62
6
10
2590.313965
20
-406.485382
11
2590.632924
21
-406.804341
0
LINE
5
621
100
AcDbEntity
8
1
100
AcDbLine
6
DOT2
62
6
10
2590.313965
20
-406.202539
11
2590.632924
21
-406.521498
0
LINE
5
622
100
AcDbEntity
8
1
100
AcDbLine
6
DOT2
62
6
10
2590.313965
20
-405.919696
11
2590.632924
21
-406.238656
0
LINE
5
623
100
AcDbEntity
8
1
100
AcDbLine
6
DOT2
62
6
10
2590.360936
20
-405.683825
11
2590.632924
21
-405.955813
0
LINE
5
624
100
AcDbEntity
8
1
100
AcDbLine
6
DOT2
62
6
10
2591.290778
20
-405.427761
11
2591.346197
21
-405.372341
0
LINE
5
625
100
AcDbEntity
8
1
100
AcDbLine
6
DOT2
62
6
10
2591.274073
20
-407.990051
11
2591.609737
21
-407.654386
0
LINE
5
626
100
AcDbEntity
8
1
100
AcDbLine
6
DOT2
62
6
10
2591.127094
20
-407.854186
11
2591.609737
21
-407.371543
0
LINE
5
627
100
AcDbEntity
8
1
100
AcDbLine
6
DOT2
62
6
10
2590.941126
20
-407.757312
11
2591.127801
21
-407.570637
0
LINE
5
628
100
AcDbEntity
8
1
100
AcDbLine
6
DOT2
62
6
10
2591.290778
20
-407.407660
11
2591.609737
21
-407.088701
0
LINE
5
629
100
AcDbEntity
8
1
100
AcDbLine
6
DOT2
62
6
10
2590.724456
20
-407.691139
11
2590.860076
21
-407.555519
0
LINE
5
62a
100
AcDbEntity
8
1
100
AcDbLine
6
DOT2
62
6
10
2591.290778
20
-407.124817
11
2591.609737
21
-406.805858
0
LINE
5
62b
100
AcDbEntity
8
1
100
AcDbLine
6
DOT2
62
6
10
2591.290778
20
-406.841975
11
2591.609737
21
-406.523015
0
LINE
5
62c
100
AcDbEntity
8
1
100
AcDbLine
6
DOT2
62
6
10
2591.290778
20
-406.559132
11
2591.609737
21
-406.240173
0
LINE
5
62d
100
AcDbEntity
8
1
100
AcDbLine
6
DOT2
62
6
10
2591.290778
20
-406.276289
11
2591.609737
21
-405.957330
0
LINE
5
62e
100
AcDbEntity
8
1
100
AcDbLine
6
DOT2
62
6
10
2591.290778
20
-405.993446
11
2591.609737
21
-405.674487
0
LINE
5
62f
100
AcDbEntity
8
1
100
AcDbLine
6
DOT2
62
6
10
2591.697582
20
-405.586642
11
2591.785414
21
-405.498810
0
LINE
5
630
100
AcDbEntity
8
1
100
AcDbLine
6
DOT2
62
6
10
2591.290778
20
-405.710604
11
2591.629040
21
-405.372341
0
LINE
5
631
100
AcDbEntity
8
1
100
AcDbLine
6
DOT2
62
6
10
2591.463666
20
-405.372341
11
2591.677967
21
-405.586642
0
LINE
5
632
100
AcDbEntity
8
1
100
AcDbLine
6
DOT2
62
6
10
2590.818117
20
-407.555219
11
2591.095884
21
-407.832986
0
LINE
5
633
100
AcDbEntity
8
1
100
AcDbLine
6
DOT2
62
6
10
2591.149982
20
-407.887084
11
2591.252948
21
-407.990051
0
LINE
5
634
100
AcDbEntity
8
1
100
AcDbLine
6
DOT2
62
6
10
2591.116426
20
-407.570686
11
2591.475717
21
-407.929977
0
LINE
5
635
100
AcDbEntity
8
1
100
AcDbLine
6
DOT2
62
6
10
2591.290778
20
-407.462195
11
2591.609737
21
-407.781154
0
LINE
5
636
100
AcDbEntity
8
1
100
AcDbLine
6
DOT2
62
6
10
2591.290778
20
-407.179352
11
2591.609737
21
-407.498311
0
LINE
5
637
100
AcDbEntity
8
1
100
AcDbLine
6
DOT2
62
6
10
2591.290778
20
-406.896509
11
2591.609737
21
-407.215469
0
LINE
5
638
100
AcDbEntity
8
1
100
AcDbLine
6
DOT2
62
6
10
2591.290778
20
-406.613666
11
2591.609737
21
-406.932626
0
LINE
5
639
100
AcDbEntity
8
1
100
AcDbLine
6
DOT2
62
6
10
2591.290778
20
-406.330824
11
2591.609737
21
-406.649783
0
LINE
5
63a
100
AcDbEntity
8
1
100
AcDbLine
6
DOT2
62
6
10
2591.290778
20
-406.047981
11
2591.609737
21
-406.366940
0
LINE
5
63b
100
AcDbEntity
8
1
100
AcDbLine
6
DOT2
62
6
10
2591.290778
20
-405.765138
11
2591.609737
21
-406.084098
0
LINE
5
63c
100
AcDbEntity
8
1
100
AcDbLine
6
DOT2
62
6
10
2591.290778
20
-405.482296
11
2591.609737
21
-405.801255
0
LINE
5
63d
100
AcDbEntity
8
1
100
AcDbLine
6
DOT2
62
6
10
2590.421304
20
-410.257033
11
2590.517166
21
-410.161171
0
LINE
5
63e
100
AcDbEntity
8
1
100
AcDbLine
6
DOT2
62
6
10
2590.569715
20
-411.522835
11
2590.709465
21
-411.383085
0
LINE
5
63f
100
AcDbEntity
8
1
100
AcDbLine
6
DOT2
62
6
10
2590.421304
20
-411.388404
11
2590.709465
21
-411.100242
0
LINE
5
640
100
AcDbEntity
8
1
100
AcDbLine
6
DOT2
62
6
10
2590.421304
20
-411.105561
11
2590.709465
21
-410.817400
0
LINE
5
641
100
AcDbEntity
8
1
100
AcDbLine
6
DOT2
62
6
10
2590.421304
20
-410.822718
11
2590.709465
21
-410.534557
0
LINE
5
642
100
AcDbEntity
8
1
100
AcDbLine
6
DOT2
62
6
10
2590.421304
20
-410.539876
11
2590.761313
21
-410.199866
0
LINE
5
643
100
AcDbEntity
8
1
100
AcDbLine
6
DOT2
62
6
10
2590.543092
20
-411.522835
11
2590.421304
21
-411.401047
0
LINE
5
644
100
AcDbEntity
8
1
100
AcDbLine
6
DOT2
62
6
10
2590.788946
20
-410.354476
11
2590.595641
21
-410.161171
0
LINE
5
645
100
AcDbEntity
8
1
100
AcDbLine
6
DOT2
62
6
10
2590.709465
20
-410.557837
11
2590.421304
21
-410.269676
0
LINE
5
646
100
AcDbEntity
8
1
100
AcDbLine
6
DOT2
62
6
10
2590.709465
20
-410.840680
11
2590.421304
21
-410.552519
0
LINE
5
647
100
AcDbEntity
8
1
100
AcDbLine
6
DOT2
62
6
10
2590.709465
20
-411.123523
11
2590.421304
21
-410.835361
0
LINE
5
648
100
AcDbEntity
8
1
100
AcDbLine
6
DOT2
62
6
10
2590.709465
20
-411.406366
11
2590.421304
21
-411.118204
0
LINE
5
649
100
AcDbEntity
8
1
100
AcDbLine
6
DOT2
62
6
10
2591.229982
20
-410.014040
11
2591.239108
21
-410.004914
0
LINE
5
64a
100
AcDbEntity
8
1
100
AcDbLine
6
DOT2
62
6
10
2591.150130
20
-412.073791
11
2591.538437
21
-411.685484
0
LINE
5
64b
100
AcDbEntity
8
1
100
AcDbLine
6
DOT2
62
6
10
2591.041508
20
-411.899570
11
2591.538437
21
-411.402642
0
LINE
5
64c
100
AcDbEntity
8
1
100
AcDbLine
6
DOT2
62
6
10
2590.836865
20
-411.821371
11
2590.985631
21
-411.672605
0
LINE
5
64d
100
AcDbEntity
8
1
100
AcDbLine
6
DOT2
62
6
10
2591.229982
20
-411.428253
11
2591.538437
21
-411.119799
0
LINE
5
64e
100
AcDbEntity
8
1
100
AcDbLine
6
DOT2
62
6
10
2590.685621
20
-411.689772
11
2590.727341
21
-411.648052
0
LINE
5
64f
100
AcDbEntity
8
1
100
AcDbLine
6
DOT2
62
6
10
2591.229982
20
-411.145411
11
2591.538437
21
-410.836956
0
LINE
5
650
100
AcDbEntity
8
1
100
AcDbLine
6
DOT2
62
6
10
2591.229982
20
-410.862568
11
2591.538437
21
-410.554114
0
LINE
5
651
100
AcDbEntity
8
1
100
AcDbLine
6
DOT2
62
6
10
2591.229982
20
-410.579725
11
2591.538437
21
-410.271271
0
LINE
5
652
100
AcDbEntity
8
1
100
AcDbLine
6
DOT2
62
6
10
2591.621435
20
-410.188272
11
2591.674400
21
-410.135307
0
LINE
5
653
100
AcDbEntity
8
1
100
AcDbLine
6
DOT2
62
6
10
2591.229982
20
-410.296883
11
2591.510908
21
-410.015957
0
LINE
5
654
100
AcDbEntity
8
1
100
AcDbLine
6
DOT2
62
6
10
2590.843185
20
-411.822928
11
2590.685621
21
-411.665364
0
LINE
5
655
100
AcDbEntity
8
1
100
AcDbLine
6
DOT2
62
6
10
2591.674400
20
-410.108559
11
2591.609366
21
-410.043525
0
LINE
5
656
100
AcDbEntity
8
1
100
AcDbLine
6
DOT2
62
6
10
2591.538437
20
-410.255438
11
2591.287913
21
-410.004914
0
LINE
5
657
100
AcDbEntity
8
1
100
AcDbLine
6
DOT2
62
6
10
2591.538437
20
-410.538281
11
2591.229982
21
-410.229826
0
LINE
5
658
100
AcDbEntity
8
1
100
AcDbLine
6
DOT2
62
6
10
2591.538437
20
-410.821123
11
2591.229982
21
-410.512669
0
LINE
5
659
100
AcDbEntity
8
1
100
AcDbLine
6
DOT2
62
6
10
2591.538437
20
-411.103966
11
2591.229982
21
-410.795512
0
LINE
5
65a
100
AcDbEntity
8
1
100
AcDbLine
6
DOT2
62
6
10
2591.538437
20
-411.386809
11
2591.229982
21
-411.078354
0
LINE
5
65b
100
AcDbEntity
8
1
100
AcDbLine
6
DOT2
62
6
10
2591.538437
20
-411.669652
11
2591.229982
21
-411.361197
0
LINE
5
65c
100
AcDbEntity
8
1
100
AcDbLine
6
DOT2
62
6
10
2591.497329
20
-411.911386
11
2591.216556
21
-411.630614
0
LINE
5
65d
100
AcDbEntity
8
1
100
AcDbLine
6
DOT2
62
6
10
2591.349257
20
-412.046158
11
2590.974662
21
-411.671562
0
LINE
5
65e
100
AcDbEntity
8
1
100
AcDbLine
6
DOT2
62
6
10
2588.823457
20
-414.683306
11
2588.892173
21
-414.614590
0
LINE
5
65f
100
AcDbEntity
8
1
100
AcDbLine
6
DOT2
62
6
10
2588.707401
20
-418.476318
11
2588.786571
21
-418.397148
0
LINE
5
660
100
AcDbEntity
8
1
100
AcDbLine
6
DOT2
62
6
10
2588.467970
20
-418.432906
11
2588.786571
21
-418.114305
0
LINE
5
661
100
AcDbEntity
8
1
100
AcDbLine
6
DOT2
62
6
10
2588.467970
20
-418.150064
11
2588.786571
21
-417.831462
0
LINE
5
662
100
AcDbEntity
8
1
100
AcDbLine
6
DOT2
62
6
10
2588.467970
20
-417.867221
11
2588.786571
21
-417.548620
0
LINE
5
663
100
AcDbEntity
8
1
100
AcDbLine
6
DOT2
62
6
10
2588.467970
20
-417.584378
11
2588.786571
21
-417.265777
0
LINE
5
664
100
AcDbEntity
8
1
100
AcDbLine
6
DOT2
62
6
10
2588.467970
20
-417.301535
11
2588.786571
21
-416.982934
0
LINE
5
665
100
AcDbEntity
8
1
100
AcDbLine
6
DOT2
62
6
10
2588.467970
20
-417.018693
11
2588.786571
21
-416.700092
0
LINE
5
666
100
AcDbEntity
8
1
100
AcDbLine
6
DOT2
62
6
10
2588.467970
20
-416.735850
11
2588.786571
21
-416.417249
0
LINE
5
667
100
AcDbEntity
8
1
100
AcDbLine
6
DOT2
62
6
10
2588.467970
20
-416.453007
11
2588.786571
21
-416.134406
0
LINE
5
668
100
AcDbEntity
8
1
100
AcDbLine
6
DOT2
62
6
10
2587.888483
20
-416.749652
11
2588.912492
21
-415.725643
0
LINE
5
669
100
AcDbEntity
8
1
100
AcDbLine
6
DOT2
62
6
10
2588.314305
20
-416.040987
11
2588.855528
21
-415.499764
0
LINE
5
66a
100
AcDbEntity
8
1
100
AcDbLine
6
DOT2
62
6
10
2588.552857
20
-415.519592
11
2589.075099
21
-414.997350
0
LINE
5
66b
100
AcDbEntity
8
1
100
AcDbLine
6
DOT2
62
6
10
2589.268783
20
-414.803666
11
2589.283076
21
-414.789373
0
LINE
5
66c
100
AcDbEntity
8
1
100
AcDbLine
6
DOT2
62
6
10
2588.712061
20
-415.077545
11
2589.111086
21
-414.678521
0
LINE
5
66d
100
AcDbEntity
8
1
100
AcDbLine
6
DOT2
62
6
10
2588.728451
20
-418.476318
11
2588.467970
21
-418.215837
0
LINE
5
66e
100
AcDbEntity
8
1
100
AcDbLine
6
DOT2
62
6
10
2589.283350
20
-414.788576
11
2589.198955
21
-414.704181
0
LINE
5
66f
100
AcDbEntity
8
1
100
AcDbLine
6
DOT2
62
6
10
2589.111774
20
-414.899843
11
2588.837465
21
-414.625535
0
LINE
5
670
100
AcDbEntity
8
1
100
AcDbLine
6
DOT2
62
6
10
2589.032910
20
-415.103821
11
2588.779610
21
-414.850522
0
LINE
5
671
100
AcDbEntity
8
1
100
AcDbLine
6
DOT2
62
6
10
2588.948253
20
-415.302007
11
2588.714888
21
-415.068642
0
LINE
5
672
100
AcDbEntity
8
1
100
AcDbLine
6
DOT2
62
6
10
2588.858039
20
-415.494637
11
2588.643694
21
-415.280292
0
LINE
5
673
100
AcDbEntity
8
1
100
AcDbLine
6
DOT2
62
6
10
2588.915184
20
-415.834624
11
2588.566365
21
-415.485805
0
LINE
5
674
100
AcDbEntity
8
1
100
AcDbLine
6
DOT2
62
6
10
2588.786571
20
-415.988854
11
2588.483187
21
-415.685470
0
LINE
5
675
100
AcDbEntity
8
1
100
AcDbLine
6
DOT2
62
6
10
2588.786571
20
-416.271697
11
2588.394405
21
-415.879531
0
LINE
5
676
100
AcDbEntity
8
1
100
AcDbLine
6
DOT2
62
6
10
2588.786571
20
-416.554539
11
2588.467970
21
-416.235938
0
LINE
5
677
100
AcDbEntity
8
1
100
AcDbLine
6
DOT2
62
6
10
2588.444451
20
-416.212419
11
2588.300229
21
-416.068197
0
LINE
5
678
100
AcDbEntity
8
1
100
AcDbLine
6
DOT2
62
6
10
2588.786571
20
-416.837382
11
2588.467970
21
-416.518781
0
LINE
5
679
100
AcDbEntity
8
1
100
AcDbLine
6
DOT2
62
6
10
2588.327888
20
-416.378699
11
2588.200838
21
-416.251649
0
LINE
5
67a
100
AcDbEntity
8
1
100
AcDbLine
6
DOT2
62
6
10
2588.786571
20
-417.120225
11
2588.467970
21
-416.801624
0
LINE
5
67b
100
AcDbEntity
8
1
100
AcDbLine
6
DOT2
62
6
10
2588.208034
20
-416.541688
11
2588.096385
21
-416.430039
0
LINE
5
67c
100
AcDbEntity
8
1
100
AcDbLine
6
DOT2
62
6
10
2588.786571
20
-417.403067
11
2588.467970
21
-417.084466
0
LINE
5
67d
100
AcDbEntity
8
1
100
AcDbLine
6
DOT2
62
6
10
2588.081993
20
-416.698489
11
2587.987000
21
-416.603497
0
LINE
5
67e
100
AcDbEntity
8
1
100
AcDbLine
6
DOT2
62
6
10
2588.786571
20
-417.685910
11
2588.467970
21
-417.367309
0
LINE
5
67f
100
AcDbEntity
8
1
100
AcDbLine
6
DOT2
62
6
10
2588.786571
20
-417.968753
11
2588.467970
21
-417.650152
0
LINE
5
680
100
AcDbEntity
8
1
100
AcDbLine
6
DOT2
62
6
10
2588.786571
20
-418.251596
11
2588.467970
21
-417.932995
0
LINE
5
681
100
AcDbEntity
8
1
100
AcDbLine
6
DOT2
62
6
10
2588.312087
20
-410.386351
11
2588.671313
21
-410.027125
0
LINE
5
682
100
AcDbEntity
8
1
100
AcDbLine
6
DOT2
62
6
10
2589.775868
20
-412.033840
11
2589.975491
21
-411.834216
0
LINE
5
683
100
AcDbEntity
8
1
100
AcDbLine
6
DOT2
62
6
10
2589.572068
20
-411.954797
11
2589.975871
21
-411.550994
0
LINE
5
684
100
AcDbEntity
8
1
100
AcDbLine
6
DOT2
62
6
10
2589.095146
20
-412.148876
11
2589.277790
21
-411.966232
0
LINE
5
685
100
AcDbEntity
8
1
100
AcDbLine
6
DOT2
62
6
10
2589.395450
20
-411.848572
11
2589.525359
21
-411.718663
0
LINE
5
686
100
AcDbEntity
8
1
100
AcDbLine
6
DOT2
62
6
10
2589.693798
20
-411.550224
11
2589.972435
21
-411.271587
0
LINE
5
687
100
AcDbEntity
8
1
100
AcDbLine
6
DOT2
62
6
10
2590.211265
20
-411.032757
11
2590.215634
21
-411.028388
0
LINE
5
688
100
AcDbEntity
8
1
100
AcDbLine
6
DOT2
62
6
10
2588.987599
20
-411.973580
11
2589.277790
21
-411.683389
0
LINE
5
689
100
AcDbEntity
8
1
100
AcDbLine
6
DOT2
62
6
10
2589.509370
20
-411.451809
11
2589.671715
21
-411.289465
0
LINE
5
68a
100
AcDbEntity
8
1
100
AcDbLine
6
DOT2
62
6
10
2589.928422
20
-411.032757
11
2590.159136
21
-410.802044
0
LINE
5
68b
100
AcDbEntity
8
1
100
AcDbLine
6
DOT2
62
6
10
2588.529461
20
-412.148876
11
2588.593914
21
-412.084423
0
LINE
5
68c
100
AcDbEntity
8
1
100
AcDbLine
6
DOT2
62
6
10
2588.987599
20
-411.690737
11
2589.388872
21
-411.289465
0
LINE
5
68d
100
AcDbEntity
8
1
100
AcDbLine
6
DOT2
62
6
10
2589.645579
20
-411.032757
11
2589.797777
21
-410.880559
0
LINE
5
68e
100
AcDbEntity
8
1
100
AcDbLine
6
DOT2
62
6
10
2588.305752
20
-412.089741
11
2588.593914
21
-411.801580
0
LINE
5
68f
100
AcDbEntity
8
1
100
AcDbLine
6
DOT2
62
6
10
2588.943685
20
-411.451809
11
2589.277790
21
-411.117704
0
LINE
5
690
100
AcDbEntity
8
1
100
AcDbLine
6
DOT2
62
6
10
2589.362737
20
-411.032757
11
2589.514935
21
-410.880559
0
LINE
5
691
100
AcDbEntity
8
1
100
AcDbLine
6
DOT2
62
6
10
2589.794979
20
-410.600515
11
2590.029661
21
-410.365833
0
LINE
5
692
100
AcDbEntity
8
1
100
AcDbLine
6
DOT2
62
6
10
2588.305752
20
-411.806899
11
2588.593914
21
-411.518737
0
LINE
5
693
100
AcDbEntity
8
1
100
AcDbLine
6
DOT2
62
6
10
2588.660842
20
-411.451809
11
2588.823187
21
-411.289465
0
LINE
5
694
100
AcDbEntity
8
1
100
AcDbLine
6
DOT2
62
6
10
2588.987599
20
-411.125052
11
2589.277790
21
-410.834861
0
LINE
5
695
100
AcDbEntity
8
1
100
AcDbLine
6
DOT2
62
6
10
2589.512136
20
-410.600515
11
2589.681733
21
-410.430918
0
LINE
5
696
100
AcDbEntity
8
1
100
AcDbLine
6
DOT2
62
6
10
2588.305752
20
-411.524056
11
2588.556656
21
-411.273153
0
LINE
5
697
100
AcDbEntity
8
1
100
AcDbLine
6
DOT2
62
6
10
2588.797051
20
-411.032757
11
2588.949249
21
-410.880559
0
LINE
5
698
100
AcDbEntity
8
1
100
AcDbLine
6
DOT2
62
6
10
2588.987599
20
-410.842209
11
2589.398891
21
-410.430918
0
LINE
5
699
100
AcDbEntity
8
1
100
AcDbLine
6
DOT2
62
6
10
2588.305752
20
-411.241213
11
2588.346791
21
-411.200175
0
LINE
5
69a
100
AcDbEntity
8
1
100
AcDbLine
6
DOT2
62
6
10
2588.514208
20
-411.032757
11
2588.666406
21
-410.880559
0
LINE
5
69b
100
AcDbEntity
8
1
100
AcDbLine
6
DOT2
62
6
10
2588.946451
20
-410.600515
11
2589.277790
21
-410.269176
0
LINE
5
69c
100
AcDbEntity
8
1
100
AcDbLine
6
DOT2
62
6
10
2588.231366
20
-411.032757
11
2588.383564
21
-410.880559
0
LINE
5
69d
100
AcDbEntity
8
1
100
AcDbLine
6
DOT2
62
6
10
2588.663608
20
-410.600515
11
2588.833205
21
-410.430918
0
LINE
5
69e
100
AcDbEntity
8
1
100
AcDbLine
6
DOT2
62
6
10
2588.987599
20
-410.276524
11
2589.324189
21
-409.939934
0
LINE
5
69f
100
AcDbEntity
8
1
100
AcDbLine
6
DOT2
62
6
10
2588.047841
20
-410.933439
11
2588.100721
21
-410.880559
0
LINE
5
6a0
100
AcDbEntity
8
1
100
AcDbLine
6
DOT2
62
6
10
2588.297371
20
-410.683910
11
2588.554754
21
-410.426526
0
LINE
5
6a1
100
AcDbEntity
8
1
100
AcDbLine
6
DOT2
62
6
10
2588.753871
20
-410.227409
11
2588.852582
21
-410.128698
0
LINE
5
6a2
100
AcDbEntity
8
1
100
AcDbLine
6
DOT2
62
6
10
2588.987599
20
-409.993681
11
2589.053480
21
-409.927800
0
LINE
5
6a3
100
AcDbEntity
8
1
100
AcDbLine
6
DOT2
62
6
10
2588.340705
20
-412.148876
11
2588.305752
21
-412.113923
0
LINE
5
6a4
100
AcDbEntity
8
1
100
AcDbLine
6
DOT2
62
6
10
2590.114977
20
-410.529035
11
2589.869146
21
-410.283204
0
LINE
5
6a5
100
AcDbEntity
8
1
100
AcDbLine
6
DOT2
62
6
10
2590.252871
20
-410.949772
11
2590.023344
21
-410.720244
0
LINE
5
6a6
100
AcDbEntity
8
1
100
AcDbLine
6
DOT2
62
6
10
2589.903615
20
-410.600515
11
2589.734018
21
-410.430918
0
LINE
5
6a7
100
AcDbEntity
8
1
100
AcDbLine
6
DOT2
62
6
10
2589.386098
20
-410.082998
11
2589.230900
21
-409.927800
0
LINE
5
6a8
100
AcDbEntity
8
1
100
AcDbLine
6
DOT2
62
6
10
2590.053014
20
-411.032757
11
2589.880358
21
-410.860101
0
LINE
5
6a9
100
AcDbEntity
8
1
100
AcDbLine
6
DOT2
62
6
10
2589.620772
20
-410.600515
11
2589.451175
21
-410.430918
0
LINE
5
6aa
100
AcDbEntity
8
1
100
AcDbLine
6
DOT2
62
6
10
2589.277790
20
-410.257533
11
2588.987599
21
-409.967342
0
LINE
5
6ab
100
AcDbEntity
8
1
100
AcDbLine
6
DOT2
62
6
10
2589.770172
20
-411.032757
11
2589.617974
21
-410.880559
0
LINE
5
6ac
100
AcDbEntity
8
1
100
AcDbLine
6
DOT2
62
6
10
2589.337929
20
-410.600515
11
2588.987599
21
-410.250185
0
LINE
5
6ad
100
AcDbEntity
8
1
100
AcDbLine
6
DOT2
62
6
10
2589.977304
20
-411.522733
11
2589.716365
21
-411.261793
0
LINE
5
6ae
100
AcDbEntity
8
1
100
AcDbLine
6
DOT2
62
6
10
2589.487329
20
-411.032757
11
2589.335131
21
-410.880559
0
LINE
5
6af
100
AcDbEntity
8
1
100
AcDbLine
6
DOT2
62
6
10
2589.277790
20
-410.823218
11
2588.885489
21
-410.430918
0
LINE
5
6b0
100
AcDbEntity
8
1
100
AcDbLine
6
DOT2
62
6
10
2588.699412
20
-410.244841
11
2588.485862
21
-410.031291
0
LINE
5
6b1
100
AcDbEntity
8
1
100
AcDbLine
6
DOT2
62
6
10
2589.975871
20
-411.804142
11
2589.693798
21
-411.522069
0
LINE
5
6b2
100
AcDbEntity
8
1
100
AcDbLine
6
DOT2
62
6
10
2589.623538
20
-411.451809
11
2589.461193
21
-411.289465
0
LINE
5
6b3
100
AcDbEntity
8
1
100
AcDbLine
6
DOT2
62
6
10
2589.277790
20
-411.106061
11
2588.987599
21
-410.815870
0
LINE
5
6b4
100
AcDbEntity
8
1
100
AcDbLine
6
DOT2
62
6
10
2588.772244
20
-410.600515
11
2588.602647
21
-410.430918
0
LINE
5
6b5
100
AcDbEntity
8
1
100
AcDbLine
6
DOT2
62
6
10
2588.574248
20
-410.402520
11
2588.401694
21
-410.229965
0
LINE
5
6b6
100
AcDbEntity
8
1
100
AcDbLine
6
DOT2
62
6
10
2589.884855
20
-411.995969
11
2589.607549
21
-411.718663
0
LINE
5
6b7
100
AcDbEntity
8
1
100
AcDbLine
6
DOT2
62
6
10
2589.340695
20
-411.451809
11
2588.987599
21
-411.098713
0
LINE
5
6b8
100
AcDbEntity
8
1
100
AcDbLine
6
DOT2
62
6
10
2588.921643
20
-411.032757
11
2588.769445
21
-410.880559
0
LINE
5
6b9
100
AcDbEntity
8
1
100
AcDbLine
6
DOT2
62
6
10
2588.489401
20
-410.600515
11
2588.297447
21
-410.408561
0
LINE
5
6ba
100
AcDbEntity
8
1
100
AcDbLine
6
DOT2
62
6
10
2589.543897
20
-411.937854
11
2589.354904
21
-411.748860
0
LINE
5
6bb
100
AcDbEntity
8
1
100
AcDbLine
6
DOT2
62
6
10
2589.277790
20
-411.671747
11
2588.895508
21
-411.289465
0
LINE
5
6bc
100
AcDbEntity
8
1
100
AcDbLine
6
DOT2
62
6
10
2588.638801
20
-411.032757
11
2588.486603
21
-410.880559
0
LINE
5
6bd
100
AcDbEntity
8
1
100
AcDbLine
6
DOT2
62
6
10
2588.293302
20
-410.687259
11
2588.175039
21
-410.568996
0
LINE
5
6be
100
AcDbEntity
8
1
100
AcDbLine
6
DOT2
62
6
10
2589.277790
20
-411.954589
11
2588.987599
21
-411.664399
0
LINE
5
6bf
100
AcDbEntity
8
1
100
AcDbLine
6
DOT2
62
6
10
2588.775010
20
-411.451809
11
2588.612665
21
-411.289465
0
LINE
5
6c0
100
AcDbEntity
8
1
100
AcDbLine
6
DOT2
62
6
10
2588.355958
20
-411.032757
11
2588.203760
21
-410.880559
0
LINE
5
6c1
100
AcDbEntity
8
1
100
AcDbLine
6
DOT2
62
6
10
2588.130371
20
-410.807171
11
2588.035356
21
-410.712156
0
LINE
5
6c2
100
AcDbEntity
8
1
100
AcDbLine
6
DOT2
62
6
10
2589.189233
20
-412.148876
11
2588.987599
21
-411.947241
0
LINE
5
6c3
100
AcDbEntity
8
1
100
AcDbLine
6
DOT2
62
6
10
2588.593914
20
-411.553556
11
2588.305752
21
-411.265395
0
LINE
5
6c4
100
AcDbEntity
8
1
100
AcDbLine
6
DOT2
62
6
10
2588.073115
20
-411.032757
11
2588.069543
21
-411.029185
0
LINE
5
6c5
100
AcDbEntity
8
1
100
AcDbLine
6
DOT2
62
6
10
2588.593914
20
-411.836399
11
2588.305752
21
-411.548237
0
LINE
5
6c6
100
AcDbEntity
8
1
100
AcDbLine
6
DOT2
62
6
10
2588.593914
20
-412.119241
11
2588.305752
21
-411.831080
0
LINE
5
6c7
100
AcDbEntity
8
1
100
AcDbLine
6
DOT2
62
6
10
2588.555783
20
-408.445598
11
2588.728504
21
-408.272878
0
LINE
5
6c8
100
AcDbEntity
8
1
100
AcDbLine
6
DOT2
62
6
10
2591.666635
20
-409.294544
11
2591.895199
21
-409.065981
0
LINE
5
6c9
100
AcDbEntity
8
1
100
AcDbLine
6
DOT2
62
6
10
2591.383792
20
-409.294544
11
2591.761858
21
-408.916478
0
LINE
5
6ca
100
AcDbEntity
8
1
100
AcDbLine
6
DOT2
62
6
10
2591.100949
20
-409.294544
11
2591.265413
21
-409.130081
0
LINE
5
6cb
100
AcDbEntity
8
1
100
AcDbLine
6
DOT2
62
6
10
2590.818107
20
-409.294544
11
2590.982570
21
-409.130081
0
LINE
5
6cc
100
AcDbEntity
8
1
100
AcDbLine
6
DOT2
62
6
10
2590.535264
20
-409.294544
11
2590.699727
21
-409.130081
0
LINE
5
6cd
100
AcDbEntity
8
1
100
AcDbLine
6
DOT2
62
6
10
2591.377516
20
-408.452292
11
2591.436048
21
-408.393760
0
LINE
5
6ce
100
AcDbEntity
8
1
100
AcDbLine
6
DOT2
62
6
10
2590.252421
20
-409.294544
11
2590.416885
21
-409.130081
0
LINE
5
6cf
100
AcDbEntity
8
1
100
AcDbLine
6
DOT2
62
6
10
2591.094673
20
-408.452292
11
2591.358055
21
-408.188911
0
LINE
5
6d0
100
AcDbEntity
8
1
100
AcDbLine
6
DOT2
62
6
10
2589.969579
20
-409.294544
11
2590.134042
21
-409.130081
0
LINE
5
6d1
100
AcDbEntity
8
1
100
AcDbLine
6
DOT2
62
6
10
2590.811831
20
-408.452292
11
2591.218106
21
-408.046017
0
LINE
5
6d2
100
AcDbEntity
8
1
100
AcDbLine
6
DOT2
62
6
10
2589.686736
20
-409.294544
11
2590.107139
21
-408.874141
0
LINE
5
6d3
100
AcDbEntity
8
1
100
AcDbLine
6
DOT2
62
6
10
2590.528988
20
-408.452292
11
2590.708403
21
-408.272878
0
LINE
5
6d4
100
AcDbEntity
8
1
100
AcDbLine
6
DOT2
62
6
10
2589.403893
20
-409.294544
11
2589.568357
21
-409.130081
0
LINE
5
6d5
100
AcDbEntity
8
1
100
AcDbLine
6
DOT2
62
6
10
2589.768245
20
-408.930193
11
2590.107139
21
-408.591298
0
LINE
5
6d6
100
AcDbEntity
8
1
100
AcDbLine
6
DOT2
62
6
10
2590.246145
20
-408.452292
11
2590.425560
21
-408.272878
0
LINE
5
6d7
100
AcDbEntity
8
1
100
AcDbLine
6
DOT2
62
6
10
2589.121051
20
-409.294544
11
2589.285514
21
-409.130081
0
LINE
5
6d8
100
AcDbEntity
8
1
100
AcDbLine
6
DOT2
62
6
10
2589.768245
20
-408.647350
11
2590.142717
21
-408.272878
0
LINE
5
6d9
100
AcDbEntity
8
1
100
AcDbLine
6
DOT2
62
6
10
2588.838208
20
-409.294544
11
2589.002671
21
-409.130081
0
LINE
5
6da
100
AcDbEntity
8
1
100
AcDbLine
6
DOT2
62
6
10
2589.680460
20
-408.452292
11
2590.107139
21
-408.025613
0
LINE
5
6db
100
AcDbEntity
8
1
100
AcDbLine
6
DOT2
62
6
10
2590.250282
20
-407.882470
11
2590.280982
21
-407.851771
0
LINE
5
6dc
100
AcDbEntity
8
1
100
AcDbLine
6
DOT2
62
6
10
2588.555365
20
-409.294544
11
2588.719828
21
-409.130081
0
LINE
5
6dd
100
AcDbEntity
8
1
100
AcDbLine
6
DOT2
62
6
10
2589.397617
20
-408.452292
11
2589.577032
21
-408.272878
0
LINE
5
6de
100
AcDbEntity
8
1
100
AcDbLine
6
DOT2
62
6
10
2589.768245
20
-408.081664
11
2590.140996
21
-407.708913
0
LINE
5
6df
100
AcDbEntity
8
1
100
AcDbLine
6
DOT2
62
6
10
2588.272522
20
-409.294544
11
2588.436986
21
-409.130081
0
LINE
5
6e0
100
AcDbEntity
8
1
100
AcDbLine
6
DOT2
62
6
10
2589.114774
20
-408.452292
11
2589.294189
21
-408.272878
0
LINE
5
6e1
100
AcDbEntity
8
1
100
AcDbLine
6
DOT2
62
6
10
2589.768245
20
-407.798822
11
2589.872303
21
-407.694764
0
LINE
5
6e2
100
AcDbEntity
8
1
100
AcDbLine
6
DOT2
62
6
10
2588.023972
20
-409.260252
11
2588.154143
21
-409.130081
0
LINE
5
6e3
100
AcDbEntity
8
1
100
AcDbLine
6
DOT2
62
6
10
2588.831932
20
-408.452292
11
2589.011346
21
-408.272878
0
LINE
5
6e4
100
AcDbEntity
8
1
100
AcDbLine
6
DOT2
62
6
10
2591.084780
20
-408.104725
11
2591.415138
21
-408.435083
0
LINE
5
6e5
100
AcDbEntity
8
1
100
AcDbLine
6
DOT2
62
6
10
2588.150338
20
-409.130081
11
2588.314801
21
-409.294544
0
LINE
5
6e6
100
AcDbEntity
8
1
100
AcDbLine
6
DOT2
62
6
10
2588.433181
20
-409.130081
11
2588.597644
21
-409.294544
0
LINE
5
6e7
100
AcDbEntity
8
1
100
AcDbLine
6
DOT2
62
6
10
2588.716023
20
-409.130081
11
2588.880487
21
-409.294544
0
LINE
5
6e8
100
AcDbEntity
8
1
100
AcDbLine
6
DOT2
62
6
10
2588.998866
20
-409.130081
11
2589.163329
21
-409.294544
0
LINE
5
6e9
100
AcDbEntity
8
1
100
AcDbLine
6
DOT2
62
6
10
2588.507359
20
-408.355731
11
2588.603920
21
-408.452292
0
LINE
5
6ea
100
AcDbEntity
8
1
100
AcDbLine
6
DOT2
62
6
10
2589.281709
20
-409.130081
11
2589.446172
21
-409.294544
0
LINE
5
6eb
100
AcDbEntity
8
1
100
AcDbLine
6
DOT2
62
6
10
2588.707348
20
-408.272878
11
2588.886763
21
-408.452292
0
LINE
5
6ec
100
AcDbEntity
8
1
100
AcDbLine
6
DOT2
62
6
10
2589.564551
20
-409.130081
11
2589.729015
21
-409.294544
0
LINE
5
6ed
100
AcDbEntity
8
1
100
AcDbLine
6
DOT2
62
6
10
2588.990191
20
-408.272878
11
2589.169606
21
-408.452292
0
LINE
5
6ee
100
AcDbEntity
8
1
100
AcDbLine
6
DOT2
62
6
10
2589.768245
20
-409.050932
11
2590.011858
21
-409.294544
0
LINE
5
6ef
100
AcDbEntity
8
1
100
AcDbLine
6
DOT2
62
6
10
2589.273034
20
-408.272878
11
2589.452448
21
-408.452292
0
LINE
5
6f0
100
AcDbEntity
8
1
100
AcDbLine
6
DOT2
62
6
10
2589.768245
20
-408.768089
11
2590.107139
21
-409.106984
0
LINE
5
6f1
100
AcDbEntity
8
1
100
AcDbLine
6
DOT2
62
6
10
2590.130237
20
-409.130081
11
2590.294700
21
-409.294544
0
LINE
5
6f2
100
AcDbEntity
8
1
100
AcDbLine
6
DOT2
62
6
10
2589.555876
20
-408.272878
11
2589.735291
21
-408.452292
0
LINE
5
6f3
100
AcDbEntity
8
1
100
AcDbLine
6
DOT2
62
6
10
2589.768245
20
-408.485247
11
2590.107139
21
-408.824141
0
LINE
5
6f4
100
AcDbEntity
8
1
100
AcDbLine
6
DOT2
62
6
10
2590.413080
20
-409.130081
11
2590.577543
21
-409.294544
0
LINE
5
6f5
100
AcDbEntity
8
1
100
AcDbLine
6
DOT2
62
6
10
2589.768245
20
-408.202404
11
2590.107139
21
-408.541298
0
LINE
5
6f6
100
AcDbEntity
8
1
100
AcDbLine
6
DOT2
62
6
10
2590.695922
20
-409.130081
11
2590.860386
21
-409.294544
0
LINE
5
6f7
100
AcDbEntity
8
1
100
AcDbLine
6
DOT2
62
6
10
2589.768245
20
-407.919561
11
2590.107139
21
-408.258455
0
LINE
5
6f8
100
AcDbEntity
8
1
100
AcDbLine
6
DOT2
62
6
10
2590.121562
20
-408.272878
11
2590.300976
21
-408.452292
0
LINE
5
6f9
100
AcDbEntity
8
1
100
AcDbLine
6
DOT2
62
6
10
2590.978765
20
-409.130081
11
2591.143228
21
-409.294544
0
LINE
5
6fa
100
AcDbEntity
8
1
100
AcDbLine
6
DOT2
62
6
10
2589.826291
20
-407.694764
11
2590.114709
21
-407.983182
0
LINE
5
6fb
100
AcDbEntity
8
1
100
AcDbLine
6
DOT2
62
6
10
2590.404405
20
-408.272878
11
2590.583819
21
-408.452292
0
LINE
5
6fc
100
AcDbEntity
8
1
100
AcDbLine
6
DOT2
62
6
10
2591.261608
20
-409.130081
11
2591.426071
21
-409.294544
0
LINE
5
6fd
100
AcDbEntity
8
1
100
AcDbLine
6
DOT2
62
6
10
2590.110565
20
-407.696196
11
2590.276995
21
-407.862626
0
LINE
5
6fe
100
AcDbEntity
8
1
100
AcDbLine
6
DOT2
62
6
10
2590.687247
20
-408.272878
11
2590.866662
21
-408.452292
0
LINE
5
6ff
100
AcDbEntity
8
1
100
AcDbLine
6
DOT2
62
6
10
2591.475896
20
-409.061527
11
2591.708914
21
-409.294544
0
LINE
5
700
100
AcDbEntity
8
1
100
AcDbLine
6
DOT2
62
6
10
2590.961239
20
-408.264027
11
2591.149505
21
-408.452292
0
LINE
5
701
100
AcDbEntity
8
1
100
AcDbLine
6
DOT2
62
6
10
2591.608521
20
-408.911309
11
2591.938414
21
-409.241202
0
LINE
5
702
100
AcDbEntity
8
1
100
AcDbLine
6
DOT2
62
6
10
2588.089169
20
-405.800943
11
2588.262354
21
-405.627758
0
LINE
5
703
100
AcDbEntity
8
1
100
AcDbLine
6
DOT2
62
6
10
2589.570787
20
-407.996280
11
2589.611257
21
-407.955809
0
LINE
5
704
100
AcDbEntity
8
1
100
AcDbLine
6
DOT2
62
6
10
2589.287944
20
-407.996280
11
2589.611257
21
-407.672967
0
LINE
5
705
100
AcDbEntity
8
1
100
AcDbLine
6
DOT2
62
6
10
2589.287314
20
-407.714067
11
2589.611257
21
-407.390124
0
LINE
5
706
100
AcDbEntity
8
1
100
AcDbLine
6
DOT2
62
6
10
2589.287314
20
-407.431224
11
2589.611257
21
-407.107281
0
LINE
5
707
100
AcDbEntity
8
1
100
AcDbLine
6
DOT2
62
6
10
2589.971931
20
-406.746607
11
2590.127583
21
-406.590956
0
LINE
5
708
100
AcDbEntity
8
1
100
AcDbLine
6
DOT2
62
6
10
2589.287314
20
-407.148382
11
2589.611257
21
-406.824439
0
LINE
5
709
100
AcDbEntity
8
1
100
AcDbLine
6
DOT2
62
6
10
2589.689088
20
-406.746607
11
2589.998027
21
-406.437669
0
LINE
5
70a
100
AcDbEntity
8
1
100
AcDbLine
6
DOT2
62
6
10
2588.025628
20
-408.127225
11
2588.708130
21
-407.444723
0
LINE
5
70b
100
AcDbEntity
8
1
100
AcDbLine
6
DOT2
62
6
10
2589.287314
20
-406.865539
11
2589.611257
21
-406.541596
0
LINE
5
70c
100
AcDbEntity
8
1
100
AcDbLine
6
DOT2
62
6
10
2588.373206
20
-407.496804
11
2588.784045
21
-407.085965
0
LINE
5
70d
100
AcDbEntity
8
1
100
AcDbLine
6
DOT2
62
6
10
2589.123403
20
-406.746607
11
2589.280391
21
-406.589620
0
LINE
5
70e
100
AcDbEntity
8
1
100
AcDbLine
6
DOT2
62
6
10
2589.287314
20
-406.582696
11
2589.611257
21
-406.258753
0
LINE
5
70f
100
AcDbEntity
8
1
100
AcDbLine
6
DOT2
62
6
10
2588.473481
20
-407.113687
11
2588.820277
21
-406.766891
0
LINE
5
710
100
AcDbEntity
8
1
100
AcDbLine
6
DOT2
62
6
10
2588.840560
20
-406.746607
11
2588.997548
21
-406.589620
0
LINE
5
711
100
AcDbEntity
8
1
100
AcDbLine
6
DOT2
62
6
10
2589.287314
20
-406.299854
11
2589.611257
21
-405.975910
0
LINE
5
712
100
AcDbEntity
8
1
100
AcDbLine
6
DOT2
62
6
10
2589.786225
20
-405.800943
11
2589.990041
21
-405.597127
0
LINE
5
713
100
AcDbEntity
8
1
100
AcDbLine
6
DOT2
62
6
10
2588.487424
20
-406.816901
11
2588.826318
21
-406.478007
0
LINE
5
714
100
AcDbEntity
8
1
100
AcDbLine
6
DOT2
62
6
10
2589.287314
20
-406.017011
11
2589.853830
21
-405.450496
0
LINE
5
715
100
AcDbEntity
8
1
100
AcDbLine
6
DOT2
62
6
10
2588.274875
20
-406.746607
11
2588.431863
21
-406.589620
0
LINE
5
716
100
AcDbEntity
8
1
100
AcDbLine
6
DOT2
62
6
10
2588.522310
20
-406.499172
11
2588.826318
21
-406.195164
0
LINE
5
717
100
AcDbEntity
8
1
100
AcDbLine
6
DOT2
62
6
10
2589.220540
20
-405.800943
11
2589.393724
21
-405.627758
0
LINE
5
718
100
AcDbEntity
8
1
100
AcDbLine
6
DOT2
62
6
10
2587.992032
20
-406.746607
11
2588.149020
21
-406.589620
0
LINE
5
719
100
AcDbEntity
8
1
100
AcDbLine
6
DOT2
62
6
10
2588.522310
20
-406.216329
11
2588.826318
21
-405.912321
0
LINE
5
71a
100
AcDbEntity
8
1
100
AcDbLine
6
DOT2
62
6
10
2588.937697
20
-405.800943
11
2589.110882
21
-405.627758
0
LINE
5
71b
100
AcDbEntity
8
1
100
AcDbLine
6
DOT2
62
6
10
2588.522310
20
-405.933487
11
2588.828039
21
-405.627758
0
LINE
5
71c
100
AcDbEntity
8
1
100
AcDbLine
6
DOT2
62
6
10
2588.372011
20
-405.800943
11
2588.545196
21
-405.627758
0
LINE
5
71d
100
AcDbEntity
8
1
100
AcDbLine
6
DOT2
62
6
10
2589.791528
20
-405.397260
11
2589.972330
21
-405.578062
0
LINE
5
71e
100
AcDbEntity
8
1
100
AcDbLine
6
DOT2
62
6
10
2588.053271
20
-408.184485
11
2588.054530
21
-408.185745
0
LINE
5
71f
100
AcDbEntity
8
1
100
AcDbLine
6
DOT2
62
6
10
2588.111667
20
-407.960040
11
2588.249110
21
-408.097482
0
LINE
5
720
100
AcDbEntity
8
1
100
AcDbLine
6
DOT2
62
6
10
2588.232421
20
-407.797950
11
2588.395705
21
-407.961235
0
LINE
5
721
100
AcDbEntity
8
1
100
AcDbLine
6
DOT2
62
6
10
2588.327334
20
-407.610021
11
2588.522724
21
-407.805411
0
LINE
5
722
100
AcDbEntity
8
1
100
AcDbLine
6
DOT2
62
6
10
2588.404809
20
-407.404653
11
2588.629303
21
-407.629147
0
LINE
5
723
100
AcDbEntity
8
1
100
AcDbLine
6
DOT2
62
6
10
2587.932435
20
-406.649437
11
2588.029606
21
-406.746607
0
LINE
5
724
100
AcDbEntity
8
1
100
AcDbLine
6
DOT2
62
6
10
2588.462007
20
-407.179008
11
2588.713124
21
-407.430125
0
LINE
5
725
100
AcDbEntity
8
1
100
AcDbLine
6
DOT2
62
6
10
2588.155461
20
-406.589620
11
2588.312449
21
-406.746607
0
LINE
5
726
100
AcDbEntity
8
1
100
AcDbLine
6
DOT2
62
6
10
2588.487156
20
-406.921315
11
2588.769494
21
-407.203652
0
LINE
5
727
100
AcDbEntity
8
1
100
AcDbLine
6
DOT2
62
6
10
2589.287314
20
-407.721473
11
2589.562122
21
-407.996280
0
LINE
5
728
100
AcDbEntity
8
1
100
AcDbLine
6
DOT2
62
6
10
2588.438304
20
-406.589620
11
2588.799403
21
-406.950719
0
LINE
5
729
100
AcDbEntity
8
1
100
AcDbLine
6
DOT2
62
6
10
2589.287314
20
-407.438630
11
2589.611257
21
-407.762573
0
LINE
5
72a
100
AcDbEntity
8
1
100
AcDbLine
6
DOT2
62
6
10
2588.522310
20
-406.390783
11
2588.878134
21
-406.746607
0
LINE
5
72b
100
AcDbEntity
8
1
100
AcDbLine
6
DOT2
62
6
10
2589.287314
20
-407.155788
11
2589.611257
21
-407.479731
0
LINE
5
72c
100
AcDbEntity
8
1
100
AcDbLine
6
DOT2
62
6
10
2588.042127
20
-405.627758
11
2588.215312
21
-405.800943
0
LINE
5
72d
100
AcDbEntity
8
1
100
AcDbLine
6
DOT2
62
6
10
2588.522310
20
-406.107941
11
2588.826318
21
-406.411949
0
LINE
5
72e
100
AcDbEntity
8
1
100
AcDbLine
6
DOT2
62
6
10
2589.003989
20
-406.589620
11
2589.160977
21
-406.746607
0
LINE
5
72f
100
AcDbEntity
8
1
100
AcDbLine
6
DOT2
62
6
10
2589.287314
20
-406.872945
11
2589.611257
21
-407.196888
0
LINE
5
730
100
AcDbEntity
8
1
100
AcDbLine
6
DOT2
62
6
10
2588.324970
20
-405.627758
11
2588.498155
21
-405.800943
0
LINE
5
731
100
AcDbEntity
8
1
100
AcDbLine
6
DOT2
62
6
10
2588.522310
20
-405.825098
11
2588.826318
21
-406.129106
0
LINE
5
732
100
AcDbEntity
8
1
100
AcDbLine
6
DOT2
62
6
10
2589.286832
20
-406.589620
11
2589.611257
21
-406.914045
0
LINE
5
733
100
AcDbEntity
8
1
100
AcDbLine
6
DOT2
62
6
10
2588.607813
20
-405.627758
11
2588.826318
21
-405.846263
0
LINE
5
734
100
AcDbEntity
8
1
100
AcDbLine
6
DOT2
62
6
10
2589.287314
20
-406.307259
11
2589.726662
21
-406.746607
0
LINE
5
735
100
AcDbEntity
8
1
100
AcDbLine
6
DOT2
62
6
10
2588.890655
20
-405.627758
11
2589.063840
21
-405.800943
0
LINE
5
736
100
AcDbEntity
8
1
100
AcDbLine
6
DOT2
62
6
10
2589.287314
20
-406.024417
11
2589.611257
21
-406.348360
0
LINE
5
737
100
AcDbEntity
8
1
100
AcDbLine
6
DOT2
62
6
10
2589.763844
20
-406.500947
11
2590.009505
21
-406.746607
0
LINE
5
738
100
AcDbEntity
8
1
100
AcDbLine
6
DOT2
62
6
10
2589.173498
20
-405.627758
11
2589.611257
21
-406.065517
0
LINE
5
739
100
AcDbEntity
8
1
100
AcDbLine
6
DOT2
62
6
10
2589.889911
20
-406.344170
11
2590.077832
21
-406.532092
0
LINE
5
73a
100
AcDbEntity
8
1
100
AcDbLine
6
DOT2
62
6
10
2589.456341
20
-405.627758
11
2589.629526
21
-405.800943
0
LINE
5
73b
100
AcDbEntity
8
1
100
AcDbLine
6
DOT2
62
6
10
2589.650431
20
-405.539005
11
2589.912369
21
-405.800943
0
LINE
5
73c
100
AcDbEntity
8
1
100
AcDbLine
6
DOT2
62
6
10
2589.770946
20
-414.867188
11
2589.999487
21
-414.638648
0
LINE
5
73d
100
AcDbEntity
8
1
100
AcDbLine
6
DOT2
62
6
10
2590.404457
20
-418.476318
11
2590.486115
21
-418.394661
0
LINE
5
73e
100
AcDbEntity
8
1
100
AcDbLine
6
DOT2
62
6
10
2591.557103
20
-417.323673
11
2591.672691
21
-417.208084
0
LINE
5
73f
100
AcDbEntity
8
1
100
AcDbLine
6
DOT2
62
6
10
2590.165484
20
-418.432448
11
2590.486115
21
-418.111818
0
LINE
5
740
100
AcDbEntity
8
1
100
AcDbLine
6
DOT2
62
6
10
2591.274260
20
-417.323673
11
2591.545900
21
-417.052033
0
LINE
5
741
100
AcDbEntity
8
1
100
AcDbLine
6
DOT2
62
6
10
2590.165484
20
-418.149605
11
2590.486115
21
-417.828975
0
LINE
5
742
100
AcDbEntity
8
1
100
AcDbLine
6
DOT2
62
6
10
2590.991417
20
-417.323673
11
2591.145644
21
-417.169445
0
LINE
5
743
100
AcDbEntity
8
1
100
AcDbLine
6
DOT2
62
6
10
2590.165484
20
-417.866763
11
2590.486115
21
-417.546132
0
LINE
5
744
100
AcDbEntity
8
1
100
AcDbLine
6
DOT2
62
6
10
2590.708574
20
-417.323673
11
2590.862802
21
-417.169445
0
LINE
5
745
100
AcDbEntity
8
1
100
AcDbLine
6
DOT2
62
6
10
2591.593352
20
-416.438895
11
2591.637809
21
-416.394438
0
LINE
5
746
100
AcDbEntity
8
1
100
AcDbLine
6
DOT2
62
6
10
2590.165484
20
-417.583920
11
2590.579959
21
-417.169445
0
LINE
5
747
100
AcDbEntity
8
1
100
AcDbLine
6
DOT2
62
6
10
2591.310509
20
-416.438895
11
2591.563721
21
-416.185683
0
LINE
5
748
100
AcDbEntity
8
1
100
AcDbLine
6
DOT2
62
6
10
2590.165484
20
-417.301077
11
2590.486115
21
-416.980447
0
LINE
5
749
100
AcDbEntity
8
1
100
AcDbLine
6
DOT2
62
6
10
2591.027666
20
-416.438895
11
2591.194069
21
-416.272492
0
LINE
5
74a
100
AcDbEntity
8
1
100
AcDbLine
6
DOT2
62
6
10
2591.198295
20
-416.268267
11
2591.407147
21
-416.059415
0
LINE
5
74b
100
AcDbEntity
8
1
100
AcDbLine
6
DOT2
62
6
10
2590.165484
20
-417.018235
11
2590.486115
21
-416.697604
0
LINE
5
74c
100
AcDbEntity
8
1
100
AcDbLine
6
DOT2
62
6
10
2590.744824
20
-416.438895
11
2590.911227
21
-416.272492
0
LINE
5
74d
100
AcDbEntity
8
1
100
AcDbLine
6
DOT2
62
6
10
2591.686422
20
-415.497297
11
2591.804040
21
-415.379679
0
LINE
5
74e
100
AcDbEntity
8
1
100
AcDbLine
6
DOT2
62
6
10
2590.165484
20
-416.735392
11
2590.628384
21
-416.272492
0
LINE
5
74f
100
AcDbEntity
8
1
100
AcDbLine
6
DOT2
62
6
10
2591.403579
20
-415.497297
11
2591.671860
21
-415.229017
0
LINE
5
750
100
AcDbEntity
8
1
100
AcDbLine
6
DOT2
62
6
10
2590.165484
20
-416.452549
11
2590.486115
21
-416.131919
0
LINE
5
751
100
AcDbEntity
8
1
100
AcDbLine
6
DOT2
62
6
10
2591.120736
20
-415.497297
11
2591.254670
21
-415.363363
0
LINE
5
752
100
AcDbEntity
8
1
100
AcDbLine
6
DOT2
62
6
10
2591.443672
20
-415.174362
11
2591.488040
21
-415.129993
0
LINE
5
753
100
AcDbEntity
8
1
100
AcDbLine
6
DOT2
62
6
10
2590.165484
20
-416.169706
11
2590.486115
21
-415.849076
0
LINE
5
754
100
AcDbEntity
8
1
100
AcDbLine
6
DOT2
62
6
10
2590.837893
20
-415.497297
11
2590.971828
21
-415.363363
0
LINE
5
755
100
AcDbEntity
8
1
100
AcDbLine
6
DOT2
62
6
10
2590.165484
20
-415.886864
11
2590.486115
21
-415.566233
0
LINE
5
756
100
AcDbEntity
8
1
100
AcDbLine
6
DOT2
62
6
10
2590.555051
20
-415.497297
11
2590.688985
21
-415.363363
0
LINE
5
757
100
AcDbEntity
8
1
100
AcDbLine
6
DOT2
62
6
10
2589.101482
20
-416.668023
11
2589.439374
21
-416.330132
0
LINE
5
758
100
AcDbEntity
8
1
100
AcDbLine
6
DOT2
62
6
10
2590.165484
20
-415.604021
11
2590.406142
21
-415.363363
0
LINE
5
759
100
AcDbEntity
8
1
100
AcDbLine
6
DOT2
62
6
10
2589.294419
20
-416.192244
11
2589.829381
21
-415.657281
0
LINE
5
75a
100
AcDbEntity
8
1
100
AcDbLine
6
DOT2
62
6
10
2589.989365
20
-415.497297
11
2590.123299
21
-415.363363
0
LINE
5
75b
100
AcDbEntity
8
1
100
AcDbLine
6
DOT2
62
6
10
2589.526966
20
-415.676854
11
2589.991098
21
-415.212722
0
LINE
5
75c
100
AcDbEntity
8
1
100
AcDbLine
6
DOT2
62
6
10
2589.673687
20
-415.247291
11
2590.200134
21
-414.720843
0
LINE
5
75d
100
AcDbEntity
8
1
100
AcDbLine
6
DOT2
62
6
10
2590.425508
20
-418.476318
11
2590.165484
21
-418.216295
0
LINE
5
75e
100
AcDbEntity
8
1
100
AcDbLine
6
DOT2
62
6
10
2591.689127
20
-415.497297
11
2591.410193
21
-415.218363
0
LINE
5
75f
100
AcDbEntity
8
1
100
AcDbLine
6
DOT2
62
6
10
2591.406285
20
-415.497297
11
2591.272350
21
-415.363363
0
LINE
5
760
100
AcDbEntity
8
1
100
AcDbLine
6
DOT2
62
6
10
2591.123442
20
-415.497297
11
2590.989508
21
-415.363363
0
LINE
5
761
100
AcDbEntity
8
1
100
AcDbLine
6
DOT2
62
6
10
2591.675081
20
-416.331779
11
2591.402717
21
-416.059415
0
LINE
5
762
100
AcDbEntity
8
1
100
AcDbLine
6
DOT2
62
6
10
2590.840599
20
-415.497297
11
2590.706665
21
-415.363363
0
LINE
5
763
100
AcDbEntity
8
1
100
AcDbLine
6
DOT2
62
6
10
2590.182435
20
-414.839133
11
2589.969779
21
-414.626477
0
LINE
5
764
100
AcDbEntity
8
1
100
AcDbLine
6
DOT2
62
6
10
2591.499354
20
-416.438895
11
2591.251786
21
-416.191327
0
LINE
5
765
100
AcDbEntity
8
1
100
AcDbLine
6
DOT2
62
6
10
2590.557756
20
-415.497297
11
2590.423822
21
-415.363363
0
LINE
5
766
100
AcDbEntity
8
1
100
AcDbLine
6
DOT2
62
6
10
2590.048387
20
-414.987928
11
2589.797550
21
-414.737092
0
LINE
5
767
100
AcDbEntity
8
1
100
AcDbLine
6
DOT2
62
6
10
2591.216512
20
-416.438895
11
2591.050109
21
-416.272492
0
LINE
5
768
100
AcDbEntity
8
1
100
AcDbLine
6
DOT2
62
6
10
2590.486115
20
-415.708499
11
2590.140980
21
-415.363363
0
LINE
5
769
100
AcDbEntity
8
1
100
AcDbLine
6
DOT2
62
6
10
2589.990927
20
-415.213311
11
2589.747555
21
-414.969939
0
LINE
5
76a
100
AcDbEntity
8
1
100
AcDbLine
6
DOT2
62
6
10
2591.541969
20
-417.047195
11
2591.445054
21
-416.950280
0
LINE
5
76b
100
AcDbEntity
8
1
100
AcDbLine
6
DOT2
62
6
10
2590.933669
20
-416.438895
11
2590.767266
21
-416.272492
0
LINE
5
76c
100
AcDbEntity
8
1
100
AcDbLine
6
DOT2
62
6
10
2590.486115
20
-415.991341
11
2590.165484
21
-415.670711
0
LINE
5
76d
100
AcDbEntity
8
1
100
AcDbLine
6
DOT2
62
6
10
2589.992071
20
-415.497297
11
2589.689039
21
-415.194266
0
LINE
5
76e
100
AcDbEntity
8
1
100
AcDbLine
6
DOT2
62
6
10
2591.535604
20
-417.323673
11
2591.284225
21
-417.072294
0
LINE
5
76f
100
AcDbEntity
8
1
100
AcDbLine
6
DOT2
62
6
10
2590.650826
20
-416.438895
11
2590.165484
21
-415.953554
0
LINE
5
770
100
AcDbEntity
8
1
100
AcDbLine
6
DOT2
62
6
10
2589.841478
20
-415.629547
11
2589.622627
21
-415.410696
0
LINE
5
771
100
AcDbEntity
8
1
100
AcDbLine
6
DOT2
62
6
10
2591.252761
20
-417.323673
11
2591.098534
21
-417.169445
0
LINE
5
772
100
AcDbEntity
8
1
100
AcDbLine
6
DOT2
62
6
10
2590.486115
20
-416.557027
11
2590.165484
21
-416.236396
0
LINE
5
773
100
AcDbEntity
8
1
100
AcDbLine
6
DOT2
62
6
10
2589.751422
20
-415.822333
11
2589.548831
21
-415.619743
0
LINE
5
774
100
AcDbEntity
8
1
100
AcDbLine
6
DOT2
62
6
10
2590.969918
20
-417.323673
11
2590.815691
21
-417.169445
0
LINE
5
775
100
AcDbEntity
8
1
100
AcDbLine
6
DOT2
62
6
10
2590.486115
20
-416.839869
11
2590.165484
21
-416.519239
0
LINE
5
776
100
AcDbEntity
8
1
100
AcDbLine
6
DOT2
62
6
10
2589.652052
20
-416.005807
11
2589.468076
21
-415.821830
0
LINE
5
777
100
AcDbEntity
8
1
100
AcDbLine
6
DOT2
62
6
10
2590.687075
20
-417.323673
11
2590.532848
21
-417.169445
0
LINE
5
778
100
AcDbEntity
8
1
100
AcDbLine
6
DOT2
62
6
10
2590.486115
20
-417.122712
11
2590.165484
21
-416.802082
0
LINE
5
779
100
AcDbEntity
8
1
100
AcDbLine
6
DOT2
62
6
10
2589.543848
20
-416.180445
11
2589.380715
21
-416.017312
0
LINE
5
77a
100
AcDbEntity
8
1
100
AcDbLine
6
DOT2
62
6
10
2590.486115
20
-417.405555
11
2590.165484
21
-417.084924
0
LINE
5
77b
100
AcDbEntity
8
1
100
AcDbLine
6
DOT2
62
6
10
2589.427163
20
-416.346603
11
2589.287044
21
-416.206484
0
LINE
5
77c
100
AcDbEntity
8
1
100
AcDbLine
6
DOT2
62
6
10
2590.486115
20
-417.688398
11
2590.165484
21
-417.367767
0
LINE
5
77d
100
AcDbEntity
8
1
100
AcDbLine
6
DOT2
62
6
10
2589.302249
20
-416.504532
11
2589.187308
21
-416.389591
0
LINE
5
77e
100
AcDbEntity
8
1
100
AcDbLine
6
DOT2
62
6
10
2590.486115
20
-417.971240
11
2590.165484
21
-417.650610
0
LINE
5
77f
100
AcDbEntity
8
1
100
AcDbLine
6
DOT2
62
6
10
2589.169269
20
-416.654394
11
2589.081713
21
-416.566839
0
LINE
5
780
100
AcDbEntity
8
1
100
AcDbLine
6
DOT2
62
6
10
2590.486115
20
-418.254083
11
2590.165484
21
-417.933453
0
LINE
5
781
100
AcDbEntity
8
1
100
AcDbLine
6
DOT2
62
6
10
2593.627302
20
-404.424708
11
2593.737692
21
-404.535098
0
LINE
5
782
100
AcDbEntity
8
1
100
AcDbLine
6
DOT2
62
6
10
2593.437692
20
-412.154694
11
2593.737692
21
-412.454694
0
LINE
5
783
100
AcDbEntity
8
1
100
AcDbLine
6
DOT2
62
6
10
2586.137692
20
-404.571851
11
2586.437692
21
-404.871851
0
LINE
5
784
100
AcDbEntity
8
1
100
AcDbLine
6
DOT2
62
6
10
2593.437692
20
-411.871851
11
2593.737692
21
-412.171851
0
LINE
5
785
100
AcDbEntity
8
1
100
AcDbLine
6
DOT2
62
6
10
2586.273392
20
-404.424708
11
2586.573392
21
-404.724708
0
LINE
5
786
100
AcDbEntity
8
1
100
AcDbLine
6
DOT2
62
6
10
2593.437692
20
-411.589008
11
2593.737692
21
-411.889008
0
LINE
5
787
100
AcDbEntity
8
1
100
AcDbLine
6
DOT2
62
6
10
2586.556235
20
-404.424708
11
2586.856235
21
-404.724708
0
LINE
5
788
100
AcDbEntity
8
1
100
AcDbLine
6
DOT2
62
6
10
2593.437692
20
-411.306166
11
2593.737692
21
-411.606166
0
LINE
5
789
100
AcDbEntity
8
1
100
AcDbLine
6
DOT2
62
6
10
2586.839077
20
-404.424708
11
2587.139077
21
-404.724708
0
LINE
5
78a
100
AcDbEntity
8
1
100
AcDbLine
6
DOT2
62
6
10
2593.437692
20
-411.023323
11
2593.737692
21
-411.323323
0
LINE
5
78b
100
AcDbEntity
8
1
100
AcDbLine
6
DOT2
62
6
10
2587.121920
20
-404.424708
11
2587.421920
21
-404.724708
0
LINE
5
78c
100
AcDbEntity
8
1
100
AcDbLine
6
DOT2
62
6
10
2593.437692
20
-410.740480
11
2593.737692
21
-411.040480
0
LINE
5
78d
100
AcDbEntity
8
1
100
AcDbLine
6
DOT2
62
6
10
2587.404763
20
-404.424708
11
2587.704763
21
-404.724708
0
LINE
5
78e
100
AcDbEntity
8
1
100
AcDbLine
6
DOT2
62
6
10
2593.437692
20
-410.457637
11
2593.737692
21
-410.757637
0
LINE
5
78f
100
AcDbEntity
8
1
100
AcDbLine
6
DOT2
62
6
10
2587.687605
20
-404.424708
11
2587.987605
21
-404.724708
0
LINE
5
790
100
AcDbEntity
8
1
100
AcDbLine
6
DOT2
62
6
10
2593.437692
20
-410.174795
11
2593.737692
21
-410.474795
0
LINE
5
791
100
AcDbEntity
8
1
100
AcDbLine
6
DOT2
62
6
10
2587.970448
20
-404.424708
11
2588.270448
21
-404.724708
0
LINE
5
792
100
AcDbEntity
8
1
100
AcDbLine
6
DOT2
62
6
10
2593.437692
20
-409.891952
11
2593.737692
21
-410.191952
0
LINE
5
793
100
AcDbEntity
8
1
100
AcDbLine
6
DOT2
62
6
10
2588.253291
20
-404.424708
11
2588.553291
21
-404.724708
0
LINE
5
794
100
AcDbEntity
8
1
100
AcDbLine
6
DOT2
62
6
10
2593.437692
20
-409.609109
11
2593.737692
21
-409.909109
0
LINE
5
795
100
AcDbEntity
8
1
100
AcDbLine
6
DOT2
62
6
10
2588.536134
20
-404.424708
11
2588.836134
21
-404.724708
0
LINE
5
796
100
AcDbEntity
8
1
100
AcDbLine
6
DOT2
62
6
10
2593.437692
20
-409.326267
11
2593.737692
21
-409.626267
0
LINE
5
797
100
AcDbEntity
8
1
100
AcDbLine
6
DOT2
62
6
10
2588.818976
20
-404.424708
11
2589.118976
21
-404.724708
0
LINE
5
798
100
AcDbEntity
8
1
100
AcDbLine
6
DOT2
62
6
10
2593.437692
20
-409.043424
11
2593.737692
21
-409.343424
0
LINE
5
799
100
AcDbEntity
8
1
100
AcDbLine
6
DOT2
62
6
10
2589.101819
20
-404.424708
11
2589.401819
21
-404.724708
0
LINE
5
79a
100
AcDbEntity
8
1
100
AcDbLine
6
DOT2
62
6
10
2593.437692
20
-408.760581
11
2593.737692
21
-409.060581
0
LINE
5
79b
100
AcDbEntity
8
1
100
AcDbLine
6
DOT2
62
6
10
2589.384662
20
-404.424708
11
2589.684662
21
-404.724708
0
LINE
5
79c
100
AcDbEntity
8
1
100
AcDbLine
6
DOT2
62
6
10
2593.437692
20
-408.477738
11
2593.737692
21
-408.777738
0
LINE
5
79d
100
AcDbEntity
8
1
100
AcDbLine
6
DOT2
62
6
10
2589.667504
20
-404.424708
11
2589.967504
21
-404.724708
0
LINE
5
79e
100
AcDbEntity
8
1
100
AcDbLine
6
DOT2
62
6
10
2593.437692
20
-408.194896
11
2593.737692
21
-408.494896
0
LINE
5
79f
100
AcDbEntity
8
1
100
AcDbLine
6
DOT2
62
6
10
2589.950347
20
-404.424708
11
2590.250347
21
-404.724708
0
LINE
5
7a0
100
AcDbEntity
8
1
100
AcDbLine
6
DOT2
62
6
10
2593.437692
20
-407.912053
11
2593.737692
21
-408.212053
0
LINE
5
7a1
100
AcDbEntity
8
1
100
AcDbLine
6
DOT2
62
6
10
2590.233190
20
-404.424708
11
2590.533190
21
-404.724708
0
LINE
5
7a2
100
AcDbEntity
8
1
100
AcDbLine
6
DOT2
62
6
10
2593.437692
20
-407.629210
11
2593.737692
21
-407.929210
0
LINE
5
7a3
100
AcDbEntity
8
1
100
AcDbLine
6
DOT2
62
6
10
2590.516033
20
-404.424708
11
2590.816033
21
-404.724708
0
LINE
5
7a4
100
AcDbEntity
8
1
100
AcDbLine
6
DOT2
62
6
10
2593.437692
20
-407.346368
11
2593.737692
21
-407.646368
0
LINE
5
7a5
100
AcDbEntity
8
1
100
AcDbLine
6
DOT2
62
6
10
2590.798875
20
-404.424708
11
2591.098875
21
-404.724708
0
LINE
5
7a6
100
AcDbEntity
8
1
100
AcDbLine
6
DOT2
62
6
10
2593.437692
20
-407.063525
11
2593.737692
21
-407.363525
0
LINE
5
7a7
100
AcDbEntity
8
1
100
AcDbLine
6
DOT2
62
6
10
2591.081718
20
-404.424708
11
2591.381718
21
-404.724708
0
LINE
5
7a8
100
AcDbEntity
8
1
100
AcDbLine
6
DOT2
62
6
10
2593.437692
20
-406.780682
11
2593.737692
21
-407.080682
0
LINE
5
7a9
100
AcDbEntity
8
1
100
AcDbLine
6
DOT2
62
6
10
2591.364561
20
-404.424708
11
2591.664561
21
-404.724708
0
LINE
5
7aa
100
AcDbEntity
8
1
100
AcDbLine
6
DOT2
62
6
10
2593.437692
20
-406.497839
11
2593.737692
21
-406.797839
0
LINE
5
7ab
100
AcDbEntity
8
1
100
AcDbLine
6
DOT2
62
6
10
2591.647403
20
-404.424708
11
2591.947403
21
-404.724708
0
LINE
5
7ac
100
AcDbEntity
8
1
100
AcDbLine
6
DOT2
62
6
10
2593.437692
20
-406.214997
11
2593.737692
21
-406.514997
0
LINE
5
7ad
100
AcDbEntity
8
1
100
AcDbLine
6
DOT2
62
6
10
2591.930246
20
-404.424708
11
2592.230246
21
-404.724708
0
LINE
5
7ae
100
AcDbEntity
8
1
100
AcDbLine
6
DOT2
62
6
10
2593.437692
20
-405.932154
11
2593.737692
21
-406.232154
0
LINE
5
7af
100
AcDbEntity
8
1
100
AcDbLine
6
DOT2
62
6
10
2592.213089
20
-404.424708
11
2592.513089
21
-404.724708
0
LINE
5
7b0
100
AcDbEntity
8
1
100
AcDbLine
6
DOT2
62
6
10
2593.437692
20
-405.649311
11
2593.737692
21
-405.949311
0
LINE
5
7b1
100
AcDbEntity
8
1
100
AcDbLine
6
DOT2
62
6
10
2592.495932
20
-404.424708
11
2592.795932
21
-404.724708
0
LINE
5
7b2
100
AcDbEntity
8
1
100
AcDbLine
6
DOT2
62
6
10
2593.437692
20
-405.366469
11
2593.737692
21
-405.666469
0
LINE
5
7b3
100
AcDbEntity
8
1
100
AcDbLine
6
DOT2
62
6
10
2592.778774
20
-404.424708
11
2593.078774
21
-404.724708
0
LINE
5
7b4
100
AcDbEntity
8
1
100
AcDbLine
6
DOT2
62
6
10
2593.437692
20
-405.083626
11
2593.737692
21
-405.383626
0
LINE
5
7b5
100
AcDbEntity
8
1
100
AcDbLine
6
DOT2
62
6
10
2593.061617
20
-404.424708
11
2593.361617
21
-404.724708
0
LINE
5
7b6
100
AcDbEntity
8
1
100
AcDbLine
6
DOT2
62
6
10
2593.437692
20
-404.800783
11
2593.737692
21
-405.100783
0
LINE
5
7b7
100
AcDbEntity
8
1
100
AcDbLine
6
DOT2
62
6
10
2593.344460
20
-404.424708
11
2593.737692
21
-404.817940
0
LINE
5
7b8
100
AcDbEntity
8
1
100
AcDbLine
6
DOT2
62
6
10
2586.137692
20
-404.854694
11
2586.437692
21
-405.154694
0
LINE
5
7b9
100
AcDbEntity
8
1
100
AcDbLine
6
DOT2
62
6
10
2586.137692
20
-419.279672
11
2586.282728
21
-419.424708
0
LINE
5
7ba
100
AcDbEntity
8
1
100
AcDbLine
6
DOT2
62
6
10
2586.137692
20
-418.996829
11
2586.565571
21
-419.424708
0
LINE
5
7bb
100
AcDbEntity
8
1
100
AcDbLine
6
DOT2
62
6
10
2586.137692
20
-418.713987
11
2586.437692
21
-419.013987
0
LINE
5
7bc
100
AcDbEntity
8
1
100
AcDbLine
6
DOT2
62
6
10
2586.548414
20
-419.124708
11
2586.848414
21
-419.424708
0
LINE
5
7bd
100
AcDbEntity
8
1
100
AcDbLine
6
DOT2
62
6
10
2586.137692
20
-418.431144
11
2586.437692
21
-418.731144
0
LINE
5
7be
100
AcDbEntity
8
1
100
AcDbLine
6
DOT2
62
6
10
2586.831256
20
-419.124708
11
2587.131256
21
-419.424708
0
LINE
5
7bf
100
AcDbEntity
8
1
100
AcDbLine
6
DOT2
62
6
10
2586.137692
20
-418.148301
11
2586.437692
21
-418.448301
0
LINE
5
7c0
100
AcDbEntity
8
1
100
AcDbLine
6
DOT2
62
6
10
2587.114099
20
-419.124708
11
2587.414099
21
-419.424708
0
LINE
5
7c1
100
AcDbEntity
8
1
100
AcDbLine
6
DOT2
62
6
10
2586.137692
20
-417.865458
11
2586.437692
21
-418.165458
0
LINE
5
7c2
100
AcDbEntity
8
1
100
AcDbLine
6
DOT2
62
6
10
2587.396942
20
-419.124708
11
2587.696942
21
-419.424708
0
LINE
5
7c3
100
AcDbEntity
8
1
100
AcDbLine
6
DOT2
62
6
10
2586.137692
20
-417.582616
11
2586.437692
21
-417.882616
0
LINE
5
7c4
100
AcDbEntity
8
1
100
AcDbLine
6
DOT2
62
6
10
2587.679784
20
-419.124708
11
2587.979784
21
-419.424708
0
LINE
5
7c5
100
AcDbEntity
8
1
100
AcDbLine
6
DOT2
62
6
10
2586.137692
20
-417.299773
11
2586.437692
21
-417.599773
0
LINE
5
7c6
100
AcDbEntity
8
1
100
AcDbLine
6
DOT2
62
6
10
2587.962627
20
-419.124708
11
2588.262627
21
-419.424708
0
LINE
5
7c7
100
AcDbEntity
8
1
100
AcDbLine
6
DOT2
62
6
10
2586.137692
20
-417.016930
11
2586.437692
21
-417.316930
0
LINE
5
7c8
100
AcDbEntity
8
1
100
AcDbLine
6
DOT2
62
6
10
2588.245470
20
-419.124708
11
2588.545470
21
-419.424708
0
LINE
5
7c9
100
AcDbEntity
8
1
100
AcDbLine
6
DOT2
62
6
10
2586.137692
20
-416.734088
11
2586.437692
21
-417.034088
0
LINE
5
7ca
100
AcDbEntity
8
1
100
AcDbLine
6
DOT2
62
6
10
2588.528313
20
-419.124708
11
2588.828313
21
-419.424708
0
LINE
5
7cb
100
AcDbEntity
8
1
100
AcDbLine
6
DOT2
62
6
10
2586.137692
20
-416.451245
11
2586.437692
21
-416.751245
0
LINE
5
7cc
100
AcDbEntity
8
1
100
AcDbLine
6
DOT2
62
6
10
2588.811155
20
-419.124708
11
2589.111155
21
-419.424708
0
LINE
5
7cd
100
AcDbEntity
8
1
100
AcDbLine
6
DOT2
62
6
10
2586.137692
20
-416.168402
11
2586.437692
21
-416.468402
0
LINE
5
7ce
100
AcDbEntity
8
1
100
AcDbLine
6
DOT2
62
6
10
2589.093998
20
-419.124708
11
2589.393998
21
-419.424708
0
LINE
5
7cf
100
AcDbEntity
8
1
100
AcDbLine
6
DOT2
62
6
10
2586.137692
20
-415.885559
11
2586.437692
21
-416.185559
0
LINE
5
7d0
100
AcDbEntity
8
1
100
AcDbLine
6
DOT2
62
6
10
2589.376841
20
-419.124708
11
2589.676841
21
-419.424708
0
LINE
5
7d1
100
AcDbEntity
8
1
100
AcDbLine
6
DOT2
62
6
10
2586.137692
20
-415.602717
11
2586.437692
21
-415.902717
0
LINE
5
7d2
100
AcDbEntity
8
1
100
AcDbLine
6
DOT2
62
6
10
2589.659683
20
-419.124708
11
2589.959683
21
-419.424708
0
LINE
5
7d3
100
AcDbEntity
8
1
100
AcDbLine
6
DOT2
62
6
10
2586.137692
20
-415.319874
11
2586.437692
21
-415.619874
0
LINE
5
7d4
100
AcDbEntity
8
1
100
AcDbLine
6
DOT2
62
6
10
2589.942526
20
-419.124708
11
2590.242526
21
-419.424708
0
LINE
5
7d5
100
AcDbEntity
8
1
100
AcDbLine
6
DOT2
62
6
10
2586.137692
20
-415.037031
11
2586.437692
21
-415.337031
0
LINE
5
7d6
100
AcDbEntity
8
1
100
AcDbLine
6
DOT2
62
6
10
2590.225369
20
-419.124708
11
2590.525369
21
-419.424708
0
LINE
5
7d7
100
AcDbEntity
8
1
100
AcDbLine
6
DOT2
62
6
10
2586.137692
20
-414.754189
11
2586.437692
21
-415.054189
0
LINE
5
7d8
100
AcDbEntity
8
1
100
AcDbLine
6
DOT2
62
6
10
2590.508212
20
-419.124708
11
2590.808212
21
-419.424708
0
LINE
5
7d9
100
AcDbEntity
8
1
100
AcDbLine
6
DOT2
62
6
10
2586.137692
20
-414.471346
11
2586.437692
21
-414.771346
0
LINE
5
7da
100
AcDbEntity
8
1
100
AcDbLine
6
DOT2
62
6
10
2590.791054
20
-419.124708
11
2591.091054
21
-419.424708
0
LINE
5
7db
100
AcDbEntity
8
1
100
AcDbLine
6
DOT2
62
6
10
2586.137692
20
-414.188503
11
2586.437692
21
-414.488503
0
LINE
5
7dc
100
AcDbEntity
8
1
100
AcDbLine
6
DOT2
62
6
10
2591.073897
20
-419.124708
11
2591.373897
21
-419.424708
0
LINE
5
7dd
100
AcDbEntity
8
1
100
AcDbLine
6
DOT2
62
6
10
2586.137692
20
-413.905660
11
2586.437692
21
-414.205660
0
LINE
5
7de
100
AcDbEntity
8
1
100
AcDbLine
6
DOT2
62
6
10
2591.356740
20
-419.124708
11
2591.656740
21
-419.424708
0
LINE
5
7df
100
AcDbEntity
8
1
100
AcDbLine
6
DOT2
62
6
10
2586.137692
20
-413.622818
11
2586.437692
21
-413.922818
0
LINE
5
7e0
100
AcDbEntity
8
1
100
AcDbLine
6
DOT2
62
6
10
2591.639582
20
-419.124708
11
2591.939582
21
-419.424708
0
LINE
5
7e1
100
AcDbEntity
8
1
100
AcDbLine
6
DOT2
62
6
10
2586.137692
20
-413.339975
11
2586.437692
21
-413.639975
0
LINE
5
7e2
100
AcDbEntity
8
1
100
AcDbLine
6
DOT2
62
6
10
2591.922425
20
-419.124708
11
2592.222425
21
-419.424708
0
LINE
5
7e3
100
AcDbEntity
8
1
100
AcDbLine
6
DOT2
62
6
10
2586.137692
20
-413.057132
11
2586.437692
21
-413.357132
0
LINE
5
7e4
100
AcDbEntity
8
1
100
AcDbLine
6
DOT2
62
6
10
2592.205268
20
-419.124708
11
2592.505268
21
-419.424708
0
LINE
5
7e5
100
AcDbEntity
8
1
100
AcDbLine
6
DOT2
62
6
10
2586.137692
20
-412.774290
11
2586.437692
21
-413.074290
0
LINE
5
7e6
100
AcDbEntity
8
1
100
AcDbLine
6
DOT2
62
6
10
2592.488111
20
-419.124708
11
2592.788111
21
-419.424708
0
LINE
5
7e7
100
AcDbEntity
8
1
100
AcDbLine
6
DOT2
62
6
10
2586.137692
20
-412.491447
11
2586.437692
21
-412.791447
0
LINE
5
7e8
100
AcDbEntity
8
1
100
AcDbLine
6
DOT2
62
6
10
2592.770953
20
-419.124708
11
2593.070953
21
-419.424708
0
LINE
5
7e9
100
AcDbEntity
8
1
100
AcDbLine
6
DOT2
62
6
10
2586.137692
20
-412.208604
11
2586.437692
21
-412.508604
0
LINE
5
7ea
100
AcDbEntity
8
1
100
AcDbLine
6
DOT2
62
6
10
2593.053796
20
-419.124708
11
2593.353796
21
-419.424708
0
LINE
5
7eb
100
AcDbEntity
8
1
100
AcDbLine
6
DOT2
62
6
10
2586.137692
20
-411.925761
11
2586.437692
21
-412.225761
0
LINE
5
7ec
100
AcDbEntity
8
1
100
AcDbLine
6
DOT2
62
6
10
2593.336639
20
-419.124708
11
2593.636639
21
-419.424708
0
LINE
5
7ed
100
AcDbEntity
8
1
100
AcDbLine
6
DOT2
62
6
10
2586.137692
20
-411.642919
11
2586.437692
21
-411.942919
0
LINE
5
7ee
100
AcDbEntity
8
1
100
AcDbLine
6
DOT2
62
6
10
2593.437692
20
-418.942919
11
2593.737692
21
-419.242919
0
LINE
5
7ef
100
AcDbEntity
8
1
100
AcDbLine
6
DOT2
62
6
10
2586.137692
20
-411.360076
11
2586.437692
21
-411.660076
0
LINE
5
7f0
100
AcDbEntity
8
1
100
AcDbLine
6
DOT2
62
6
10
2593.437692
20
-418.660076
11
2593.737692
21
-418.960076
0
LINE
5
7f1
100
AcDbEntity
8
1
100
AcDbLine
6
DOT2
62
6
10
2586.137692
20
-411.077233
11
2586.437692
21
-411.377233
0
LINE
5
7f2
100
AcDbEntity
8
1
100
AcDbLine
6
DOT2
62
6
10
2593.437692
20
-418.377233
11
2593.737692
21
-418.677233
0
LINE
5
7f3
100
AcDbEntity
8
1
100
AcDbLine
6
DOT2
62
6
10
2586.137692
20
-410.794391
11
2586.437692
21
-411.094391
0
LINE
5
7f4
100
AcDbEntity
8
1
100
AcDbLine
6
DOT2
62
6
10
2593.437692
20
-418.094391
11
2593.737692
21
-418.394391
0
LINE
5
7f5
100
AcDbEntity
8
1
100
AcDbLine
6
DOT2
62
6
10
2586.137692
20
-410.511548
11
2586.437692
21
-410.811548
0
LINE
5
7f6
100
AcDbEntity
8
1
100
AcDbLine
6
DOT2
62
6
10
2593.437692
20
-417.811548
11
2593.737692
21
-418.111548
0
LINE
5
7f7
100
AcDbEntity
8
1
100
AcDbLine
6
DOT2
62
6
10
2586.137692
20
-410.228705
11
2586.437692
21
-410.528705
0
LINE
5
7f8
100
AcDbEntity
8
1
100
AcDbLine
6
DOT2
62
6
10
2593.437692
20
-417.528705
11
2593.737692
21
-417.828705
0
LINE
5
7f9
100
AcDbEntity
8
1
100
AcDbLine
6
DOT2
62
6
10
2586.137692
20
-409.945863
11
2586.437692
21
-410.245863
0
LINE
5
7fa
100
AcDbEntity
8
1
100
AcDbLine
6
DOT2
62
6
10
2593.437692
20
-417.245863
11
2593.737692
21
-417.545863
0
LINE
5
7fb
100
AcDbEntity
8
1
100
AcDbLine
6
DOT2
62
6
10
2586.137692
20
-409.663020
11
2586.437692
21
-409.963020
0
LINE
5
7fc
100
AcDbEntity
8
1
100
AcDbLine
6
DOT2
62
6
10
2593.437692
20
-416.963020
11
2593.737692
21
-417.263020
0
LINE
5
7fd
100
AcDbEntity
8
1
100
AcDbLine
6
DOT2
62
6
10
2586.137692
20
-409.380177
11
2586.437692
21
-409.680177
0
LINE
5
7fe
100
AcDbEntity
8
1
100
AcDbLine
6
DOT2
62
6
10
2593.437692
20
-416.680177
11
2593.737692
21
-416.980177
0
LINE
5
7ff
100
AcDbEntity
8
1
100
AcDbLine
6
DOT2
62
6
10
2586.137692
20
-409.097334
11
2586.437692
21
-409.397334
0
LINE
5
800
100
AcDbEntity
8
1
100
AcDbLine
6
DOT2
62
6
10
2593.437692
20
-416.397334
11
2593.737692
21
-416.697334
0
LINE
5
801
100
AcDbEntity
8
1
100
AcDbLine
6
DOT2
62
6
10
2586.137692
20
-408.814492
11
2586.437692
21
-409.114492
0
LINE
5
802
100
AcDbEntity
8
1
100
AcDbLine
6
DOT2
62
6
10
2593.437692
20
-416.114492
11
2593.737692
21
-416.414492
0
LINE
5
803
100
AcDbEntity
8
1
100
AcDbLine
6
DOT2
62
6
10
2586.137692
20
-408.531649
11
2586.437692
21
-408.831649
0
LINE
5
804
100
AcDbEntity
8
1
100
AcDbLine
6
DOT2
62
6
10
2593.437692
20
-415.831649
11
2593.737692
21
-416.131649
0
LINE
5
805
100
AcDbEntity
8
1
100
AcDbLine
6
DOT2
62
6
10
2586.137692
20
-408.248806
11
2586.437692
21
-408.548806
0
LINE
5
806
100
AcDbEntity
8
1
100
AcDbLine
6
DOT2
62
6
10
2593.437692
20
-415.548806
11
2593.737692
21
-415.848806
0
LINE
5
807
100
AcDbEntity
8
1
100
AcDbLine
6
DOT2
62
6
10
2586.137692
20
-407.965964
11
2586.437692
21
-408.265964
0
LINE
5
808
100
AcDbEntity
8
1
100
AcDbLine
6
DOT2
62
6
10
2593.437692
20
-415.265964
11
2593.737692
21
-415.565964
0
LINE
5
809
100
AcDbEntity
8
1
100
AcDbLine
6
DOT2
62
6
10
2586.137692
20
-407.683121
11
2586.437692
21
-407.983121
0
LINE
5
80a
100
AcDbEntity
8
1
100
AcDbLine
6
DOT2
62
6
10
2593.437692
20
-414.983121
11
2593.737692
21
-415.283121
0
LINE
5
80b
100
AcDbEntity
8
1
100
AcDbLine
6
DOT2
62
6
10
2586.137692
20
-407.400278
11
2586.437692
21
-407.700278
0
LINE
5
80c
100
AcDbEntity
8
1
100
AcDbLine
6
DOT2
62
6
10
2593.437692
20
-414.700278
11
2593.737692
21
-415.000278
0
LINE
5
80d
100
AcDbEntity
8
1
100
AcDbLine
6
DOT2
62
6
10
2586.137692
20
-407.117435
11
2586.437692
21
-407.417435
0
LINE
5
80e
100
AcDbEntity
8
1
100
AcDbLine
6
DOT2
62
6
10
2593.437692
20
-414.417435
11
2593.737692
21
-414.717435
0
LINE
5
80f
100
AcDbEntity
8
1
100
AcDbLine
6
DOT2
62
6
10
2586.137692
20
-406.834593
11
2586.437692
21
-407.134593
0
LINE
5
810
100
AcDbEntity
8
1
100
AcDbLine
6
DOT2
62
6
10
2593.437692
20
-414.134593
11
2593.737692
21
-414.434593
0
LINE
5
811
100
AcDbEntity
8
1
100
AcDbLine
6
DOT2
62
6
10
2586.137692
20
-406.551750
11
2586.437692
21
-406.851750
0
LINE
5
812
100
AcDbEntity
8
1
100
AcDbLine
6
DOT2
62
6
10
2593.437692
20
-413.851750
11
2593.737692
21
-414.151750
0
LINE
5
813
100
AcDbEntity
8
1
100
AcDbLine
6
DOT2
62
6
10
2586.137692
20
-406.268907
11
2586.437692
21
-406.568907
0
LINE
5
814
100
AcDbEntity
8
1
100
AcDbLine
6
DOT2
62
6
10
2593.437692
20
-413.568907
11
2593.737692
21
-413.868907
0
LINE
5
815
100
AcDbEntity
8
1
100
AcDbLine
6
DOT2
62
6
10
2586.137692
20
-405.986065
11
2586.437692
21
-406.286065
0
LINE
5
816
100
AcDbEntity
8
1
100
AcDbLine
6
DOT2
62
6
10
2593.437692
20
-413.286065
11
2593.737692
21
-413.586065
0
LINE
5
817
100
AcDbEntity
8
1
100
AcDbLine
6
DOT2
62
6
10
2586.137692
20
-405.703222
11
2586.437692
21
-406.003222
0
LINE
5
818
100
AcDbEntity
8
1
100
AcDbLine
6
DOT2
62
6
10
2593.437692
20
-413.003222
11
2593.737692
21
-413.303222
0
LINE
5
819
100
AcDbEntity
8
1
100
AcDbLine
6
DOT2
62
6
10
2586.137692
20
-405.420379
11
2586.437692
21
-405.720379
0
LINE
5
81a
100
AcDbEntity
8
1
100
AcDbLine
6
DOT2
62
6
10
2593.437692
20
-412.720379
11
2593.737692
21
-413.020379
0
LINE
5
81b
100
AcDbEntity
8
1
100
AcDbLine
6
DOT2
62
6
10
2586.137692
20
-405.137536
11
2586.437692
21
-405.437536
0
LINE
5
81c
100
AcDbEntity
8
1
100
AcDbLine
6
DOT2
62
6
10
2593.437692
20
-412.437536
11
2593.737692
21
-412.737536
0
LINE
5
81d
100
AcDbEntity
8
1
100
AcDbLine
6
DOT2
62
6
10
2586.137692
20
-404.641149
11
2586.354134
21
-404.424708
0
LINE
5
81e
100
AcDbEntity
8
1
100
AcDbLine
6
DOT2
62
6
10
2593.437692
20
-405.260745
11
2593.737692
21
-404.960745
0
LINE
5
81f
100
AcDbEntity
8
1
100
AcDbLine
6
DOT2
62
6
10
2586.137692
20
-412.277903
11
2586.437692
21
-411.977903
0
LINE
5
820
100
AcDbEntity
8
1
100
AcDbLine
6
DOT2
62
6
10
2593.437692
20
-404.977903
11
2593.737692
21
-404.677903
0
LINE
5
821
100
AcDbEntity
8
1
100
AcDbLine
6
DOT2
62
6
10
2586.137692
20
-411.995060
11
2586.437692
21
-411.695060
0
LINE
5
822
100
AcDbEntity
8
1
100
AcDbLine
6
DOT2
62
6
10
2593.408044
20
-404.724708
11
2593.708044
21
-404.424708
0
LINE
5
823
100
AcDbEntity
8
1
100
AcDbLine
6
DOT2
62
6
10
2586.137692
20
-411.712217
11
2586.437692
21
-411.412217
0
LINE
5
824
100
AcDbEntity
8
1
100
AcDbLine
6
DOT2
62
6
10
2593.125202
20
-404.724708
11
2593.425202
21
-404.424708
0
LINE
5
825
100
AcDbEntity
8
1
100
AcDbLine
6
DOT2
62
6
10
2586.137692
20
-411.429375
11
2586.437692
21
-411.129375
0
LINE
5
826
100
AcDbEntity
8
1
100
AcDbLine
6
DOT2
62
6
10
2592.842359
20
-404.724708
11
2593.142359
21
-404.424708
0
LINE
5
827
100
AcDbEntity
8
1
100
AcDbLine
6
DOT2
62
6
10
2586.137692
20
-411.146532
11
2586.437692
21
-410.846532
0
LINE
5
828
100
AcDbEntity
8
1
100
AcDbLine
6
DOT2
62
6
10
2592.559516
20
-404.724708
11
2592.859516
21
-404.424708
0
LINE
5
829
100
AcDbEntity
8
1
100
AcDbLine
6
DOT2
62
6
10
2586.137692
20
-410.863689
11
2586.437692
21
-410.563689
0
LINE
5
82a
100
AcDbEntity
8
1
100
AcDbLine
6
DOT2
62
6
10
2592.276673
20
-404.724708
11
2592.576673
21
-404.424708
0
LINE
5
82b
100
AcDbEntity
8
1
100
AcDbLine
6
DOT2
62
6
10
2586.137692
20
-410.580846
11
2586.437692
21
-410.280846
0
LINE
5
82c
100
AcDbEntity
8
1
100
AcDbLine
6
DOT2
62
6
10
2591.993831
20
-404.724708
11
2592.293831
21
-404.424708
0
LINE
5
82d
100
AcDbEntity
8
1
100
AcDbLine
6
DOT2
62
6
10
2586.137692
20
-410.298004
11
2586.437692
21
-409.998004
0
LINE
5
82e
100
AcDbEntity
8
1
100
AcDbLine
6
DOT2
62
6
10
2591.710988
20
-404.724708
11
2592.010988
21
-404.424708
0
LINE
5
82f
100
AcDbEntity
8
1
100
AcDbLine
6
DOT2
62
6
10
2586.137692
20
-410.015161
11
2586.437692
21
-409.715161
0
LINE
5
830
100
AcDbEntity
8
1
100
AcDbLine
6
DOT2
62
6
10
2591.428145
20
-404.724708
11
2591.728145
21
-404.424708
0
LINE
5
831
100
AcDbEntity
8
1
100
AcDbLine
6
DOT2
62
6
10
2586.137692
20
-409.732318
11
2586.437692
21
-409.432318
0
LINE
5
832
100
AcDbEntity
8
1
100
AcDbLine
6
DOT2
62
6
10
2591.145303
20
-404.724708
11
2591.445303
21
-404.424708
0
LINE
5
833
100
AcDbEntity
8
1
100
AcDbLine
6
DOT2
62
6
10
2586.137692
20
-409.449476
11
2586.437692
21
-409.149476
0
LINE
5
834
100
AcDbEntity
8
1
100
AcDbLine
6
DOT2
62
6
10
2590.862460
20
-404.724708
11
2591.162460
21
-404.424708
0
LINE
5
835
100
AcDbEntity
8
1
100
AcDbLine
6
DOT2
62
6
10
2586.137692
20
-409.166633
11
2586.437692
21
-408.866633
0
LINE
5
836
100
AcDbEntity
8
1
100
AcDbLine
6
DOT2
62
6
10
2590.579617
20
-404.724708
11
2590.879617
21
-404.424708
0
LINE
5
837
100
AcDbEntity
8
1
100
AcDbLine
6
DOT2
62
6
10
2586.137692
20
-408.883790
11
2586.437692
21
-408.583790
0
LINE
5
838
100
AcDbEntity
8
1
100
AcDbLine
6
DOT2
62
6
10
2590.296774
20
-404.724708
11
2590.596774
21
-404.424708
0
LINE
5
839
100
AcDbEntity
8
1
100
AcDbLine
6
DOT2
62
6
10
2586.137692
20
-408.600947
11
2586.437692
21
-408.300947
0
LINE
5
83a
100
AcDbEntity
8
1
100
AcDbLine
6
DOT2
62
6
10
2590.013932
20
-404.724708
11
2590.313932
21
-404.424708
0
LINE
5
83b
100
AcDbEntity
8
1
100
AcDbLine
6
DOT2
62
6
10
2586.137692
20
-408.318105
11
2586.437692
21
-408.018105
0
LINE
5
83c
100
AcDbEntity
8
1
100
AcDbLine
6
DOT2
62
6
10
2589.731089
20
-404.724708
11
2590.031089
21
-404.424708
0
LINE
5
83d
100
AcDbEntity
8
1
100
AcDbLine
6
DOT2
62
6
10
2586.137692
20
-408.035262
11
2586.437692
21
-407.735262
0
LINE
5
83e
100
AcDbEntity
8
1
100
AcDbLine
6
DOT2
62
6
10
2589.448246
20
-404.724708
11
2589.748246
21
-404.424708
0
LINE
5
83f
100
AcDbEntity
8
1
100
AcDbLine
6
DOT2
62
6
10
2586.137692
20
-407.752419
11
2586.437692
21
-407.452419
0
LINE
5
840
100
AcDbEntity
8
1
100
AcDbLine
6
DOT2
62
6
10
2589.165404
20
-404.724708
11
2589.465404
21
-404.424708
0
LINE
5
841
100
AcDbEntity
8
1
100
AcDbLine
6
DOT2
62
6
10
2586.137692
20
-407.469577
11
2586.437692
21
-407.169577
0
LINE
5
842
100
AcDbEntity
8
1
100
AcDbLine
6
DOT2
62
6
10
2588.882561
20
-404.724708
11
2589.182561
21
-404.424708
0
LINE
5
843
100
AcDbEntity
8
1
100
AcDbLine
6
DOT2
62
6
10
2586.137692
20
-407.186734
11
2586.437692
21
-406.886734
0
LINE
5
844
100
AcDbEntity
8
1
100
AcDbLine
6
DOT2
62
6
10
2588.599718
20
-404.724708
11
2588.899718
21
-404.424708
0
LINE
5
845
100
AcDbEntity
8
1
100
AcDbLine
6
DOT2
62
6
10
2586.137692
20
-406.903891
11
2586.437692
21
-406.603891
0
LINE
5
846
100
AcDbEntity
8
1
100
AcDbLine
6
DOT2
62
6
10
2588.316876
20
-404.724708
11
2588.616876
21
-404.424708
0
LINE
5
847
100
AcDbEntity
8
1
100
AcDbLine
6
DOT2
62
6
10
2586.137692
20
-406.621048
11
2586.437692
21
-406.321048
0
LINE
5
848
100
AcDbEntity
8
1
100
AcDbLine
6
DOT2
62
6
10
2588.034033
20
-404.724708
11
2588.334033
21
-404.424708
0
LINE
5
849
100
AcDbEntity
8
1
100
AcDbLine
6
DOT2
62
6
10
2586.137692
20
-406.338206
11
2586.437692
21
-406.038206
0
LINE
5
84a
100
AcDbEntity
8
1
100
AcDbLine
6
DOT2
62
6
10
2587.751190
20
-404.724708
11
2588.051190
21
-404.424708
0
LINE
5
84b
100
AcDbEntity
8
1
100
AcDbLine
6
DOT2
62
6
10
2586.137692
20
-406.055363
11
2586.437692
21
-405.755363
0
LINE
5
84c
100
AcDbEntity
8
1
100
AcDbLine
6
DOT2
62
6
10
2587.468347
20
-404.724708
11
2587.768347
21
-404.424708
0
LINE
5
84d
100
AcDbEntity
8
1
100
AcDbLine
6
DOT2
62
6
10
2586.137692
20
-405.772520
11
2586.437692
21
-405.472520
0
LINE
5
84e
100
AcDbEntity
8
1
100
AcDbLine
6
DOT2
62
6
10
2587.185505
20
-404.724708
11
2587.485505
21
-404.424708
0
LINE
5
84f
100
AcDbEntity
8
1
100
AcDbLine
6
DOT2
62
6
10
2586.137692
20
-405.489678
11
2586.437692
21
-405.189678
0
LINE
5
850
100
AcDbEntity
8
1
100
AcDbLine
6
DOT2
62
6
10
2586.902662
20
-404.724708
11
2587.202662
21
-404.424708
0
LINE
5
851
100
AcDbEntity
8
1
100
AcDbLine
6
DOT2
62
6
10
2586.137692
20
-405.206835
11
2586.437692
21
-404.906835
0
LINE
5
852
100
AcDbEntity
8
1
100
AcDbLine
6
DOT2
62
6
10
2586.619819
20
-404.724708
11
2586.919819
21
-404.424708
0
LINE
5
853
100
AcDbEntity
8
1
100
AcDbLine
6
DOT2
62
6
10
2586.137692
20
-404.923992
11
2586.636977
21
-404.424708
0
LINE
5
854
100
AcDbEntity
8
1
100
AcDbLine
6
DOT2
62
6
10
2586.137692
20
-412.560745
11
2586.437692
21
-412.260745
0
LINE
5
855
100
AcDbEntity
8
1
100
AcDbLine
6
DOT2
62
6
10
2593.698708
20
-419.424708
11
2593.737692
21
-419.385724
0
LINE
5
856
100
AcDbEntity
8
1
100
AcDbLine
6
DOT2
62
6
10
2593.415865
20
-419.424708
11
2593.737692
21
-419.102881
0
LINE
5
857
100
AcDbEntity
8
1
100
AcDbLine
6
DOT2
62
6
10
2593.133023
20
-419.424708
11
2593.433023
21
-419.124708
0
LINE
5
858
100
AcDbEntity
8
1
100
AcDbLine
6
DOT2
62
6
10
2593.437692
20
-419.120038
11
2593.737692
21
-418.820038
0
LINE
5
859
100
AcDbEntity
8
1
100
AcDbLine
6
DOT2
62
6
10
2592.850180
20
-419.424708
11
2593.150180
21
-419.124708
0
LINE
5
85a
100
AcDbEntity
8
1
100
AcDbLine
6
DOT2
62
6
10
2593.437692
20
-418.837196
11
2593.737692
21
-418.537196
0
LINE
5
85b
100
AcDbEntity
8
1
100
AcDbLine
6
DOT2
62
6
10
2592.567337
20
-419.424708
11
2592.867337
21
-419.124708
0
LINE
5
85c
100
AcDbEntity
8
1
100
AcDbLine
6
DOT2
62
6
10
2593.437692
20
-418.554353
11
2593.737692
21
-418.254353
0
LINE
5
85d
100
AcDbEntity
8
1
100
AcDbLine
6
DOT2
62
6
10
2592.284495
20
-419.424708
11
2592.584495
21
-419.124708
0
LINE
5
85e
100
AcDbEntity
8
1
100
AcDbLine
6
DOT2
62
6
10
2593.437692
20
-418.271510
11
2593.737692
21
-417.971510
0
LINE
5
85f
100
AcDbEntity
8
1
100
AcDbLine
6
DOT2
62
6
10
2592.001652
20
-419.424708
11
2592.301652
21
-419.124708
0
LINE
5
860
100
AcDbEntity
8
1
100
AcDbLine
6
DOT2
62
6
10
2593.437692
20
-417.988667
11
2593.737692
21
-417.688667
0
LINE
5
861
100
AcDbEntity
8
1
100
AcDbLine
6
DOT2
62
6
10
2591.718809
20
-419.424708
11
2592.018809
21
-419.124708
0
LINE
5
862
100
AcDbEntity
8
1
100
AcDbLine
6
DOT2
62
6
10
2593.437692
20
-417.705825
11
2593.737692
21
-417.405825
0
LINE
5
863
100
AcDbEntity
8
1
100
AcDbLine
6
DOT2
62
6
10
2591.435966
20
-419.424708
11
2591.735966
21
-419.124708
0
LINE
5
864
100
AcDbEntity
8
1
100
AcDbLine
6
DOT2
62
6
10
2593.437692
20
-417.422982
11
2593.737692
21
-417.122982
0
LINE
5
865
100
AcDbEntity
8
1
100
AcDbLine
6
DOT2
62
6
10
2591.153124
20
-419.424708
11
2591.453124
21
-419.124708
0
LINE
5
866
100
AcDbEntity
8
1
100
AcDbLine
6
DOT2
62
6
10
2593.437692
20
-417.140139
11
2593.737692
21
-416.840139
0
LINE
5
867
100
AcDbEntity
8
1
100
AcDbLine
6
DOT2
62
6
10
2590.870281
20
-419.424708
11
2591.170281
21
-419.124708
0
LINE
5
868
100
AcDbEntity
8
1
100
AcDbLine
6
DOT2
62
6
10
2593.437692
20
-416.857297
11
2593.737692
21
-416.557297
0
LINE
5
869
100
AcDbEntity
8
1
100
AcDbLine
6
DOT2
62
6
10
2590.587438
20
-419.424708
11
2590.887438
21
-419.124708
0
LINE
5
86a
100
AcDbEntity
8
1
100
AcDbLine
6
DOT2
62
6
10
2593.437692
20
-416.574454
11
2593.737692
21
-416.274454
0
LINE
5
86b
100
AcDbEntity
8
1
100
AcDbLine
6
DOT2
62
6
10
2590.304596
20
-419.424708
11
2590.604596
21
-419.124708
0
LINE
5
86c
100
AcDbEntity
8
1
100
AcDbLine
6
DOT2
62
6
10
2593.437692
20
-416.291611
11
2593.737692
21
-415.991611
0
LINE
5
86d
100
AcDbEntity
8
1
100
AcDbLine
6
DOT2
62
6
10
2590.021753
20
-419.424708
11
2590.321753
21
-419.124708
0
LINE
5
86e
100
AcDbEntity
8
1
100
AcDbLine
6
DOT2
62
6
10
2593.437692
20
-416.008768
11
2593.737692
21
-415.708768
0
LINE
5
86f
100
AcDbEntity
8
1
100
AcDbLine
6
DOT2
62
6
10
2589.738910
20
-419.424708
11
2590.038910
21
-419.124708
0
LINE
5
870
100
AcDbEntity
8
1
100
AcDbLine
6
DOT2
62
6
10
2593.437692
20
-415.725926
11
2593.737692
21
-415.425926
0
LINE
5
871
100
AcDbEntity
8
1
100
AcDbLine
6
DOT2
62
6
10
2589.456067
20
-419.424708
11
2589.756067
21
-419.124708
0
LINE
5
872
100
AcDbEntity
8
1
100
AcDbLine
6
DOT2
62
6
10
2593.437692
20
-415.443083
11
2593.737692
21
-415.143083
0
LINE
5
873
100
AcDbEntity
8
1
100
AcDbLine
6
DOT2
62
6
10
2589.173225
20
-419.424708
11
2589.473225
21
-419.124708
0
LINE
5
874
100
AcDbEntity
8
1
100
AcDbLine
6
DOT2
62
6
10
2593.437692
20
-415.160240
11
2593.737692
21
-414.860240
0
LINE
5
875
100
AcDbEntity
8
1
100
AcDbLine
6
DOT2
62
6
10
2588.890382
20
-419.424708
11
2589.190382
21
-419.124708
0
LINE
5
876
100
AcDbEntity
8
1
100
AcDbLine
6
DOT2
62
6
10
2593.437692
20
-414.877398
11
2593.737692
21
-414.577398
0
LINE
5
877
100
AcDbEntity
8
1
100
AcDbLine
6
DOT2
62
6
10
2588.607539
20
-419.424708
11
2588.907539
21
-419.124708
0
LINE
5
878
100
AcDbEntity
8
1
100
AcDbLine
6
DOT2
62
6
10
2593.437692
20
-414.594555
11
2593.737692
21
-414.294555
0
LINE
5
879
100
AcDbEntity
8
1
100
AcDbLine
6
DOT2
62
6
10
2588.324697
20
-419.424708
11
2588.624697
21
-419.124708
0
LINE
5
87a
100
AcDbEntity
8
1
100
AcDbLine
6
DOT2
62
6
10
2593.437692
20
-414.311712
11
2593.737692
21
-414.011712
0
LINE
5
87b
100
AcDbEntity
8
1
100
AcDbLine
6
DOT2
62
6
10
2588.041854
20
-419.424708
11
2588.341854
21
-419.124708
0
LINE
5
87c
100
AcDbEntity
8
1
100
AcDbLine
6
DOT2
62
6
10
2593.437692
20
-414.028869
11
2593.737692
21
-413.728869
0
LINE
5
87d
100
AcDbEntity
8
1
100
AcDbLine
6
DOT2
62
6
10
2587.759011
20
-419.424708
11
2588.059011
21
-419.124708
0
LINE
5
87e
100
AcDbEntity
8
1
100
AcDbLine
6
DOT2
62
6
10
2593.437692
20
-413.746027
11
2593.737692
21
-413.446027
0
LINE
5
87f
100
AcDbEntity
8
1
100
AcDbLine
6
DOT2
62
6
10
2587.476168
20
-419.424708
11
2587.776168
21
-419.124708
0
LINE
5
880
100
AcDbEntity
8
1
100
AcDbLine
6
DOT2
62
6
10
2593.437692
20
-413.463184
11
2593.737692
21
-413.163184
0
LINE
5
881
100
AcDbEntity
8
1
100
AcDbLine
6
DOT2
62
6
10
2587.193326
20
-419.424708
11
2587.493326
21
-419.124708
0
LINE
5
882
100
AcDbEntity
8
1
100
AcDbLine
6
DOT2
62
6
10
2593.437692
20
-413.180341
11
2593.737692
21
-412.880341
0
LINE
5
883
100
AcDbEntity
8
1
100
AcDbLine
6
DOT2
62
6
10
2586.910483
20
-419.424708
11
2587.210483
21
-419.124708
0
LINE
5
884
100
AcDbEntity
8
1
100
AcDbLine
6
DOT2
62
6
10
2593.437692
20
-412.897499
11
2593.737692
21
-412.597499
0
LINE
5
885
100
AcDbEntity
8
1
100
AcDbLine
6
DOT2
62
6
10
2586.627640
20
-419.424708
11
2586.927640
21
-419.124708
0
LINE
5
886
100
AcDbEntity
8
1
100
AcDbLine
6
DOT2
62
6
10
2593.437692
20
-412.614656
11
2593.737692
21
-412.314656
0
LINE
5
887
100
AcDbEntity
8
1
100
AcDbLine
6
DOT2
62
6
10
2586.344798
20
-419.424708
11
2586.644798
21
-419.124708
0
LINE
5
888
100
AcDbEntity
8
1
100
AcDbLine
6
DOT2
62
6
10
2593.437692
20
-412.331813
11
2593.737692
21
-412.031813
0
LINE
5
889
100
AcDbEntity
8
1
100
AcDbLine
6
DOT2
62
6
10
2586.137692
20
-419.348970
11
2586.437692
21
-419.048970
0
LINE
5
88a
100
AcDbEntity
8
1
100
AcDbLine
6
DOT2
62
6
10
2593.437692
20
-412.048970
11
2593.737692
21
-411.748970
0
LINE
5
88b
100
AcDbEntity
8
1
100
AcDbLine
6
DOT2
62
6
10
2586.137692
20
-419.066128
11
2586.437692
21
-418.766128
0
LINE
5
88c
100
AcDbEntity
8
1
100
AcDbLine
6
DOT2
62
6
10
2593.437692
20
-411.766128
11
2593.737692
21
-411.466128
0
LINE
5
88d
100
AcDbEntity
8
1
100
AcDbLine
6
DOT2
62
6
10
2586.137692
20
-418.783285
11
2586.437692
21
-418.483285
0
LINE
5
88e
100
AcDbEntity
8
1
100
AcDbLine
6
DOT2
62
6
10
2593.437692
20
-411.483285
11
2593.737692
21
-411.183285
0
LINE
5
88f
100
AcDbEntity
8
1
100
AcDbLine
6
DOT2
62
6
10
2586.137692
20
-418.500442
11
2586.437692
21
-418.200442
0
LINE
5
890
100
AcDbEntity
8
1
100
AcDbLine
6
DOT2
62
6
10
2593.437692
20
-411.200442
11
2593.737692
21
-410.900442
0
LINE
5
891
100
AcDbEntity
8
1
100
AcDbLine
6
DOT2
62
6
10
2586.137692
20
-418.217600
11
2586.437692
21
-417.917600
0
LINE
5
892
100
AcDbEntity
8
1
100
AcDbLine
6
DOT2
62
6
10
2593.437692
20
-410.917600
11
2593.737692
21
-410.617600
0
LINE
5
893
100
AcDbEntity
8
1
100
AcDbLine
6
DOT2
62
6
10
2586.137692
20
-417.934757
11
2586.437692
21
-417.634757
0
LINE
5
894
100
AcDbEntity
8
1
100
AcDbLine
6
DOT2
62
6
10
2593.437692
20
-410.634757
11
2593.737692
21
-410.334757
0
LINE
5
895
100
AcDbEntity
8
1
100
AcDbLine
6
DOT2
62
6
10
2586.137692
20
-417.651914
11
2586.437692
21
-417.351914
0
LINE
5
896
100
AcDbEntity
8
1
100
AcDbLine
6
DOT2
62
6
10
2593.437692
20
-410.351914
11
2593.737692
21
-410.051914
0
LINE
5
897
100
AcDbEntity
8
1
100
AcDbLine
6
DOT2
62
6
10
2586.137692
20
-417.369071
11
2586.437692
21
-417.069071
0
LINE
5
898
100
AcDbEntity
8
1
100
AcDbLine
6
DOT2
62
6
10
2593.437692
20
-410.069071
11
2593.737692
21
-409.769071
0
LINE
5
899
100
AcDbEntity
8
1
100
AcDbLine
6
DOT2
62
6
10
2586.137692
20
-417.086229
11
2586.437692
21
-416.786229
0
LINE
5
89a
100
AcDbEntity
8
1
100
AcDbLine
6
DOT2
62
6
10
2593.437692
20
-409.786229
11
2593.737692
21
-409.486229
0
LINE
5
89b
100
AcDbEntity
8
1
100
AcDbLine
6
DOT2
62
6
10
2586.137692
20
-416.803386
11
2586.437692
21
-416.503386
0
LINE
5
89c
100
AcDbEntity
8
1
100
AcDbLine
6
DOT2
62
6
10
2593.437692
20
-409.503386
11
2593.737692
21
-409.203386
0
LINE
5
89d
100
AcDbEntity
8
1
100
AcDbLine
6
DOT2
62
6
10
2586.137692
20
-416.520543
11
2586.437692
21
-416.220543
0
LINE
5
89e
100
AcDbEntity
8
1
100
AcDbLine
6
DOT2
62
6
10
2593.437692
20
-409.220543
11
2593.737692
21
-408.920543
0
LINE
5
89f
100
AcDbEntity
8
1
100
AcDbLine
6
DOT2
62
6
10
2586.137692
20
-416.237701
11
2586.437692
21
-415.937701
0
LINE
5
8a0
100
AcDbEntity
8
1
100
AcDbLine
6
DOT2
62
6
10
2593.437692
20
-408.937701
11
2593.737692
21
-408.637701
0
LINE
5
8a1
100
AcDbEntity
8
1
100
AcDbLine
6
DOT2
62
6
10
2586.137692
20
-415.954858
11
2586.437692
21
-415.654858
0
LINE
5
8a2
100
AcDbEntity
8
1
100
AcDbLine
6
DOT2
62
6
10
2593.437692
20
-408.654858
11
2593.737692
21
-408.354858
0
LINE
5
8a3
100
AcDbEntity
8
1
100
AcDbLine
6
DOT2
62
6
10
2586.137692
20
-415.672015
11
2586.437692
21
-415.372015
0
LINE
5
8a4
100
AcDbEntity
8
1
100
AcDbLine
6
DOT2
62
6
10
2593.437692
20
-408.372015
11
2593.737692
21
-408.072015
0
LINE
5
8a5
100
AcDbEntity
8
1
100
AcDbLine
6
DOT2
62
6
10
2586.137692
20
-415.389172
11
2586.437692
21
-415.089172
0
LINE
5
8a6
100
AcDbEntity
8
1
100
AcDbLine
6
DOT2
62
6
10
2593.437692
20
-408.089172
11
2593.737692
21
-407.789172
0
LINE
5
8a7
100
AcDbEntity
8
1
100
AcDbLine
6
DOT2
62
6
10
2586.137692
20
-415.106330
11
2586.437692
21
-414.806330
0
LINE
5
8a8
100
AcDbEntity
8
1
100
AcDbLine
6
DOT2
62
6
10
2593.437692
20
-407.806330
11
2593.737692
21
-407.506330
0
LINE
5
8a9
100
AcDbEntity
8
1
100
AcDbLine
6
DOT2
62
6
10
2586.137692
20
-414.823487
11
2586.437692
21
-414.523487
0
LINE
5
8aa
100
AcDbEntity
8
1
100
AcDbLine
6
DOT2
62
6
10
2593.437692
20
-407.523487
11
2593.737692
21
-407.223487
0
LINE
5
8ab
100
AcDbEntity
8
1
100
AcDbLine
6
DOT2
62
6
10
2586.137692
20
-414.540644
11
2586.437692
21
-414.240644
0
LINE
5
8ac
100
AcDbEntity
8
1
100
AcDbLine
6
DOT2
62
6
10
2593.437692
20
-407.240644
11
2593.737692
21
-406.940644
0
LINE
5
8ad
100
AcDbEntity
8
1
100
AcDbLine
6
DOT2
62
6
10
2586.137692
20
-414.257802
11
2586.437692
21
-413.957802
0
LINE
5
8ae
100
AcDbEntity
8
1
100
AcDbLine
6
DOT2
62
6
10
2593.437692
20
-406.957802
11
2593.737692
21
-406.657802
0
LINE
5
8af
100
AcDbEntity
8
1
100
AcDbLine
6
DOT2
62
6
10
2586.137692
20
-413.974959
11
2586.437692
21
-413.674959
0
LINE
5
8b0
100
AcDbEntity
8
1
100
AcDbLine
6
DOT2
62
6
10
2593.437692
20
-406.674959
11
2593.737692
21
-406.374959
0
LINE
5
8b1
100
AcDbEntity
8
1
100
AcDbLine
6
DOT2
62
6
10
2586.137692
20
-413.692116
11
2586.437692
21
-413.392116
0
LINE
5
8b2
100
AcDbEntity
8
1
100
AcDbLine
6
DOT2
62
6
10
2593.437692
20
-406.392116
11
2593.737692
21
-406.092116
0
LINE
5
8b3
100
AcDbEntity
8
1
100
AcDbLine
6
DOT2
62
6
10
2586.137692
20
-413.409274
11
2586.437692
21
-413.109274
0
LINE
5
8b4
100
AcDbEntity
8
1
100
AcDbLine
6
DOT2
62
6
10
2593.437692
20
-406.109274
11
2593.737692
21
-405.809274
0
LINE
5
8b5
100
AcDbEntity
8
1
100
AcDbLine
6
DOT2
62
6
10
2586.137692
20
-413.126431
11
2586.437692
21
-412.826431
0
LINE
5
8b6
100
AcDbEntity
8
1
100
AcDbLine
6
DOT2
62
6
10
2593.437692
20
-405.826431
11
2593.737692
21
-405.526431
0
LINE
5
8b7
100
AcDbEntity
8
1
100
AcDbLine
6
DOT2
62
6
10
2586.137692
20
-412.843588
11
2586.437692
21
-412.543588
0
LINE
5
8b8
100
AcDbEntity
8
1
100
AcDbLine
6
DOT2
62
6
10
2593.437692
20
-405.543588
11
2593.737692
21
-405.243588
0
LINE
5
8b9
100
AcDbEntity
8
1
100
AcDbLine
6
DOT2
62
6
10
2587.970756
20
-412.424738
11
2587.981287
21
-412.414207
0
LINE
5
8ba
100
AcDbEntity
8
1
100
AcDbLine
6
DOT2
62
6
10
2591.663491
20
-413.823172
11
2591.826619
21
-413.660044
0
LINE
5
8bb
100
AcDbEntity
8
1
100
AcDbLine
6
DOT2
62
6
10
2591.428072
20
-413.775748
11
2591.721571
21
-413.482249
0
LINE
5
8bc
100
AcDbEntity
8
1
100
AcDbLine
6
DOT2
62
6
10
2591.211207
20
-413.709770
11
2591.477941
21
-413.443037
0
LINE
5
8bd
100
AcDbEntity
8
1
100
AcDbLine
6
DOT2
62
6
10
2591.010277
20
-413.627857
11
2591.254466
21
-413.383669
0
LINE
5
8be
100
AcDbEntity
8
1
100
AcDbLine
6
DOT2
62
6
10
2590.823556
20
-413.531735
11
2591.047975
21
-413.307317
0
LINE
5
8bf
100
AcDbEntity
8
1
100
AcDbLine
6
DOT2
62
6
10
2591.414129
20
-412.941163
11
2591.467418
21
-412.887874
0
LINE
5
8c0
100
AcDbEntity
8
1
100
AcDbLine
6
DOT2
62
6
10
2590.649897
20
-413.422553
11
2590.856413
21
-413.216036
0
LINE
5
8c1
100
AcDbEntity
8
1
100
AcDbLine
6
DOT2
62
6
10
2591.105076
20
-412.967373
11
2591.332320
21
-412.740129
0
LINE
5
8c2
100
AcDbEntity
8
1
100
AcDbLine
6
DOT2
62
6
10
2591.505812
20
-412.566638
11
2591.724732
21
-412.347718
0
LINE
5
8c3
100
AcDbEntity
8
1
100
AcDbLine
6
DOT2
62
6
10
2590.488555
20
-413.301051
11
2590.678422
21
-413.111184
0
LINE
5
8c4
100
AcDbEntity
8
1
100
AcDbLine
6
DOT2
62
6
10
2590.705616
20
-413.083991
11
2591.170347
21
-412.619259
0
LINE
5
8c5
100
AcDbEntity
8
1
100
AcDbLine
6
DOT2
62
6
10
2591.222711
20
-412.566895
11
2591.589608
21
-412.199998
0
LINE
5
8c6
100
AcDbEntity
8
1
100
AcDbLine
6
DOT2
62
6
10
2590.044427
20
-413.462337
11
2590.191437
21
-413.315327
0
LINE
5
8c7
100
AcDbEntity
8
1
100
AcDbLine
6
DOT2
62
6
10
2590.339101
20
-413.167662
11
2590.513113
21
-412.993651
0
LINE
5
8c8
100
AcDbEntity
8
1
100
AcDbLine
6
DOT2
62
6
10
2590.939611
20
-412.567153
11
2591.092556
21
-412.414207
0
LINE
5
8c9
100
AcDbEntity
8
1
100
AcDbLine
6
DOT2
62
6
10
2589.681670
20
-413.542251
11
2589.873589
21
-413.350333
0
LINE
5
8ca
100
AcDbEntity
8
1
100
AcDbLine
6
DOT2
62
6
10
2590.201367
20
-413.022554
11
2590.359947
21
-412.863974
0
LINE
5
8cb
100
AcDbEntity
8
1
100
AcDbLine
6
DOT2
62
6
10
2590.656511
20
-412.567410
11
2590.809714
21
-412.414207
0
LINE
5
8cc
100
AcDbEntity
8
1
100
AcDbLine
6
DOT2
62
6
10
2589.318913
20
-413.622165
11
2589.555741
21
-413.385338
0
LINE
5
8cd
100
AcDbEntity
8
1
100
AcDbLine
6
DOT2
62
6
10
2590.075430
20
-412.865648
11
2590.218671
21
-412.722408
0
LINE
5
8ce
100
AcDbEntity
8
1
100
AcDbLine
6
DOT2
62
6
10
2590.373410
20
-412.567668
11
2590.526871
21
-412.414207
0
LINE
5
8cf
100
AcDbEntity
8
1
100
AcDbLine
6
DOT2
62
6
10
2588.956156
20
-413.702079
11
2589.327274
21
-413.330962
0
LINE
5
8d0
100
AcDbEntity
8
1
100
AcDbLine
6
DOT2
62
6
10
2589.961619
20
-412.696617
11
2590.089287
21
-412.568948
0
LINE
5
8d1
100
AcDbEntity
8
1
100
AcDbLine
6
DOT2
62
6
10
2590.090310
20
-412.567926
11
2590.244028
21
-412.414207
0
LINE
5
8d2
100
AcDbEntity
8
1
100
AcDbLine
6
DOT2
62
6
10
2588.432804
20
-413.942589
11
2588.920045
21
-413.455348
0
LINE
5
8d3
100
AcDbEntity
8
1
100
AcDbLine
6
DOT2
62
6
10
2589.028693
20
-413.346700
11
2589.327274
21
-413.048119
0
LINE
5
8d4
100
AcDbEntity
8
1
100
AcDbLine
6
DOT2
62
6
10
2589.634902
20
-412.740491
11
2590.117415
21
-412.257978
0
LINE
5
8d5
100
AcDbEntity
8
1
100
AcDbLine
6
DOT2
62
6
10
2590.222171
20
-412.153222
11
2590.245262
21
-412.130131
0
LINE
5
8d6
100
AcDbEntity
8
1
100
AcDbLine
6
DOT2
62
6
10
2588.372158
20
-413.720392
11
2588.602197
21
-413.490354
0
LINE
5
8d7
100
AcDbEntity
8
1
100
AcDbLine
6
DOT2
62
6
10
2589.025243
20
-413.067307
11
2589.678343
21
-412.414207
0
LINE
5
8d8
100
AcDbEntity
8
1
100
AcDbLine
6
DOT2
62
6
10
2589.804902
20
-412.287648
11
2590.078121
21
-412.014429
0
LINE
5
8d9
100
AcDbEntity
8
1
100
AcDbLine
6
DOT2
62
6
10
2588.561025
20
-413.248683
11
2588.954124
21
-412.855584
0
LINE
5
8da
100
AcDbEntity
8
1
100
AcDbLine
6
DOT2
62
6
10
2589.243302
20
-412.566405
11
2589.395500
21
-412.414207
0
LINE
5
8db
100
AcDbEntity
8
1
100
AcDbLine
6
DOT2
62
6
10
2589.804902
20
-412.004805
11
2589.811508
21
-411.998200
0
LINE
5
8dc
100
AcDbEntity
8
1
100
AcDbLine
6
DOT2
62
6
10
2588.163370
20
-413.363494
11
2588.399726
21
-413.127139
0
LINE
5
8dd
100
AcDbEntity
8
1
100
AcDbLine
6
DOT2
62
6
10
2588.960460
20
-412.566405
11
2589.112657
21
-412.414207
0
LINE
5
8de
100
AcDbEntity
8
1
100
AcDbLine
6
DOT2
62
6
10
2587.953709
20
-413.290313
11
2587.962935
21
-413.281087
0
LINE
5
8df
100
AcDbEntity
8
1
100
AcDbLine
6
DOT2
62
6
10
2588.677617
20
-412.566405
11
2588.829815
21
-412.414207
0
LINE
5
8e0
100
AcDbEntity
8
1
100
AcDbLine
6
DOT2
62
6
10
2588.394774
20
-412.566405
11
2588.546972
21
-412.414207
0
LINE
5
8e1
100
AcDbEntity
8
1
100
AcDbLine
6
DOT2
62
6
10
2588.111931
20
-412.566405
11
2588.264129
21
-412.414207
0
LINE
5
8e2
100
AcDbEntity
8
1
100
AcDbLine
6
DOT2
62
6
10
2588.456073
20
-413.961299
11
2588.431093
21
-413.936320
0
LINE
5
8e3
100
AcDbEntity
8
1
100
AcDbLine
6
DOT2
62
6
10
2591.790131
20
-412.487031
11
2591.484965
21
-412.181865
0
LINE
5
8e4
100
AcDbEntity
8
1
100
AcDbLine
6
DOT2
62
6
10
2591.586821
20
-412.566564
11
2591.356041
21
-412.335785
0
LINE
5
8e5
100
AcDbEntity
8
1
100
AcDbLine
6
DOT2
62
6
10
2591.304235
20
-412.566821
11
2591.151622
21
-412.414207
0
LINE
5
8e6
100
AcDbEntity
8
1
100
AcDbLine
6
DOT2
62
6
10
2591.396380
20
-412.941809
11
2591.112819
21
-412.658248
0
LINE
5
8e7
100
AcDbEntity
8
1
100
AcDbLine
6
DOT2
62
6
10
2591.021650
20
-412.567078
11
2590.868779
21
-412.414207
0
LINE
5
8e8
100
AcDbEntity
8
1
100
AcDbLine
6
DOT2
62
6
10
2591.828592
20
-413.656864
11
2591.644335
21
-413.472606
0
LINE
5
8e9
100
AcDbEntity
8
1
100
AcDbLine
6
DOT2
62
6
10
2591.129774
20
-412.958046
11
2590.943403
21
-412.771675
0
LINE
5
8ea
100
AcDbEntity
8
1
100
AcDbLine
6
DOT2
62
6
10
2590.739064
20
-412.567335
11
2590.585936
21
-412.414207
0
LINE
5
8eb
100
AcDbEntity
8
1
100
AcDbLine
6
DOT2
62
6
10
2590.245262
20
-412.073533
11
2590.228022
21
-412.056294
0
LINE
5
8ec
100
AcDbEntity
8
1
100
AcDbLine
6
DOT2
62
6
10
2591.719848
20
-413.830961
11
2591.280753
21
-413.391866
0
LINE
5
8ed
100
AcDbEntity
8
1
100
AcDbLine
6
DOT2
62
6
10
2590.918546
20
-413.029660
11
2590.769269
21
-412.880383
0
LINE
5
8ee
100
AcDbEntity
8
1
100
AcDbLine
6
DOT2
62
6
10
2590.456478
20
-412.567592
11
2590.303093
21
-412.414207
0
LINE
5
8ef
100
AcDbEntity
8
1
100
AcDbLine
6
DOT2
62
6
10
2590.123528
20
-412.234642
11
2589.887086
21
-411.998200
0
LINE
5
8f0
100
AcDbEntity
8
1
100
AcDbLine
6
DOT2
62
6
10
2591.364834
20
-413.758791
11
2590.779039
21
-413.172996
0
LINE
5
8f1
100
AcDbEntity
8
1
100
AcDbLine
6
DOT2
62
6
10
2590.692764
20
-413.086721
11
2590.590311
21
-412.984268
0
LINE
5
8f2
100
AcDbEntity
8
1
100
AcDbLine
6
DOT2
62
6
10
2590.173893
20
-412.567850
11
2589.804902
21
-412.198859
0
LINE
5
8f3
100
AcDbEntity
8
1
100
AcDbLine
6
DOT2
62
6
10
2590.893202
20
-413.570001
11
2589.737408
21
-412.414207
0
LINE
5
8f4
100
AcDbEntity
8
1
100
AcDbLine
6
DOT2
62
6
10
2589.723049
20
-412.682691
11
2589.454565
21
-412.414207
0
LINE
5
8f5
100
AcDbEntity
8
1
100
AcDbLine
6
DOT2
62
6
10
2590.188183
20
-413.430668
11
2590.084608
21
-413.327093
0
LINE
5
8f6
100
AcDbEntity
8
1
100
AcDbLine
6
DOT2
62
6
10
2589.550491
20
-412.792976
11
2589.354480
21
-412.596964
0
LINE
5
8f7
100
AcDbEntity
8
1
100
AcDbLine
6
DOT2
62
6
10
2589.323920
20
-412.566405
11
2589.171723
21
-412.414207
0
LINE
5
8f8
100
AcDbEntity
8
1
100
AcDbLine
6
DOT2
62
6
10
2589.956401
20
-413.481728
11
2589.829825
21
-413.355152
0
LINE
5
8f9
100
AcDbEntity
8
1
100
AcDbLine
6
DOT2
62
6
10
2589.370659
20
-412.895987
11
2589.186978
21
-412.712306
0
LINE
5
8fa
100
AcDbEntity
8
1
100
AcDbLine
6
DOT2
62
6
10
2589.041078
20
-412.566405
11
2588.888880
21
-412.414207
0
LINE
5
8fb
100
AcDbEntity
8
1
100
AcDbLine
6
DOT2
62
6
10
2589.724619
20
-413.532789
11
2589.575042
21
-413.383212
0
LINE
5
8fc
100
AcDbEntity
8
1
100
AcDbLine
6
DOT2
62
6
10
2589.327274
20
-413.135444
11
2589.012974
21
-412.821145
0
LINE
5
8fd
100
AcDbEntity
8
1
100
AcDbLine
6
DOT2
62
6
10
2588.758235
20
-412.566405
11
2588.606037
21
-412.414207
0
LINE
5
8fe
100
AcDbEntity
8
1
100
AcDbLine
6
DOT2
62
6
10
2589.492837
20
-413.583850
11
2589.028693
21
-413.119706
0
LINE
5
8ff
100
AcDbEntity
8
1
100
AcDbLine
6
DOT2
62
6
10
2588.991369
20
-413.082382
11
2588.832265
21
-412.923278
0
LINE
5
900
100
AcDbEntity
8
1
100
AcDbLine
6
DOT2
62
6
10
2588.475392
20
-412.566405
11
2588.323194
21
-412.414207
0
LINE
5
901
100
AcDbEntity
8
1
100
AcDbLine
6
DOT2
62
6
10
2589.261055
20
-413.634911
11
2589.028693
21
-413.402548
0
LINE
5
902
100
AcDbEntity
8
1
100
AcDbLine
6
DOT2
62
6
10
2588.791469
20
-413.165324
11
2588.644596
21
-413.018451
0
LINE
5
903
100
AcDbEntity
8
1
100
AcDbLine
6
DOT2
62
6
10
2588.192550
20
-412.566405
11
2588.040352
21
-412.414207
0
LINE
5
904
100
AcDbEntity
8
1
100
AcDbLine
6
DOT2
62
6
10
2589.029274
20
-413.685972
11
2588.810693
21
-413.467391
0
LINE
5
905
100
AcDbEntity
8
1
100
AcDbLine
6
DOT2
62
6
10
2588.584182
20
-413.240880
11
2588.449647
21
-413.106346
0
LINE
5
906
100
AcDbEntity
8
1
100
AcDbLine
6
DOT2
62
6
10
2588.797492
20
-413.737033
11
2588.555910
21
-413.495451
0
LINE
5
907
100
AcDbEntity
8
1
100
AcDbLine
6
DOT2
62
6
10
2588.369036
20
-413.308577
11
2588.247027
21
-413.186569
0
LINE
5
908
100
AcDbEntity
8
1
100
AcDbLine
6
DOT2
62
6
10
2588.584003
20
-413.806387
11
2588.324914
21
-413.547298
0
LINE
5
909
100
AcDbEntity
8
1
100
AcDbLine
6
DOT2
62
6
10
2588.145453
20
-413.367837
11
2588.036252
21
-413.258636
0
ENDSEC
0
SECTION
2
OBJECTS
0
DICTIONARY
5
90a
100
AcDbDictionary
3
ACAD_GROUP
350
90b
3
ACAD_MLINESTYLE
350
90c
0
DICTIONARY
5
90b
102
{ACAD_REACTORS
330
90a
102
}
100
AcDbDictionary
0
DICTIONARY
5
90c
102
{ACAD_REACTORS
330
90a
102
}
100
AcDbDictionary
3
STANDARD
350
90d
0
MLINESTYLE
5
90d
102
{ACAD_REACTORS
330
90c
102
}
100
AcDbMlineStyle
2
STANDARD
70
0
3

62
0
51
90.0
52
90.0
71
2
49
0.5
62
256
6
BYLAYER
49
-0.5
62
256
6
BYLAYER
0
ENDSEC
0
EOF
